  0
SECTION
  2
HEADER
  9
$ACADVER
  1
AC1009
  9
$DWGCODEPAGE
  3
undefined
  9
$INSBASE
 10
0.0
 20
0.0
 30
0.0
  9
$EXTMIN
 10
1.000000000000000E+20
 20
1.000000000000000E+20
 30
1.000000000000000E+20
  9
$EXTMAX
 10
-1.000000000000000E+20
 20
-1.000000000000000E+20
 30
-1.000000000000000E+20
  9
$LIMMIN
 10
0.0
 20
0.0
  9
$LIMMAX
 10
12.0
 20
9.0
  9
$ORTHOMODE
 70
     0
  9
$REGENMODE
 70
     1
  9
$FILLMODE
 70
     1
  9
$QTEXTMODE
 70
     0
  9
$MIRRTEXT
 70
     1
  9
$DRAGMODE
 70
     2
  9
$LTSCALE
 40
1.0
  9
$OSMODE
 70
    37
  9
$ATTMODE
 70
     1
  9
$TEXTSIZE
 40
0.2
  9
$TRACEWID
 40
0.05
  9
$TEXTSTYLE
  7
STANDARD
  9
$CLAYER
  8
0
  9
$CELTYPE
  6
BYLAYER
  9
$CECOLOR
 62
   256
  9
$DIMSCALE
 40
1.0
  9
$DIMASZ
 40
0.18
  9
$DIMEXO
 40
0.0625
  9
$DIMDLI
 40
0.38
  9
$DIMRND
 40
0.0
  9
$DIMDLE
 40
0.0
  9
$DIMEXE
 40
0.18
  9
$DIMTP
 40
0.0
  9
$DIMTM
 40
0.0
  9
$DIMTXT
 40
0.18
  9
$DIMCEN
 40
0.09
  9
$DIMTSZ
 40
0.0
  9
$DIMTOL
 70
     0
  9
$DIMLIM
 70
     0
  9
$DIMTIH
 70
     1
  9
$DIMTOH
 70
     1
  9
$DIMSE1
 70
     0
  9
$DIMSE2
 70
     0
  9
$DIMTAD
 70
     0
  9
$DIMZIN
 70
     0
  9
$DIMBLK
  1

  9
$DIMASO
 70
     1
  9
$DIMSHO
 70
     1
  9
$DIMPOST
  1

  9
$DIMAPOST
  1

  9
$DIMALT
 70
     0
  9
$DIMALTD
 70
     2
  9
$DIMALTF
 40
25.4
  9
$DIMLFAC
 40
1.0
  9
$DIMTOFL
 70
     0
  9
$DIMTVP
 40
0.0
  9
$DIMTIX
 70
     0
  9
$DIMSOXD
 70
     0
  9
$DIMSAH
 70
     0
  9
$DIMBLK1
  1

  9
$DIMBLK2
  1

  9
$DIMSTYLE
  2
STANDARD
  9
$DIMCLRD
 70
     0
  9
$DIMCLRE
 70
     0
  9
$DIMCLRT
 70
     0
  9
$DIMTFAC
 40
1.0
  9
$DIMGAP
 40
0.09
  9
$LUNITS
 70
     2
  9
$LUPREC
 70
     4
  9
$SKETCHINC
 40
0.1
  9
$FILLETRAD
 40
0.5
  9
$AUNITS
 70
     0
  9
$AUPREC
 70
     0
  9
$MENU
  1
.
  9
$ELEVATION
 40
0.0
  9
$PELEVATION
 40
0.0
  9
$THICKNESS
 40
0.0
  9
$LIMCHECK
 70
     0
  9
$CHAMFERA
 40
0.0
  9
$CHAMFERB
 40
0.0
  9
$SKPOLY
 70
     0
  9
$TDCREATE
 40
2457423.993506944
  9
$TDUPDATE
 40
2457423.993506944
  9
$TDINDWG
 40
0.0000000116
  9
$TDUSRTIMER
 40
0.0000000116
  9
$USRTIMER
 70
     1
  9
$ANGBASE
 50
0.0
  9
$ANGDIR
 70
     0
  9
$PDMODE
 70
     0
  9
$PDSIZE
 40
0.0
  9
$PLINEWID
 40
0.0
  9
$COORDS
 70
     1
  9
$SPLFRAME
 70
     0
  9
$SPLINETYPE
 70
     6
  9
$SPLINESEGS
 70
     8
  9
$ATTDIA
 70
     0
  9
$ATTREQ
 70
     1
  9
$HANDLING
 70
     1
  9
$HANDSEED
  5
100000C4
  9
$SURFTAB1
 70
     6
  9
$SURFTAB2
 70
     6
  9
$SURFTYPE
 70
     6
  9
$SURFU
 70
     6
  9
$SURFV
 70
     6
  9
$UCSNAME
  2

  9
$UCSORG
 10
0.0
 20
0.0
 30
0.0
  9
$UCSXDIR
 10
1.0
 20
0.0
 30
0.0
  9
$UCSYDIR
 10
0.0
 20
1.0
 30
0.0
  9
$PUCSNAME
  2

  9
$PUCSORG
 10
0.0
 20
0.0
 30
0.0
  9
$PUCSXDIR
 10
1.0
 20
0.0
 30
0.0
  9
$PUCSYDIR
 10
0.0
 20
1.0
 30
0.0
  9
$USERI1
 70
     0
  9
$USERI2
 70
     0
  9
$USERI3
 70
     0
  9
$USERI4
 70
     0
  9
$USERI5
 70
     0
  9
$USERR1
 40
0.0
  9
$USERR2
 40
0.0
  9
$USERR3
 40
0.0
  9
$USERR4
 40
0.0
  9
$USERR5
 40
0.0
  9
$WORLDVIEW
 70
     1
  9
$SHADEDGE
 70
     3
  9
$SHADEDIF
 70
    70
  9
$TILEMODE
 70
     1
  9
$MAXACTVP
 70
    64
  9
$PLIMCHECK
 70
     0
  9
$PEXTMIN
 10
1.000000000000000E+20
 20
1.000000000000000E+20
 30
1.000000000000000E+20
  9
$PEXTMAX
 10
-1.000000000000000E+20
 20
-1.000000000000000E+20
 30
-1.000000000000000E+20
  9
$PLIMMIN
 10
0.0
 20
0.0
  9
$PLIMMAX
 10
12.0
 20
9.0
  9
$UNITMODE
 70
     0
  9
$VISRETAIN
 70
     1
  9
$PLINEGEN
 70
     0
  9
$PSLTSCALE
 70
     1
  0
ENDSEC
  0
SECTION
  2
TABLES
  0
TABLE
  2
VPORT
 70
     1
  0
VPORT
  2
*ACTIVE
 70
     0
 10
0.0
 20
0.0
 11
1.0
 21
1.0
 12
10.42990654205607
 22
4.5
 13
0.0
 23
0.0
 14
0.5
 24
0.5
 15
0.5
 25
0.5
 16
0.0
 26
0.0
 36
1.0
 17
0.0
 27
0.0
 37
0.0
 40
9.0
 41
1.972972972850329
 42
50.0
 43
0.0
 44
0.0
 50
0.0
 51
0.0
 71
     0
 72
   100
 73
     1
 74
     3
 75
     0
 76
     0
 77
     0
 78
     0
  0
ENDTAB
  0
TABLE
  2
LTYPE
 70
     6
  0
LTYPE
  2
CONTINUOUS
 70
     0
  3
Solid line
 72
    65
 73
     0
 40
0.0
  0
LTYPE
  2
HIDDEN
 70
     0
  3
Hidden line ____ ____ ____ ____ 
 72
    83
 73
     2
 40
0.125
 49
0.25
 49
-0.125
  0
LTYPE
  2
ONS_PHANTOM
 70
     0
  3
Onshape Phantom line ______ __ __ ______
 72
    83
 73
     6
 40
0.8250000000000002
 49
0.75
 49
-0.075
 49
0.15
 49
-0.075
 49
0.15
 49
-0.075
  0
LTYPE
  2
CENTER
 70
     0
  3
Center line ____ _ ____ _ ____ _
 72
    83
 73
     4
 40
0.5
 49
0.625
 49
-0.125
 49
0.125
 49
-0.125
  0
LTYPE
  2
DASHED
 70
     0
  3
Dashed line __ __ __ __ __
 72
    83
 73
     2
 40
0.25
 49
0.5
 49
-0.25
  0
LTYPE
  2
ONS_DASHDOT
 70
     0
  3
Onshape Dashed with Dot _ . ____ . ____
 72
    83
 73
     4
 40
0.3100000000000001
 49
0.5
 49
-0.1
 49
0.01
 49
-0.1
  0
ENDTAB
  0
TABLE
  2
LAYER
 70
    10
  0
LAYER
  2
0
 70
     0
 62
     7
  6
CONTINUOUS
  0
LAYER
  2
HIDDEN
 70
     0
 62
    -7
  6
HIDDEN
  0
LAYER
  2
VISIBLE
 70
     0
 62
     7
  6
CONTINUOUS
  0
LAYER
  2
TANGENT_LINES
 70
     0
 62
     7
  6
CONTINUOUS
  0
LAYER
  2
TANGENT_HIDDEN
 70
     0
 62
    -7
  6
HIDDEN
  0
LAYER
  2
INVISIBLE_LINES
 70
     0
 62
    -7
  6
CONTINUOUS
  0
LAYER
  2
SECTION_CUTTING_LINE
 70
     0
 62
     7
  6
ONS_PHANTOM
  0
LAYER
  2
DETAIL_VIEW_BORDER
 70
     0
 62
     7
  6
CONTINUOUS
  0
LAYER
  2
DETAIL_VIEW_PARENT_BORDER
 70
     0
 62
     7
  6
ONS_PHANTOM
  0
LAYER
  2
TEXT
 70
     0
 62
     7
  6
CONTINUOUS
  0
ENDTAB
  0
TABLE
  2
STYLE
 70
     2
  0
STYLE
  2
STANDARD
 70
     0
 40
0.0
 41
1.0
 50
0.0
 71
     0
 42
0.2
  3
txt
  4

  0
STYLE
  2
TTFSTYLE
 70
     0
 40
0.0
 41
1.0
 50
0.0
 71
     0
 42
0.2
  3
Verdana.ttf
  4

  0
ENDTAB
  0
TABLE
  2
VIEW
 70
     0
  0
ENDTAB
  0
TABLE
  2
UCS
 70
     0
  0
ENDTAB
  0
TABLE
  2
APPID
 70
     1
  0
APPID
  2
ACAD
 70
     0
  0
ENDTAB
  0
TABLE
  2
DIMSTYLE
 70
     1
  0
DIMSTYLE
  2
STANDARD
 70
     0
  3

  4

  5

  6

  7

 40
1.0
 41
0.18
 42
0.0625
 43
0.38
 44
0.18
 45
0.0
 46
0.0
 47
0.0
 48
0.0
140
0.18
141
0.09
142
0.0
143
25.4
144
1.0
145
0.0
146
1.0
147
0.09
 71
     0
 72
     0
 73
     1
 74
     1
 75
     0
 76
     0
 77
     0
 78
     0
170
     0
171
     2
172
     0
173
     0
174
     0
175
     0
176
     0
177
     0
178
     0
  0
ENDTAB
  0
ENDSEC
  0
SECTION
  2
BLOCKS
  0
BLOCK
  8
0
  2
$MODEL_SPACE
 70
     0
 10
0.0
 20
0.0
 30
0.0
  3
$MODEL_SPACE
  1

  0
ENDBLK
  5
21
  8
0
  0
BLOCK
 67
     1
  8
0
  2
$PAPER_SPACE
 70
     0
 10
0.0
 20
0.0
 30
0.0
  3
$PAPER_SPACE
  1

  0
ENDBLK
  5
1D
 67
     1
  8
0
  0
ENDSEC
  0
SECTION
  2
ENTITIES
  0
LINE
  5
F7B43
  8
VISIBLE
 10
11.25
 20
-0.0574999999999836
 30
0.0
 11
11.075
 21
-0.0574999999999839
 31
0.0
  0
LINE
  5
F7B44
  8
VISIBLE
 10
0.1075000000000002
 20
-1.225
 30
0.0
 11
0.0575000000000002
 21
-1.225
 31
0.0
  0
LINE
  5
F7B45
  8
VISIBLE
 10
11.25
 20
1.500000000000001
 30
0.0
 11
-11.25
 21
1.499999999999997
 31
0.0
  0
LINE
  5
F7B46
  8
VISIBLE
 10
10.8
 20
-0.0575
 30
0.0
 11
10.8
 21
0.0
 31
0.0
  0
LINE
  5
F7B47
  8
VISIBLE
 10
-11.075
 20
0.0574999999999973
 30
0.0
 11
-11.075
 21
0.1075
 31
0.0
  0
LINE
  5
F7B48
  8
VISIBLE
 10
-0.1074999999999999
 20
-1.325
 30
0.0
 11
-0.1074999999999999
 21
-1.225
 31
0.0
  0
LINE
  5
F7B49
  8
VISIBLE
 10
11.25
 20
-1.499999999999999
 30
0.0
 11
11.25
 21
-0.0575
 31
0.0
  0
LINE
  5
F7B4A
  8
VISIBLE
 10
11.075
 20
0.1075000000000155
 30
0.0
 11
10.975
 21
0.1075000000000153
 31
0.0
  0
LINE
  5
F7B4B
  8
VISIBLE
 10
-0.1074999999999999
 20
-1.225
 30
0.0
 11
-0.0574999999999998
 21
-1.225
 31
0.0
  0
LINE
  5
F7B4C
  8
VISIBLE
 10
-0.0574999999999969
 20
-1.225
 30
0.0
 11
-0.057499999999997
 21
-1.05
 31
0.0
  0
LINE
  5
F7B4D
  8
VISIBLE
 10
0.0575000000000002
 20
-1.05
 30
0.0
 11
0.0
 21
-1.05
 31
0.0
  0
LINE
  5
F7B4E
  8
VISIBLE
 10
-0.0575000000000001
 20
-1.5
 30
0.0
 11
-11.25000000000001
 21
-1.500000000000001
 31
0.0
  0
LINE
  5
F7B4F
  8
VISIBLE
 10
0.0575000000000031
 20
-1.225
 30
0.0
 11
0.057500000000003
 21
-1.05
 31
0.0
  0
LINE
  5
F7B50
  8
VISIBLE
 10
0.1075000000000062
 20
-1.325
 30
0.0
 11
0.107500000000006
 21
-1.225
 31
0.0
  0
LINE
  5
F7B51
  8
VISIBLE
 10
0.0575000000000002
 20
-1.325
 30
0.0
 11
0.1075000000000002
 21
-1.325
 31
0.0
  0
LINE
  5
F7B52
  8
VISIBLE
 10
-0.0574999999999967
 20
-1.5
 30
0.0
 11
-0.0574999999999969
 21
-1.325
 31
0.0
  0
LINE
  5
F7B53
  8
VISIBLE
 10
-11.25
 20
-0.0575
 30
0.0
 11
-11.075
 21
-0.0575
 31
0.0
  0
LINE
  5
F7B54
  8
VISIBLE
 10
-11.075
 20
-0.1075
 30
0.0
 11
-10.975
 21
-0.1075
 31
0.0
  0
LINE
  5
F7B55
  8
VISIBLE
 10
-10.8
 20
-0.0574999999999974
 30
0.0
 11
-10.8
 21
-0.0000000000000026
 31
0.0
  0
LINE
  5
F7B56
  8
VISIBLE
 10
-10.8
 20
0.0574999999999974
 30
0.0
 11
-10.8
 21
-0.0000000000000026
 31
0.0
  0
LINE
  5
F7B57
  8
VISIBLE
 10
-10.975
 20
0.1075
 30
0.0
 11
-10.975
 21
0.0574999999999973
 31
0.0
  0
LINE
  5
F7B58
  8
VISIBLE
 10
-11.25
 20
-1.500000000000002
 30
0.0
 11
-11.25
 21
-0.0574999999999972
 31
0.0
  0
LINE
  5
F7B59
  8
VISIBLE
 10
-11.075
 20
0.1074999999999993
 30
0.0
 11
-10.975
 21
0.1074999999999993
 31
0.0
  0
LINE
  5
F7B5A
  8
VISIBLE
 10
-11.25
 20
0.0574999999999993
 30
0.0
 11
-11.075
 21
0.0574999999999993
 31
0.0
  0
LINE
  5
F7B5B
  8
VISIBLE
 10
10.975
 20
-0.1075000000000027
 30
0.0
 11
10.975
 21
-0.0575
 31
0.0
  0
LINE
  5
F7B5C
  8
VISIBLE
 10
10.975
 20
-0.057499999999984
 30
0.0
 11
10.8
 21
-0.0574999999999843
 31
0.0
  0
LINE
  5
F7B5D
  8
VISIBLE
 10
10.975
 20
0.1075000000000027
 30
0.0
 11
10.975
 21
0.0575
 31
0.0
  0
LINE
  5
F7B5E
  8
VISIBLE
 10
11.25
 20
0.0575000000000157
 30
0.0
 11
11.075
 21
0.0575000000000155
 31
0.0
  0
LINE
  5
F7B5F
  8
VISIBLE
 10
11.25
 20
0.0575
 30
0.0
 11
11.25
 21
1.500000000000002
 31
0.0
  0
LINE
  5
F7B60
  8
VISIBLE
 10
10.8
 20
0.0575
 30
0.0
 11
10.8
 21
0.0
 31
0.0
  0
LINE
  5
F7B61
  8
VISIBLE
 10
-11.25
 20
0.0574999999999973
 30
0.0
 11
-11.25
 21
1.499999999999999
 31
0.0
  0
CIRCLE
  5
F7B62
  8
VISIBLE
 10
0.0
 20
1.374999999999999
 30
0.0
 40
0.0575
  0
LINE
  5
F7B63
  8
VISIBLE
 10
11.075
 20
0.0575
 30
0.0
 11
11.075
 21
0.1075000000000027
 31
0.0
  0
LINE
  5
F7B64
  8
VISIBLE
 10
0.0575000000000033
 20
-1.5
 30
0.0
 11
0.0575000000000032
 21
-1.325
 31
0.0
  0
LINE
  5
F7B65
  8
VISIBLE
 10
-11.075
 20
-0.0574999999999973
 30
0.0
 11
-11.075
 21
-0.1075
 31
0.0
  0
LINE
  5
F7B66
  8
VISIBLE
 10
-0.0574999999999999
 20
-1.325
 30
0.0
 11
-0.1074999999999999
 21
-1.325
 31
0.0
  0
LINE
  5
F7B67
  8
VISIBLE
 10
-0.0574999999999999
 20
-1.05
 30
0.0
 11
0.0
 21
-1.05
 31
0.0
  0
LINE
  5
F7B68
  8
VISIBLE
 10
11.075
 20
-0.0575
 30
0.0
 11
11.075
 21
-0.1075000000000027
 31
0.0
  0
LINE
  5
F7B69
  8
VISIBLE
 10
11.075
 20
-0.1074999999999839
 30
0.0
 11
10.975
 21
-0.107499999999984
 31
0.0
  0
LINE
  5
F7B6A
  8
VISIBLE
 10
-10.975
 20
-0.1075
 30
0.0
 11
-10.975
 21
-0.0574999999999973
 31
0.0
  0
LINE
  5
F7B6B
  8
VISIBLE
 10
-10.975
 20
-0.0575
 30
0.0
 11
-10.8
 21
-0.0575
 31
0.0
  0
LINE
  5
F7B6C
  8
VISIBLE
 10
-10.975
 20
0.0574999999999994
 30
0.0
 11
-10.8
 21
0.0574999999999994
 31
0.0
  0
LINE
  5
F7B6D
  8
VISIBLE
 10
11.25000000000001
 20
-1.499999999999999
 30
0.0
 11
0.0575000000000001
 21
-1.5
 31
0.0
  0
LINE
  5
F7B6E
  8
VISIBLE
 10
10.975
 20
0.0575000000000154
 30
0.0
 11
10.8
 21
0.0575000000000151
 31
0.0
  0
ENDSEC
  0
EOF
