  0
SECTION
  2
HEADER
  9
$ACADVER
  1
AC1009
  9
$INSBASE
 10
0.0
 20
0.0
 30
0.0
  9
$EXTMIN
 10
0.0
 20
0.0
 30
0.0
  9
$EXTMAX
 10
0.0
 20
0.0
 30
0.0
  0
ENDSEC
  0
SECTION
  2
TABLES
  0
TABLE
  2
VPORT
 70
0
  0
ENDTAB
  0
TABLE
  2
LTYPE
 70
1
  0
LTYPE
  2
CONTINUOUS
 70
0
  3
Solid line
 72
65
 73
0
 40
0.0
  0
ENDTAB
  0
TABLE
  2
LAYER
 70
1
  0
LAYER
  2
0
 70
64
 62
7
  6
continuous
  0
ENDTAB
  0
TABLE
  2
STYLE
 70
1
  0
STYLE
  2
STANDARD
 70
0
 40
0
 41
1.0
 50
0.0
 71
0
 42
1
 3
ARIAL.TTF
 4

  0
ENDTAB
  0
TABLE
  2
VIEW
 70
0
  0
ENDTAB
  0
ENDSEC
  0
SECTION
  2
BLOCKS
  0
BLOCK
  8
0
  2
ARRAY
 70
0
 10
0.0
 20
0.0
 30
0.0
  3
ARRAY
  0
POLYLINE
  8
0
 62
0
 70
1
 66
1
 10
0.0
 20
0.0
 30
0.0
  0
VERTEX
  8
0
 10
13.5
 20
138.0
  0
VERTEX
  8
0
 10
50.5
 20
138.0
  0
VERTEX
  8
0
 10
50.5
 20
133.0
  0
VERTEX
  8
0
 10
13.5
 20
133.0
  0
SEQEND
  8
0
  0
POLYLINE
  8
0
 62
0
 70
1
 66
1
 10
0.0
 20
0.0
 30
0.0
  0
VERTEX
  8
0
 10
13.5
 20
128.0
  0
VERTEX
  8
0
 10
50.5
 20
128.0
  0
VERTEX
  8
0
 10
50.5
 20
123.0
  0
VERTEX
  8
0
 10
13.5
 20
123.0
  0
SEQEND
  8
0
  0
POLYLINE
  8
0
 62
0
 70
1
 66
1
 10
0.0
 20
0.0
 30
0.0
  0
VERTEX
  8
0
 10
13.5
 20
118.0
  0
VERTEX
  8
0
 10
50.5
 20
118.0
  0
VERTEX
  8
0
 10
50.5
 20
113.0
  0
VERTEX
  8
0
 10
13.5
 20
113.0
  0
SEQEND
  8
0
  0
POLYLINE
  8
0
 62
0
 70
1
 66
1
 10
0.0
 20
0.0
 30
0.0
  0
VERTEX
  8
0
 10
13.5
 20
108.0
  0
VERTEX
  8
0
 10
50.5
 20
108.0
  0
VERTEX
  8
0
 10
50.5
 20
103.0
  0
VERTEX
  8
0
 10
13.5
 20
103.0
  0
SEQEND
  8
0
  0
POLYLINE
  8
0
 62
0
 70
1
 66
1
 10
0.0
 20
0.0
 30
0.0
  0
VERTEX
  8
0
 10
13.5
 20
98.0
  0
VERTEX
  8
0
 10
50.5
 20
98.0
  0
VERTEX
  8
0
 10
50.5
 20
93.0
  0
VERTEX
  8
0
 10
13.5
 20
93.0
  0
SEQEND
  8
0
  0
POLYLINE
  8
0
 62
0
 70
1
 66
1
 10
0.0
 20
0.0
 30
0.0
  0
VERTEX
  8
0
 10
13.5
 20
88.0
  0
VERTEX
  8
0
 10
50.5
 20
88.0
  0
VERTEX
  8
0
 10
50.5
 20
83.0
  0
VERTEX
  8
0
 10
13.5
 20
83.0
  0
SEQEND
  8
0
  0
POLYLINE
  8
0
 62
0
 70
1
 66
1
 10
0.0
 20
0.0
 30
0.0
  0
VERTEX
  8
0
 10
13.5
 20
78.0
  0
VERTEX
  8
0
 10
50.5
 20
78.0
  0
VERTEX
  8
0
 10
50.5
 20
73.0
  0
VERTEX
  8
0
 10
13.5
 20
73.0
  0
SEQEND
  8
0
  0
POLYLINE
  8
0
 62
0
 70
1
 66
1
 10
0.0
 20
0.0
 30
0.0
  0
VERTEX
  8
0
 10
13.5
 20
68.0
  0
VERTEX
  8
0
 10
50.5
 20
68.0
  0
VERTEX
  8
0
 10
50.5
 20
63.0
  0
VERTEX
  8
0
 10
13.5
 20
63.0
  0
SEQEND
  8
0
  0
POLYLINE
  8
0
 62
0
 70
1
 66
1
 10
0.0
 20
0.0
 30
0.0
  0
VERTEX
  8
0
 10
13.5
 20
58.0
  0
VERTEX
  8
0
 10
50.5
 20
58.0
  0
VERTEX
  8
0
 10
50.5
 20
53.0
  0
VERTEX
  8
0
 10
13.5
 20
53.0
  0
SEQEND
  8
0
  0
POLYLINE
  8
0
 62
0
 70
1
 66
1
 10
0.0
 20
0.0
 30
0.0
  0
VERTEX
  8
0
 10
13.5
 20
48.0
  0
VERTEX
  8
0
 10
50.5
 20
48.0
  0
VERTEX
  8
0
 10
50.5
 20
43.0
  0
VERTEX
  8
0
 10
13.5
 20
43.0
  0
SEQEND
  8
0
  0
POLYLINE
  8
0
 62
0
 70
1
 66
1
 10
0.0
 20
0.0
 30
0.0
  0
VERTEX
  8
0
 10
13.5
 20
38.0
  0
VERTEX
  8
0
 10
50.5
 20
38.0
  0
VERTEX
  8
0
 10
50.5
 20
33.0
  0
VERTEX
  8
0
 10
13.5
 20
33.0
  0
SEQEND
  8
0
  0
POLYLINE
  8
0
 62
0
 70
1
 66
1
 10
0.0
 20
0.0
 30
0.0
  0
VERTEX
  8
0
 10
13.5
 20
28.0
  0
VERTEX
  8
0
 10
50.5
 20
28.0
  0
VERTEX
  8
0
 10
50.5
 20
23.0
  0
VERTEX
  8
0
 10
13.5
 20
23.0
  0
SEQEND
  8
0
  0
POLYLINE
  8
0
 62
0
 70
1
 66
1
 10
0.0
 20
0.0
 30
0.0
  0
VERTEX
  8
0
 10
13.5
 20
18.0
  0
VERTEX
  8
0
 10
50.5
 20
18.0
  0
VERTEX
  8
0
 10
50.5
 20
13.0
  0
VERTEX
  8
0
 10
13.5
 20
13.0
  0
SEQEND
  8
0
  0
POLYLINE
  8
0
 62
0
 70
1
 66
1
 10
0.0
 20
0.0
 30
0.0
  0
VERTEX
  8
0
 10
53.5
 20
138.0
  0
VERTEX
  8
0
 10
90.5
 20
138.0
  0
VERTEX
  8
0
 10
90.5
 20
133.0
  0
VERTEX
  8
0
 10
53.5
 20
133.0
  0
SEQEND
  8
0
  0
POLYLINE
  8
0
 62
0
 70
1
 66
1
 10
0.0
 20
0.0
 30
0.0
  0
VERTEX
  8
0
 10
53.5
 20
128.0
  0
VERTEX
  8
0
 10
90.5
 20
128.0
  0
VERTEX
  8
0
 10
90.5
 20
123.0
  0
VERTEX
  8
0
 10
53.5
 20
123.0
  0
SEQEND
  8
0
  0
POLYLINE
  8
0
 62
0
 70
1
 66
1
 10
0.0
 20
0.0
 30
0.0
  0
VERTEX
  8
0
 10
53.5
 20
118.0
  0
VERTEX
  8
0
 10
90.5
 20
118.0
  0
VERTEX
  8
0
 10
90.5
 20
113.0
  0
VERTEX
  8
0
 10
53.5
 20
113.0
  0
SEQEND
  8
0
  0
POLYLINE
  8
0
 62
0
 70
1
 66
1
 10
0.0
 20
0.0
 30
0.0
  0
VERTEX
  8
0
 10
53.5
 20
108.0
  0
VERTEX
  8
0
 10
90.5
 20
108.0
  0
VERTEX
  8
0
 10
90.5
 20
103.0
  0
VERTEX
  8
0
 10
53.5
 20
103.0
  0
SEQEND
  8
0
  0
POLYLINE
  8
0
 62
0
 70
1
 66
1
 10
0.0
 20
0.0
 30
0.0
  0
VERTEX
  8
0
 10
53.5
 20
98.0
  0
VERTEX
  8
0
 10
90.5
 20
98.0
  0
VERTEX
  8
0
 10
90.5
 20
93.0
  0
VERTEX
  8
0
 10
53.5
 20
93.0
  0
SEQEND
  8
0
  0
POLYLINE
  8
0
 62
0
 70
1
 66
1
 10
0.0
 20
0.0
 30
0.0
  0
VERTEX
  8
0
 10
53.5
 20
88.0
  0
VERTEX
  8
0
 10
90.5
 20
88.0
  0
VERTEX
  8
0
 10
90.5
 20
83.0
  0
VERTEX
  8
0
 10
53.5
 20
83.0
  0
SEQEND
  8
0
  0
POLYLINE
  8
0
 62
0
 70
1
 66
1
 10
0.0
 20
0.0
 30
0.0
  0
VERTEX
  8
0
 10
53.5
 20
78.0
  0
VERTEX
  8
0
 10
90.5
 20
78.0
  0
VERTEX
  8
0
 10
90.5
 20
73.0
  0
VERTEX
  8
0
 10
53.5
 20
73.0
  0
SEQEND
  8
0
  0
POLYLINE
  8
0
 62
0
 70
1
 66
1
 10
0.0
 20
0.0
 30
0.0
  0
VERTEX
  8
0
 10
53.5
 20
68.0
  0
VERTEX
  8
0
 10
90.5
 20
68.0
  0
VERTEX
  8
0
 10
90.5
 20
63.0
  0
VERTEX
  8
0
 10
53.5
 20
63.0
  0
SEQEND
  8
0
  0
POLYLINE
  8
0
 62
0
 70
1
 66
1
 10
0.0
 20
0.0
 30
0.0
  0
VERTEX
  8
0
 10
53.5
 20
58.0
  0
VERTEX
  8
0
 10
90.5
 20
58.0
  0
VERTEX
  8
0
 10
90.5
 20
53.0
  0
VERTEX
  8
0
 10
53.5
 20
53.0
  0
SEQEND
  8
0
  0
POLYLINE
  8
0
 62
0
 70
1
 66
1
 10
0.0
 20
0.0
 30
0.0
  0
VERTEX
  8
0
 10
53.5
 20
48.0
  0
VERTEX
  8
0
 10
90.5
 20
48.0
  0
VERTEX
  8
0
 10
90.5
 20
43.0
  0
VERTEX
  8
0
 10
53.5
 20
43.0
  0
SEQEND
  8
0
  0
POLYLINE
  8
0
 62
0
 70
1
 66
1
 10
0.0
 20
0.0
 30
0.0
  0
VERTEX
  8
0
 10
53.5
 20
38.0
  0
VERTEX
  8
0
 10
90.5
 20
38.0
  0
VERTEX
  8
0
 10
90.5
 20
33.0
  0
VERTEX
  8
0
 10
53.5
 20
33.0
  0
SEQEND
  8
0
  0
POLYLINE
  8
0
 62
0
 70
1
 66
1
 10
0.0
 20
0.0
 30
0.0
  0
VERTEX
  8
0
 10
53.5
 20
28.0
  0
VERTEX
  8
0
 10
90.5
 20
28.0
  0
VERTEX
  8
0
 10
90.5
 20
23.0
  0
VERTEX
  8
0
 10
53.5
 20
23.0
  0
SEQEND
  8
0
  0
POLYLINE
  8
0
 62
0
 70
1
 66
1
 10
0.0
 20
0.0
 30
0.0
  0
VERTEX
  8
0
 10
53.5
 20
18.0
  0
VERTEX
  8
0
 10
90.5
 20
18.0
  0
VERTEX
  8
0
 10
90.5
 20
13.0
  0
VERTEX
  8
0
 10
53.5
 20
13.0
  0
SEQEND
  8
0
  0
ENDBLK
  0
ENDSEC
  0
SECTION
  2
ENTITIES
  0
POLYLINE
  8
0
 62
0
 70
0
 66
1
 10
0.0
 20
0.0
 30
0.0
  0
VERTEX
  8
0
 10
-5.0
 20
-2.84217094304e-14
  0
VERTEX
  8
0
 10
-5.0
 20
50.0
  0
SEQEND
  8
0
  0
INSERT
  2
ARRAY
  8
0
 10
0.0
 20
0.0
 30
0.0
  0
POLYLINE
  8
0
 62
0
 70
0
 66
1
 10
0.0
 20
0.0
 30
0.0
  0
VERTEX
  8
0
 10
-95.0
 20
150.0
  0
VERTEX
  8
0
 10
-5.0
 20
150.0
  0
SEQEND
  8
0
  0
POLYLINE
  8
0
 62
0
 70
0
 66
1
 10
0.0
 20
0.0
 30
0.0
  0
VERTEX
  8
0
 10
-235.0
 20
100.0
  0
VERTEX
  8
0
 10
-240.0
 20
100.0
  0
SEQEND
  8
0
  0
POLYLINE
  8
0
 62
0
 70
0
 66
1
 10
0.0
 20
0.0
 30
0.0
  0
VERTEX
  8
0
 10
-235.0
 20
50.0
  0
VERTEX
  8
0
 10
-240.0
 20
50.0
  0
SEQEND
  8
0
  0
POLYLINE
  8
0
 62
0
 70
0
 66
1
 10
0.0
 20
0.0
 30
0.0
  0
VERTEX
  8
0
 10
-95.0
 20
-2.84217094304e-14
  0
VERTEX
  8
0
 10
-5.0
 20
-1.40321095404e-14
  0
SEQEND
  8
0
  0
POLYLINE
  8
0
 62
0
 70
0
 66
1
 10
0.0
 20
0.0
 30
0.0
  0
VERTEX
  8
0
 10
-95.0
 20
-4.0
  0
VERTEX
  8
0
 10
-145.0
 20
-4.0
  0
SEQEND
  8
0
  0
POLYLINE
  8
0
 62
0
 70
0
 66
1
 10
0.0
 20
0.0
 30
0.0
  0
VERTEX
  8
0
 10
-95.0
 20
-1.95430201366e-14
  0
VERTEX
  8
0
 10
-95.0
 20
-4.0
  0
SEQEND
  8
0
  0
POLYLINE
  8
0
 62
0
 70
0
 66
1
 10
0.0
 20
0.0
 30
0.0
  0
VERTEX
  8
0
 10
-145.0
 20
150.0
  0
VERTEX
  8
0
 10
-235.0
 20
150.0
  0
SEQEND
  8
0
  0
POLYLINE
  8
0
 62
0
 70
0
 66
1
 10
0.0
 20
0.0
 30
0.0
  0
VERTEX
  8
0
 10
-235.0
 20
50.0
  0
VERTEX
  8
0
 10
-235.0
 20
-2.84217094304e-14
  0
SEQEND
  8
0
  0
POLYLINE
  8
0
 62
0
 70
0
 66
1
 10
0.0
 20
0.0
 30
0.0
  0
VERTEX
  8
0
 10
-5.0
 20
100.0
  0
VERTEX
  8
0
 10
-5.0
 20
150.0
  0
SEQEND
  8
0
  0
POLYLINE
  8
0
 62
0
 70
0
 66
1
 10
0.0
 20
0.0
 30
0.0
  0
VERTEX
  8
0
 10
-5.0
 20
100.0
  0
VERTEX
  8
0
 10
0.0
 20
100.0
  0
SEQEND
  8
0
  0
POLYLINE
  8
0
 62
0
 70
0
 66
1
 10
0.0
 20
0.0
 30
0.0
  0
VERTEX
  8
0
 10
-5.0
 20
50.0
  0
VERTEX
  8
0
 10
0.0
 20
50.0
  0
SEQEND
  8
0
  0
POLYLINE
  8
0
 62
0
 70
0
 66
1
 10
0.0
 20
0.0
 30
0.0
  0
VERTEX
  8
0
 10
0.0
 20
100.0
  0
VERTEX
  8
0
 10
0.0
 20
50.0
  0
SEQEND
  8
0
  0
POLYLINE
  8
0
 62
0
 70
0
 66
1
 10
0.0
 20
0.0
 30
0.0
  0
VERTEX
  8
0
 10
-95.0
 20
154.0
  0
VERTEX
  8
0
 10
-145.0
 20
154.0
  0
SEQEND
  8
0
  0
POLYLINE
  8
0
 62
0
 70
0
 66
1
 10
0.0
 20
0.0
 30
0.0
  0
VERTEX
  8
0
 10
145.0
 20
150.0
  0
VERTEX
  8
0
 10
235.0
 20
150.0
  0
SEQEND
  8
0
  0
POLYLINE
  8
0
 62
0
 70
0
 66
1
 10
0.0
 20
0.0
 30
0.0
  0
VERTEX
  8
0
 10
-235.0
 20
150.0
  0
VERTEX
  8
0
 10
-235.0
 20
100.0
  0
SEQEND
  8
0
  0
POLYLINE
  8
0
 62
0
 70
0
 66
1
 10
0.0
 20
0.0
 30
0.0
  0
VERTEX
  8
0
 10
-95.0
 20
154.0
  0
VERTEX
  8
0
 10
-95.0
 20
150.0
  0
SEQEND
  8
0
  0
POLYLINE
  8
0
 62
0
 70
0
 66
1
 10
0.0
 20
0.0
 30
0.0
  0
VERTEX
  8
0
 10
-145.0
 20
-4.0
  0
VERTEX
  8
0
 10
-145.0
 20
-2.30926389122e-14
  0
SEQEND
  8
0
  0
POLYLINE
  8
0
 62
0
 70
1
 66
1
 10
0.0
 20
0.0
 30
0.0
  0
VERTEX
  8
0
 10
13.0
 20
141.0
  0
VERTEX
  8
0
 10
50.0
 20
141.0
  0
VERTEX
  8
0
 10
50.0
 20
136.0
  0
VERTEX
  8
0
 10
13.0
 20
136.0
  0
SEQEND
  8
0
  0
POLYLINE
  8
0
 62
0
 70
0
 66
1
 10
0.0
 20
0.0
 30
0.0
  0
VERTEX
  8
0
 10
235.0
 20
0.0
  0
VERTEX
  8
0
 10
235.0
 20
50.0
  0
SEQEND
  8
0
  0
POLYLINE
  8
0
 62
0
 70
0
 66
1
 10
0.0
 20
0.0
 30
0.0
  0
VERTEX
  8
0
 10
-145.0
 20
154.0
  0
VERTEX
  8
0
 10
-145.0
 20
150.0
  0
SEQEND
  8
0
  0
POLYLINE
  8
0
 62
0
 70
0
 66
1
 10
0.0
 20
0.0
 30
0.0
  0
VERTEX
  8
0
 10
-240.0
 20
100.0
  0
VERTEX
  8
0
 10
-240.0
 20
50.0
  0
SEQEND
  8
0
  0
POLYLINE
  8
0
 62
0
 70
0
 66
1
 10
0.0
 20
0.0
 30
0.0
  0
VERTEX
  8
0
 10
-145.0
 20
-2.79337076527e-14
  0
VERTEX
  8
0
 10
-235.0
 20
-2.81155477306e-14
  0
SEQEND
  8
0
  0
POLYLINE
  8
0
 62
0
 70
0
 66
1
 10
0.0
 20
0.0
 30
0.0
  0
VERTEX
  8
0
 10
5.0
 20
100.0
  0
VERTEX
  8
0
 10
-2.6645352591e-15
 20
100.0
  0
SEQEND
  8
0
  0
POLYLINE
  8
0
 62
0
 70
0
 66
1
 10
0.0
 20
0.0
 30
0.0
  0
VERTEX
  8
0
 10
5.0
 20
50.0
  0
VERTEX
  8
0
 10
-1.7763568394e-15
 20
50.0
  0
SEQEND
  8
0
  0
POLYLINE
  8
0
 62
0
 70
0
 66
1
 10
0.0
 20
0.0
 30
0.0
  0
VERTEX
  8
0
 10
145.0
 20
-1.68974005898e-27
  0
VERTEX
  8
0
 10
235.0
 20
1.438959989e-14
  0
SEQEND
  8
0
  0
POLYLINE
  8
0
 62
0
 70
0
 66
1
 10
0.0
 20
0.0
 30
0.0
  0
VERTEX
  8
0
 10
145.0
 20
-4.0
  0
VERTEX
  8
0
 10
95.0
 20
-4.0
  0
SEQEND
  8
0
  0
POLYLINE
  8
0
 62
0
 70
0
 66
1
 10
0.0
 20
0.0
 30
0.0
  0
VERTEX
  8
0
 10
145.0
 20
8.87868929382e-15
  0
VERTEX
  8
0
 10
145.0
 20
-4.0
  0
SEQEND
  8
0
  0
POLYLINE
  8
0
 62
0
 70
0
 66
1
 10
0.0
 20
0.0
 30
0.0
  0
VERTEX
  8
0
 10
95.0
 20
150.0
  0
VERTEX
  8
0
 10
5.0
 20
150.0
  0
SEQEND
  8
0
  0
POLYLINE
  8
0
 62
0
 70
0
 66
1
 10
0.0
 20
0.0
 30
0.0
  0
VERTEX
  8
0
 10
5.0
 20
50.0
  0
VERTEX
  8
0
 10
5.0
 20
0.0
  0
SEQEND
  8
0
  0
POLYLINE
  8
0
 62
0
 70
0
 66
1
 10
0.0
 20
0.0
 30
0.0
  0
VERTEX
  8
0
 10
235.0
 20
100.0
  0
VERTEX
  8
0
 10
235.0
 20
150.0
  0
SEQEND
  8
0
  0
POLYLINE
  8
0
 62
0
 70
0
 66
1
 10
0.0
 20
0.0
 30
0.0
  0
VERTEX
  8
0
 10
235.0
 20
100.0
  0
VERTEX
  8
0
 10
240.0
 20
100.0
  0
SEQEND
  8
0
  0
POLYLINE
  8
0
 62
0
 70
0
 66
1
 10
0.0
 20
0.0
 30
0.0
  0
VERTEX
  8
0
 10
235.0
 20
50.0
  0
VERTEX
  8
0
 10
240.0
 20
50.0
  0
SEQEND
  8
0
  0
POLYLINE
  8
0
 62
0
 70
0
 66
1
 10
0.0
 20
0.0
 30
0.0
  0
VERTEX
  8
0
 10
240.0
 20
100.0
  0
VERTEX
  8
0
 10
240.0
 20
50.0
  0
SEQEND
  8
0
  0
POLYLINE
  8
0
 62
0
 70
0
 66
1
 10
0.0
 20
0.0
 30
0.0
  0
VERTEX
  8
0
 10
145.0
 20
154.0
  0
VERTEX
  8
0
 10
95.0
 20
154.0
  0
SEQEND
  8
0
  0
POLYLINE
  8
0
 62
0
 70
0
 66
1
 10
0.0
 20
0.0
 30
0.0
  0
VERTEX
  8
0
 10
5.0
 20
150.0
  0
VERTEX
  8
0
 10
5.0
 20
100.0
  0
SEQEND
  8
0
  0
POLYLINE
  8
0
 62
0
 70
0
 66
1
 10
0.0
 20
0.0
 30
0.0
  0
VERTEX
  8
0
 10
145.0
 20
154.0
  0
VERTEX
  8
0
 10
145.0
 20
150.0
  0
SEQEND
  8
0
  0
POLYLINE
  8
0
 62
0
 70
0
 66
1
 10
0.0
 20
0.0
 30
0.0
  0
VERTEX
  8
0
 10
95.0
 20
-4.0
  0
VERTEX
  8
0
 10
95.0
 20
5.3290705182e-15
  0
SEQEND
  8
0
  0
POLYLINE
  8
0
 62
0
 70
0
 66
1
 10
0.0
 20
0.0
 30
0.0
  0
VERTEX
  8
0
 10
5.0
 20
100.0
  0
VERTEX
  8
0
 10
0.0
 20
100.0
  0
SEQEND
  8
0
  0
POLYLINE
  8
0
 62
0
 70
0
 66
1
 10
0.0
 20
0.0
 30
0.0
  0
VERTEX
  8
0
 10
95.0
 20
154.0
  0
VERTEX
  8
0
 10
95.0
 20
150.0
  0
SEQEND
  8
0
  0
POLYLINE
  8
0
 62
0
 70
0
 66
1
 10
0.0
 20
0.0
 30
0.0
  0
VERTEX
  8
0
 10
0.0
 20
100.0
  0
VERTEX
  8
0
 10
0.0
 20
50.0
  0
SEQEND
  8
0
  0
POLYLINE
  8
0
 62
0
 70
0
 66
1
 10
0.0
 20
0.0
 30
0.0
  0
VERTEX
  8
0
 10
95.0
 20
4.88001777749e-16
  0
VERTEX
  8
0
 10
5.0
 20
3.06161699787e-16
  0
SEQEND
  8
0
  0
ENDSEC
  0
EOF
