999
dxfrw 0.6.3
  0
SECTION
  2
HEADER
  9
$ACADVER
  1
AC1021
  9
$DWGCODEPAGE
  3
ANSI_1252
  9
$INSBASE
 10
0
 20
0
 30
0
  9
$EXTMIN
 10
-100
 20
-1100
 30
0
  9
$EXTMAX
 10
200
 20
-800
 30
0
  9
$LIMMIN
 10
0
 20
0
  9
$LIMMAX
 10
420
 20
297
  9
$ORTHOMODE
 70
    0
  9
$REGENMODE
 70
    1
  9
$FILLMODE
 70
    1
  9
$QTEXTMODE
 70
    0
  9
$MIRRTEXT
 70
    0
  9
$LTSCALE
 40
1
  9
$ATTMODE
 70
    0
  9
$TEXTSIZE
 40
2.5
  9
$TRACEWID
 40
15.68
  9
$TEXTSTYLE
  7
STANDARD
  9
$CLAYER
  8
0
  9
$CELTYPE
  6
BYLAYER
  9
$CECOLOR
 62
  256
  9
$CELTSCALE
 40
1
  9
$DISPSILH
 70
    0
  9
$DIMSCALE
 40
1
  9
$DIMASZ
 40
2.5
  9
$DIMEXO
 40
0.625
  9
$DIMDLI
 40
3.75
  9
$DIMRND
 40
0
  9
$DIMDLE
 40
0
  9
$DIMEXE
 40
1.25
  9
$DIMTP
 40
0
  9
$DIMTM
 40
0
  9
$DIMTXT
 40
2.5
  9
$DIMCEN
 40
2.5
  9
$DIMTSZ
 40
0
  9
$DIMTOL
 70
    0
  9
$DIMLIM
 70
    0
  9
$DIMTIH
 70
    0
  9
$DIMTOH
 70
    0
  9
$DIMSE1
 70
    0
  9
$DIMSE2
 70
    0
  9
$DIMTAD
 70
    1
  9
$DIMZIN
 70
    8
  9
$DIMBLK
  1

  9
$DIMASO
 70
    1
  9
$DIMSHO
 70
    1
  9
$DIMPOST
  1

  9
$DIMAPOST
  1

  9
$DIMALT
 70
    0
  9
$DIMALTD
 70
    3
  9
$DIMALTF
 40
0.03937
  9
$DIMLFAC
 40
1
  9
$DIMTOFL
 70
    1
  9
$DIMTVP
 40
0
  9
$DIMTIX
 70
    0
  9
$DIMSOXD
 70
    0
  9
$DIMSAH
 70
    0
  9
$DIMBLK1
  1

  9
$DIMBLK2
  1

  9
$DIMSTYLE
  2
Standard
  9
$DIMCLRD
 70
    0
  9
$DIMCLRE
 70
    0
  9
$DIMCLRT
 70
    0
  9
$DIMTFAC
 40
1
  9
$DIMGAP
 40
0.625
  9
$DIMJUST
 70
    0
  9
$DIMSD1
 70
    0
  9
$DIMSD2
 70
    0
  9
$DIMTOLJ
 70
    0
  9
$DIMTZIN
 70
    8
  9
$DIMALTZ
 70
    0
  9
$DIMALTTZ
 70
    0
  9
$DIMUPT
 70
    0
  9
$DIMDEC
 70
    4
  9
$DIMTDEC
 70
    2
  9
$DIMALTU
 70
    2
  9
$DIMALTTD
 70
    3
  9
$DIMTXSTY
  7
standard
  9
$DIMAUNIT
 70
    0
  9
$DIMADEC
 70
    2
  9
$DIMALTRND
 40
0
  9
$DIMAZIN
 70
    0
  9
$DIMDSEP
 70
   44
  9
$DIMATFIT
 70
    3
  9
$DIMFRAC
 70
    0
  9
$DIMLDRBLK
  1
STANDARD
  9
$DIMLUNIT
 70
    2
  9
$DIMLWD
 70
   -2
  9
$DIMLWE
 70
   -2
  9
$DIMTMOVE
 70
    0
  9
$DIMFXL
 40
1
  9
$DIMFXLON
 70
    0
  9
$DIMJOGANG
 40
0.7854
  9
$DIMTFILL
 70
    0
  9
$DIMTFILLCLR
 70
    0
  9
$DIMARCSYM
 70
    0
  9
$DIMLTYPE
  6

  9
$DIMLTEX1
  6

  9
$DIMLTEX2
  6

  9
$LUNITS
 70
    2
  9
$LUPREC
 70
    4
  9
$SKETCHINC
 40
1
  9
$FILLETRAD
 40
0
  9
$AUNITS
 70
    0
  9
$AUPREC
 70
    2
  9
$MENU
  1
.
  9
$ELEVATION
 40
0
  9
$PELEVATION
 40
0
  9
$THICKNESS
 40
0
  9
$LIMCHECK
 70
    0
  9
$CHAMFERA
 40
0
  9
$CHAMFERB
 40
0
  9
$CHAMFERC
 40
0
  9
$CHAMFERD
 40
0
  9
$SKPOLY
 70
    0
  9
$USRTIMER
 70
    1
  9
$ANGBASE
 50
0
  9
$ANGDIR
 70
    0
  9
$PDMODE
 70
   34
  9
$PDSIZE
 40
0
  9
$PLINEWID
 40
0
  9
$SPLFRAME
 70
    0
  9
$SPLINETYPE
 70
    2
  9
$SPLINESEGS
 70
    8
  9
$HANDSEED
  5
20000
  9
$SURFTAB1
 70
    6
  9
$SURFTAB2
 70
    6
  9
$SURFTYPE
 70
    6
  9
$SURFU
 70
    6
  9
$SURFV
 70
    6
  9
$UCSBASE
  2

  9
$UCSNAME
  2

  9
$UCSORG
 10
0
 20
0
 30
0
  9
$UCSXDIR
 10
1
 20
0
 30
0
  9
$UCSYDIR
 10
0
 20
1
 30
0
  9
$UCSORTHOREF
  2

  9
$UCSORTHOVIEW
 70
    0
  9
$UCSORGTOP
 10
0
 20
0
 30
0
  9
$UCSORGBOTTOM
 10
0
 20
0
 30
0
  9
$UCSORGLEFT
 10
0
 20
0
 30
0
  9
$UCSORGRIGHT
 10
0
 20
0
 30
0
  9
$UCSORGFRONT
 10
0
 20
0
 30
0
  9
$UCSORGBACK
 10
0
 20
0
 30
0
  9
$PUCSBASE
  2

  9
$PUCSNAME
  2

  9
$PUCSORG
 10
0
 20
0
 30
0
  9
$PUCSXDIR
 10
1
 20
0
 30
0
  9
$PUCSYDIR
 10
0
 20
1
 30
0
  9
$PUCSORTHOREF
  2

  9
$PUCSORTHOVIEW
 70
    0
  9
$PUCSORGTOP
 10
0
 20
0
 30
0
  9
$PUCSORGBOTTOM
 10
0
 20
0
 30
0
  9
$PUCSORGLEFT
 10
0
 20
0
 30
0
  9
$PUCSORGRIGHT
 10
0
 20
0
 30
0
  9
$PUCSORGFRONT
 10
0
 20
0
 30
0
  9
$PUCSORGBACK
 10
0
 20
0
 30
0
  9
$USERI1
 70
    0
  9
$USERI2
 70
    0
  9
$USERI3
 70
    0
  9
$USERI4
 70
    0
  9
$USERI5
 70
    0
  9
$USERR1
 40
0
  9
$USERR2
 40
0
  9
$USERR3
 40
0
  9
$USERR4
 40
0
  9
$USERR5
 40
0
  9
$WORLDVIEW
 70
    1
  9
$SHADEDGE
 70
    3
  9
$SHADEDIF
 70
   70
  9
$TILEMODE
 70
    1
  9
$MAXACTVP
 70
   64
  9
$PINSBASE
 10
68.81251547975239
 20
1121.170756587897
 30
0
  9
$PLIMCHECK
 70
    0
  9
$PEXTMIN
 10
0
 20
0
 30
0
  9
$PEXTMAX
 10
0
 20
0
 30
0
  9
$GRIDMODE
 70
    1
  9
$SNAPSTYLE
 70
    0
  9
$GRIDUNIT
 10
0
 20
0
  9
$PLIMMIN
 10
0
 20
0
  9
$PLIMMAX
 10
297
 20
210
  9
$UNITMODE
 70
    0
  9
$VISRETAIN
 70
    1
  9
$PLINEGEN
 70
    0
  9
$PSLTSCALE
 70
    1
  9
$TREEDEPTH
 70
 3020
  9
$CMLSTYLE
  2
Standard
  9
$CMLJUST
 70
    0
  9
$CMLSCALE
 40
20
  9
$PROXYGRAPHICS
 70
    1
  9
$MEASUREMENT
 70
    1
  9
$CELWEIGHT
370
   -1
  9
$ENDCAPS
280
    0
  9
$JOINSTYLE
280
    0
  9
$LWDISPLAY
290
    0
  9
$INSUNITS
 70
    4
  9
$HYPERLINKBASE
  1

  9
$STYLESHEET
  1

  9
$XEDIT
290
    1
  9
$CEPSNTYPE
380
    0
  9
$PSTYLEMODE
290
    1
  9
$EXTNAMES
290
    1
  9
$PSVPSCALE
 40
1
  9
$OLESTARTUP
290
    0
  9
$SORTENTS
280
  127
  9
$INDEXCTL
280
    0
  9
$HIDETEXT
280
    1
  9
$XCLIPFRAME
290
    0
  9
$HALOGAP
280
    0
  9
$OBSCOLOR
 70
  257
  9
$OBSLTYPE
280
    0
  9
$INTERSECTIONDISPLAY
280
    0
  9
$INTERSECTIONCOLOR
 70
  257
  9
$DIMASSOC
280
    1
  9
$PROJECTNAME
  1

  9
$CAMERADISPLAY
290
    0
  9
$LENSLENGTH
 40
50
  9
$CAMERAHEIGHT
 40
0
  9
$STEPSPERSEC
 40
2
  9
$STEPSIZE
 40
50
  9
$3DDWFPREC
 40
2
  9
$PSOLWIDTH
 40
5
  9
$PSOLHEIGHT
 40
80
  9
$LOFTANG1
 40
1.570796326794897
  9
$LOFTANG2
 40
1.570796326794897
  9
$LOFTMAG1
 40
0
  9
$LOFTMAG2
 40
0
  9
$LOFTPARAM
 70
    7
  9
$LOFTNORMALS
280
    1
  9
$LATITUDE
 40
1
  9
$LONGITUDE
 40
1
  9
$NORTHDIRECTION
 40
0
  9
$TIMEZONE
 70
-8000
  9
$LIGHTGLYPHDISPLAY
280
    1
  9
$TILEMODELIGHTSYNCH
280
    1
  9
$SOLIDHIST
280
    1
  9
$SHOWHIST
280
    1
  9
$DWFFRAME
280
    2
  9
$DGNFRAME
280
    0
  9
$REALWORLDSCALE
290
    1
  9
$INTERFERECOLOR
 62
    1
  9
$CSHADOW
280
    0
  9
$SHADOWPLANELOCATION
 40
0
  0
ENDSEC
  0
SECTION
  2
CLASSES
  0
ENDSEC
  0
SECTION
  2
TABLES
  0
TABLE
  2
VPORT
  5
8
330
0
100
AcDbSymbolTable
 70
    1
  0
VPORT
  5
31
330
2
100
AcDbSymbolTableRecord
100
AcDbViewportTableRecord
  2
*ACTIVE
 70
    0
 10
0
 20
0
 11
1
 21
1
 12
405.5769524087628
 22
-276.4080550244539
 13
0
 23
0
 14
10
 24
10
 15
10
 25
10
 16
0
 26
0
 36
1
 17
0
 27
0
 37
0
 40
864.6954166866693
 41
1.803405572755418
 42
50
 43
0
 44
0
 50
0
 51
0
 71
    0
 72
  100
 73
    1
 74
    3
 75
    0
 76
    1
 77
    0
 78
    0
281
    0
 65
    1
110
0
120
0
130
0
111
1
121
0
131
0
112
0
122
1
132
0
 79
    0
146
0
348
10020
 60
    7
 61
    5
292
1
282
    1
141
0
142
0
 63
  250
421
3358443
  0
ENDTAB
  0
TABLE
  2
LTYPE
  5
5
330
0
100
AcDbSymbolTable
 70
    4
  0
LTYPE
  5
14
330
5
100
AcDbSymbolTableRecord
100
AcDbLinetypeTableRecord
  2
ByBlock
 70
    0
  3

 72
   65
 73
    0
 40
0
  0
LTYPE
  5
15
330
5
100
AcDbSymbolTableRecord
100
AcDbLinetypeTableRecord
  2
ByLayer
 70
    0
  3

 72
   65
 73
    0
 40
0
  0
LTYPE
  5
16
330
5
100
AcDbSymbolTableRecord
100
AcDbLinetypeTableRecord
  2
Continuous
 70
    0
  3
Solid line
 72
   65
 73
    0
 40
0
  0
LTYPE
  5
32
330
5
100
AcDbSymbolTableRecord
100
AcDbLinetypeTableRecord
  2
DOT
 70
    0
  3
Dot . . . . . . . . . . . . . . . . . . . . . .
 72
   65
 73
    2
 40
6.35
 49
0
 74
    0
 49
-6.35
 74
    0
  0
LTYPE
  5
33
330
5
100
AcDbSymbolTableRecord
100
AcDbLinetypeTableRecord
  2
DOTTINY
 70
    0
  3
Dot (.15x) .....................................
 72
   65
 73
    2
 40
0.9525
 49
0
 74
    0
 49
-0.9525
 74
    0
  0
LTYPE
  5
34
330
5
100
AcDbSymbolTableRecord
100
AcDbLinetypeTableRecord
  2
DOT2
 70
    0
  3
Dot (.5x) .....................................
 72
   65
 73
    2
 40
3.175
 49
0
 74
    0
 49
-3.175
 74
    0
  0
LTYPE
  5
35
330
5
100
AcDbSymbolTableRecord
100
AcDbLinetypeTableRecord
  2
DOTX2
 70
    0
  3
Dot (2x) .  .  .  .  .  .  .  .  .  .  .  .  .
 72
   65
 73
    2
 40
12.7
 49
0
 74
    0
 49
-12.7
 74
    0
  0
LTYPE
  5
36
330
5
100
AcDbSymbolTableRecord
100
AcDbLinetypeTableRecord
  2
DASHED
 70
    0
  3
Dashed _ _ _ _ _ _ _ _ _ _ _ _ _ _ _ _ _
 72
   65
 73
    2
 40
19.05
 49
12.7
 74
    0
 49
-6.35
 74
    0
  0
LTYPE
  5
37
330
5
100
AcDbSymbolTableRecord
100
AcDbLinetypeTableRecord
  2
DASHEDTINY
 70
    0
  3
Dashed (.15x) _ _ _ _ _ _ _ _ _ _ _ _ _ _ _ _ _
 72
   65
 73
    2
 40
2.8575
 49
1.905
 74
    0
 49
-0.9525
 74
    0
  0
LTYPE
  5
38
330
5
100
AcDbSymbolTableRecord
100
AcDbLinetypeTableRecord
  2
DASHED2
 70
    0
  3
Dashed (.5x) _ _ _ _ _ _ _ _ _ _ _ _ _ _ _ _ _
 72
   65
 73
    2
 40
9.524999999999999
 49
6.35
 74
    0
 49
-3.175
 74
    0
  0
LTYPE
  5
39
330
5
100
AcDbSymbolTableRecord
100
AcDbLinetypeTableRecord
  2
DASHEDX2
 70
    0
  3
Dashed (2x) ____  ____  ____  ____  ____  ___
 72
   65
 73
    2
 40
38.09999999999999
 49
25.4
 74
    0
 49
-12.7
 74
    0
  0
LTYPE
  5
3A
330
5
100
AcDbSymbolTableRecord
100
AcDbLinetypeTableRecord
  2
DASHDOT
 70
    0
  3
Dash dot __ . __ . __ . __ . __ . __ . __ . __
 72
   65
 73
    4
 40
25.4
 49
12.7
 74
    0
 49
-6.35
 74
    0
 49
0
 74
    0
 49
-6.35
 74
    0
  0
LTYPE
  5
3B
330
5
100
AcDbSymbolTableRecord
100
AcDbLinetypeTableRecord
  2
DASHDOTTINY
 70
    0
  3
Dash dot (.15x) _._._._._._._._._._._._._._._.
 72
   65
 73
    4
 40
3.81
 49
1.905
 74
    0
 49
-0.9525
 74
    0
 49
0
 74
    0
 49
-0.9525
 74
    0
  0
LTYPE
  5
3C
330
5
100
AcDbSymbolTableRecord
100
AcDbLinetypeTableRecord
  2
DASHDOT2
 70
    0
  3
Dash dot (.5x) _._._._._._._._._._._._._._._.
 72
   65
 73
    4
 40
12.7
 49
6.35
 74
    0
 49
-3.175
 74
    0
 49
0
 74
    0
 49
-3.175
 74
    0
  0
LTYPE
  5
3D
330
5
100
AcDbSymbolTableRecord
100
AcDbLinetypeTableRecord
  2
DASHDOTX2
 70
    0
  3
Dash dot (2x) ____  .  ____  .  ____  .  ___
 72
   65
 73
    4
 40
50.8
 49
25.4
 74
    0
 49
-12.7
 74
    0
 49
0
 74
    0
 49
-12.7
 74
    0
  0
LTYPE
  5
3E
330
5
100
AcDbSymbolTableRecord
100
AcDbLinetypeTableRecord
  2
DIVIDE
 70
    0
  3
Divide ____ . . ____ . . ____ . . ____ . . ____
 72
   65
 73
    6
 40
31.75
 49
12.7
 74
    0
 49
-6.35
 74
    0
 49
0
 74
    0
 49
-6.35
 74
    0
 49
0
 74
    0
 49
-6.35
 74
    0
  0
LTYPE
  5
3F
330
5
100
AcDbSymbolTableRecord
100
AcDbLinetypeTableRecord
  2
DIVIDETINY
 70
    0
  3
Divide (.15x) __..__..__..__..__..__..__..__.._
 72
   65
 73
    6
 40
4.7625
 49
1.905
 74
    0
 49
-0.9525
 74
    0
 49
0
 74
    0
 49
-0.9525
 74
    0
 49
0
 74
    0
 49
-0.9525
 74
    0
  0
LTYPE
  5
40
330
5
100
AcDbSymbolTableRecord
100
AcDbLinetypeTableRecord
  2
DIVIDE2
 70
    0
  3
Divide (.5x) __..__..__..__..__..__..__..__.._
 72
   65
 73
    6
 40
15.875
 49
6.35
 74
    0
 49
-3.175
 74
    0
 49
0
 74
    0
 49
-3.175
 74
    0
 49
0
 74
    0
 49
-3.175
 74
    0
  0
LTYPE
  5
41
330
5
100
AcDbSymbolTableRecord
100
AcDbLinetypeTableRecord
  2
DIVIDEX2
 70
    0
  3
Divide (2x) ________  .  .  ________  .  .  _
 72
   65
 73
    6
 40
63.5
 49
25.4
 74
    0
 49
-12.7
 74
    0
 49
0
 74
    0
 49
-12.7
 74
    0
 49
0
 74
    0
 49
-12.7
 74
    0
  0
LTYPE
  5
42
330
5
100
AcDbSymbolTableRecord
100
AcDbLinetypeTableRecord
  2
BORDER
 70
    0
  3
Border __ __ . __ __ . __ __ . __ __ . __ __ .
 72
   65
 73
    6
 40
44.45
 49
12.7
 74
    0
 49
-6.35
 74
    0
 49
12.7
 74
    0
 49
-6.35
 74
    0
 49
0
 74
    0
 49
-6.35
 74
    0
  0
LTYPE
  5
43
330
5
100
AcDbSymbolTableRecord
100
AcDbLinetypeTableRecord
  2
BORDERTINY
 70
    0
  3
Border (.15x) __.__.__.__.__.__.__.__.__.__.__.
 72
   65
 73
    6
 40
6.6675
 49
1.905
 74
    0
 49
-0.9525
 74
    0
 49
1.905
 74
    0
 49
-0.9525
 74
    0
 49
0
 74
    0
 49
-0.9525
 74
    0
  0
LTYPE
  5
44
330
5
100
AcDbSymbolTableRecord
100
AcDbLinetypeTableRecord
  2
BORDER2
 70
    0
  3
Border (.5x) __.__.__.__.__.__.__.__.__.__.__.
 72
   65
 73
    6
 40
22.225
 49
6.35
 74
    0
 49
-3.175
 74
    0
 49
6.35
 74
    0
 49
-3.175
 74
    0
 49
0
 74
    0
 49
-3.175
 74
    0
  0
LTYPE
  5
45
330
5
100
AcDbSymbolTableRecord
100
AcDbLinetypeTableRecord
  2
BORDERX2
 70
    0
  3
Border (2x) ____  ____  .  ____  ____  .  ___
 72
   65
 73
    6
 40
88.89999999999999
 49
25.4
 74
    0
 49
-12.7
 74
    0
 49
25.4
 74
    0
 49
-12.7
 74
    0
 49
0
 74
    0
 49
-12.7
 74
    0
  0
LTYPE
  5
46
330
5
100
AcDbSymbolTableRecord
100
AcDbLinetypeTableRecord
  2
CENTER
 70
    0
  3
Center ____ _ ____ _ ____ _ ____ _ ____ _ ____
 72
   65
 73
    4
 40
50.8
 49
31.75
 74
    0
 49
-6.35
 74
    0
 49
6.35
 74
    0
 49
-6.35
 74
    0
  0
LTYPE
  5
47
330
5
100
AcDbSymbolTableRecord
100
AcDbLinetypeTableRecord
  2
CENTERTINY
 70
    0
  3
Center (.15x) ___ _ ___ _ ___ _ ___ _ ___ _ ___
 72
   65
 73
    4
 40
7.619999999999999
 49
4.7625
 74
    0
 49
-0.9525
 74
    0
 49
0.9525
 74
    0
 49
-0.9525
 74
    0
  0
LTYPE
  5
48
330
5
100
AcDbSymbolTableRecord
100
AcDbLinetypeTableRecord
  2
CENTER2
 70
    0
  3
Center (.5x) ___ _ ___ _ ___ _ ___ _ ___ _ ___
 72
   65
 73
    4
 40
28.575
 49
19.05
 74
    0
 49
-3.175
 74
    0
 49
3.175
 74
    0
 49
-3.175
 74
    0
  0
LTYPE
  5
49
330
5
100
AcDbSymbolTableRecord
100
AcDbLinetypeTableRecord
  2
CENTERX2
 70
    0
  3
Center (2x) ________  __  ________  __  _____
 72
   65
 73
    4
 40
101.6
 49
63.5
 74
    0
 49
-12.7
 74
    0
 49
12.7
 74
    0
 49
-12.7
 74
    0
  0
ENDTAB
  0
TABLE
  2
LAYER
  5
2
330
0
100
AcDbSymbolTable
 70
    1
  0
LAYER
  5
10
330
2
100
AcDbSymbolTableRecord
100
AcDbLayerTableRecord
  2
0
 70
    0
 62
    7
  6
CONTINUOUS
370
    0
390
F
  0
LAYER
  5
4A
330
2
100
AcDbSymbolTableRecord
100
AcDbLayerTableRecord
  2
print
 70
    0
 62
    7
  6
CONTINUOUS
370
    0
390
F
  0
ENDTAB
  0
TABLE
  2
STYLE
  5
3
330
0
100
AcDbSymbolTable
 70
    3
  0
STYLE
  5
4B
330
2
100
AcDbSymbolTableRecord
100
AcDbTextStyleTableRecord
  2
STANDARD
 70
    0
 40
0
 41
1
 50
0
 71
    0
 42
1
  3
STANDARD
  4

  0
STYLE
  5
4C
330
2
100
AcDbSymbolTableRecord
100
AcDbTextStyleTableRecord
  2
standard
 70
    0
 40
0
 41
1
 50
0
 71
    0
 42
1
  3
standard
  4

  0
ENDTAB
  0
TABLE
  2
VIEW
  5
6
330
0
100
AcDbSymbolTable
 70
    0
  0
ENDTAB
  0
TABLE
  2
UCS
  5
7
330
0
100
AcDbSymbolTable
 70
    0
  0
ENDTAB
  0
TABLE
  2
APPID
  5
9
330
0
100
AcDbSymbolTable
 70
    1
  0
APPID
  5
12
330
9
100
AcDbSymbolTableRecord
100
AcDbRegAppTableRecord
  2
ACAD
 70
    0
  0
APPID
  5
4D
330
9
100
AcDbSymbolTableRecord
100
AcDbRegAppTableRecord
  2
LibreCad
 70
    0
  0
ENDTAB
  0
TABLE
  2
DIMSTYLE
  5
A
330
0
100
AcDbSymbolTable
 70
    1
100
AcDbDimStyleTable
 71
    1
  0
DIMSTYLE
105
4E
330
A
100
AcDbSymbolTableRecord
100
AcDbDimStyleTableRecord
  2
Standard
 70
    0
 40
1
 41
2.5
 42
0.625
 43
0.38
 44
1.25
 45
0
 46
0
 47
0
 48
0
 49
1
140
2.5
141
0.09
142
0
143
25.4
144
1
145
0
146
1
147
0.625
148
0
 71
    0
 72
    0
 73
    0
 74
    1
 75
    0
 76
    0
 77
    0
 78
    8
 79
    0
170
    0
171
    2
172
    0
173
    0
174
    0
175
    0
176
    0
177
    0
178
    0
179
    2
271
    4
272
    4
273
    2
274
    2
275
    0
276
    0
277
    2
278
   44
279
    0
280
    0
281
    0
282
    0
283
    1
284
    0
285
    0
286
    0
288
    0
289
    3
340
standard
341

371
   -2
372
   -2
  0
ENDTAB
  0
TABLE
  2
BLOCK_RECORD
  5
1
330
0
100
AcDbSymbolTable
 70
    2
  0
BLOCK_RECORD
  5
1F
330
1
100
AcDbSymbolTableRecord
100
AcDbBlockTableRecord
  2
*Model_Space
 70
    0
280
    1
281
    0
  0
BLOCK_RECORD
  5
1E
330
1
100
AcDbSymbolTableRecord
100
AcDbBlockTableRecord
  2
*Paper_Space
 70
    0
280
    1
281
    0
  0
BLOCK_RECORD
  5
4F
330
1
100
AcDbSymbolTableRecord
100
AcDbBlockTableRecord
  2
main hub-2
 70
    0
280
    1
281
    0
  0
BLOCK_RECORD
  5
52
330
1
100
AcDbSymbolTableRecord
100
AcDbBlockTableRecord
  2
hub
 70
    0
280
    1
281
    0
  0
BLOCK_RECORD
  5
55
330
1
100
AcDbSymbolTableRecord
100
AcDbBlockTableRecord
  2
new hex-0
 70
    0
280
    1
281
    0
  0
ENDTAB
  0
ENDSEC
  0
SECTION
  2
BLOCKS
  0
BLOCK
  5
20
330
1F
100
AcDbEntity
  8
0
100
AcDbBlockBegin
  2
*Model_Space
 70
    0
 10
0
 20
0
 30
0
  3
*Model_Space
  1

  0
ENDBLK
  5
21
330
1F
100
AcDbEntity
  8
0
100
AcDbBlockEnd
  0
BLOCK
  5
1C
330
1B
100
AcDbEntity
  8
0
100
AcDbBlockBegin
  2
*Paper_Space
 70
    0
 10
0
 20
0
 30
0
  3
*Paper_Space
  1

  0
ENDBLK
  5
1D
330
1F
100
AcDbEntity
  8
0
100
AcDbBlockEnd
  0
BLOCK
  5
50
330
4F
100
AcDbEntity
  8
0
100
AcDbBlockBegin
  2
main hub-2
 70
    0
 10
0
 20
0
  3
main hub-2
  1

  0
ENDBLK
  5
51
330
4F
100
AcDbEntity
  8
0
100
AcDbBlockEnd
  0
BLOCK
  5
53
330
52
100
AcDbEntity
  8
0
100
AcDbBlockBegin
  2
hub
 70
    0
 10
0
 20
0
  3
hub
  1

  0
ENDBLK
  5
54
330
52
100
AcDbEntity
  8
0
100
AcDbBlockEnd
  0
BLOCK
  5
56
330
55
100
AcDbEntity
  8
0
100
AcDbBlockBegin
  2
new hex-0
 70
    0
 10
0
 20
0
  3
new hex-0
  1

  0
LINE
  5
58
100
AcDbEntity
  8
0
  6
ByLayer
 62
  256
370
   -1
100
AcDbLine
 10
100
 20
100
 11
100
 21
500
  0
LINE
  5
59
100
AcDbEntity
  8
0
  6
ByLayer
 62
  256
370
   -1
100
AcDbLine
 10
50
 20
100
 11
150
 21
100
  0
LINE
  5
5A
100
AcDbEntity
  8
0
  6
ByLayer
 62
  256
370
   -1
100
AcDbLine
 10
100
 20
104
 11
100
 21
504
  0
LINE
  5
5B
100
AcDbEntity
  8
0
  6
ByLayer
 62
  256
370
   -1
100
AcDbLine
 10
84
 20
374
 11
116
 21
374
  0
CIRCLE
  5
5C
100
AcDbEntity
  8
0
  6
ByLayer
 62
  256
370
   -1
100
AcDbCircle
 10
100
 20
374
 40
127
  0
LINE
  5
5D
100
AcDbEntity
  8
0
  6
ByLayer
 62
  256
370
   -1
100
AcDbLine
 10
100
 20
100
 11
-246.410161514
 21
300
  0
LINE
  5
5E
100
AcDbEntity
  8
0
  6
ByLayer
 62
  256
370
   -1
100
AcDbLine
 10
75
 20
56.6987298108
 11
125
 21
143.301270189
  0
LINE
  5
5F
100
AcDbEntity
  8
0
  6
ByLayer
 62
  256
370
   -1
100
AcDbLine
 10
96.53589838489999
 20
102
 11
-249.874263129
 21
302
  0
LINE
  5
60
100
AcDbEntity
  8
0
  6
ByLayer
 62
  256
370
   -1
100
AcDbLine
 10
-145.290960637
 20
223.143593539
 11
-129.290960637
 21
250.856406461
  0
CIRCLE
  5
61
100
AcDbEntity
  8
0
  6
ByLayer
 62
  256
370
   -1
100
AcDbCircle
 10
-137.290960637
 20
237
 40
127
  0
LINE
  5
62
100
AcDbEntity
  8
0
  6
ByLayer
 62
  256
370
   -1
100
AcDbLine
 10
100
 20
100
 11
-246.410161514
 21
-100
  0
LINE
  5
63
100
AcDbEntity
  8
0
  6
ByLayer
 62
  256
370
   -1
100
AcDbLine
 10
125
 20
56.6987298108
 11
75
 21
143.301270189
  0
LINE
  5
64
100
AcDbEntity
  8
0
  6
ByLayer
 62
  256
370
   -1
100
AcDbLine
 10
96.53589838489999
 20
98
 11
-249.874263129
 21
-102
  0
LINE
  5
65
100
AcDbEntity
  8
0
  6
ByLayer
 62
  256
370
   -1
100
AcDbLine
 10
-129.290960637
 20
-50.8564064606
 11
-145.290960637
 21
-23.1435935394
  0
CIRCLE
  5
66
100
AcDbEntity
  8
0
  6
ByLayer
 62
  256
370
   -1
100
AcDbCircle
 10
-137.290960637
 20
-37
 40
127
  0
LINE
  5
67
100
AcDbEntity
  8
0
  6
ByLayer
 62
  256
370
   -1
100
AcDbLine
 10
100
 20
100
 11
100
 21
-300
  0
LINE
  5
68
100
AcDbEntity
  8
0
  6
ByLayer
 62
  256
370
   -1
100
AcDbLine
 10
150
 20
100
 11
50
 21
100
  0
LINE
  5
69
100
AcDbEntity
  8
0
  6
ByLayer
 62
  256
370
   -1
100
AcDbLine
 10
100
 20
96
 11
100
 21
-304
  0
LINE
  5
6A
100
AcDbEntity
  8
0
  6
ByLayer
 62
  256
370
   -1
100
AcDbLine
 10
116
 20
-174
 11
84
 21
-174
  0
CIRCLE
  5
6B
100
AcDbEntity
  8
0
  6
ByLayer
 62
  256
370
   -1
100
AcDbCircle
 10
100
 20
-174
 40
127
  0
LINE
  5
6C
100
AcDbEntity
  8
0
  6
ByLayer
 62
  256
370
   -1
100
AcDbLine
 10
100
 20
100
 11
446.410161514
 21
-100
  0
LINE
  5
6D
100
AcDbEntity
  8
0
  6
ByLayer
 62
  256
370
   -1
100
AcDbLine
 10
125
 20
143.301270189
 11
75
 21
56.6987298108
  0
LINE
  5
6E
100
AcDbEntity
  8
0
  6
ByLayer
 62
  256
370
   -1
100
AcDbLine
 10
103.464101615
 20
98
 11
449.874263129
 21
-102
  0
LINE
  5
6F
100
AcDbEntity
  8
0
  6
ByLayer
 62
  256
370
   -1
100
AcDbLine
 10
345.290960637
 20
-23.1435935394
 11
329.290960637
 21
-50.8564064606
  0
CIRCLE
  5
70
100
AcDbEntity
  8
0
  6
ByLayer
 62
  256
370
   -1
100
AcDbCircle
 10
337.290960637
 20
-37
 40
127
  0
LINE
  5
71
100
AcDbEntity
  8
0
  6
ByLayer
 62
  256
370
   -1
100
AcDbLine
 10
100
 20
100
 11
446.410161514
 21
300
  0
LINE
  5
72
100
AcDbEntity
  8
0
  6
ByLayer
 62
  256
370
   -1
100
AcDbLine
 10
75
 20
143.301270189
 11
125
 21
56.6987298108
  0
LINE
  5
73
100
AcDbEntity
  8
0
  6
ByLayer
 62
  256
370
   -1
100
AcDbLine
 10
103.464101615
 20
102
 11
449.874263129
 21
302
  0
LINE
  5
74
100
AcDbEntity
  8
0
  6
ByLayer
 62
  256
370
   -1
100
AcDbLine
 10
329.290960637
 20
250.856406461
 11
345.290960637
 21
223.143593539
  0
CIRCLE
  5
75
100
AcDbEntity
  8
0
  6
ByLayer
 62
  256
370
   -1
100
AcDbCircle
 10
337.290960637
 20
237
 40
127
  0
LINE
  5
76
100
AcDbEntity
  8
0
  6
ByLayer
 62
  256
370
   -1
100
AcDbLine
 10
50
 20
122.5
 11
150
 21
122.5
  0
LINE
  5
77
100
AcDbEntity
  8
0
  6
ByLayer
 62
  256
370
   -1
100
AcDbLine
 10
50
 20
77.5
 11
150
 21
77.5
  0
LINE
  5
78
100
AcDbEntity
  8
0
  6
ByLayer
 62
  256
370
   -1
100
AcDbLine
 10
77.5
 20
100
 11
77.5
 21
-300
  0
LINE
  5
79
100
AcDbEntity
  8
0
  6
ByLayer
 62
  256
370
   -1
100
AcDbLine
 10
122.5
 20
96
 11
122.5
 21
-304
  0
LINE
  5
7A
100
AcDbEntity
  8
0
  6
ByLayer
 62
  256
370
   -1
100
AcDbLine
 10
77.5
 20
104
 11
77.5
 21
504
  0
LINE
  5
7B
100
AcDbEntity
  8
0
  6
ByLayer
 62
  256
370
   -1
100
AcDbLine
 10
122.5
 20
100
 11
122.5
 21
500
  0
CIRCLE
  5
7C
100
AcDbEntity
  8
0
  6
ByLayer
 62
  256
370
   -1
100
AcDbCircle
 10
122.5
 20
122.5
 40
4
  0
CIRCLE
  5
7D
100
AcDbEntity
  8
0
  6
ByLayer
 62
  256
370
   -1
100
AcDbCircle
 10
122.5
 20
77.5
 40
4
  0
CIRCLE
  5
7E
100
AcDbEntity
  8
0
  6
ByLayer
 62
  256
370
   -1
100
AcDbCircle
 10
77.5
 20
77.5
 40
4
  0
CIRCLE
  5
7F
100
AcDbEntity
  8
0
  6
ByLayer
 62
  256
370
   -1
100
AcDbCircle
 10
122.5
 20
122.5
 40
1.5
  0
CIRCLE
  5
80
100
AcDbEntity
  8
0
  6
ByLayer
 62
  256
370
   -1
100
AcDbCircle
 10
122.5
 20
77.5
 40
1.5
  0
CIRCLE
  5
81
100
AcDbEntity
  8
0
  6
ByLayer
 62
  256
370
   -1
100
AcDbCircle
 10
77.5
 20
77.5
 40
1.5
  0
LINE
  5
82
100
AcDbEntity
  8
0
  6
ByLayer
 62
  256
370
   -1
100
AcDbLine
 10
26.5936120443
 20
160.856406461
 11
10.5936120443
 21
133.143593539
  0
LINE
  5
83
100
AcDbEntity
  8
0
  6
ByLayer
 62
  256
370
   -1
100
AcDbLine
 10
77.5
 20
122.5
 11
69.2644284149
 21
108.235571585
  0
LINE
  5
84
100
AcDbEntity
  8
0
  6
ByLayer
 62
  256
370
   -1
100
AcDbLine
 10
69.2644284149
 20
108.235571585
 11
18.5936120443
 21
147
  0
LINE
  5
85
100
AcDbEntity
  8
0
  6
ByLayer
 62
  256
370
   -1
100
AcDbLine
 10
77.5
 20
122.5
 11
18.5936120443
 21
147
  0
ENDBLK
  5
57
330
55
100
AcDbEntity
  8
0
100
AcDbBlockEnd
  0
ENDSEC
  0
SECTION
  2
ENTITIES
  0
LINE
  5
86
100
AcDbEntity
  8
print
  6
ByLayer
 62
    7
370
   -1
100
AcDbLine
 10
-100
 20
-1100
 11
-100
 21
-800
  0
LINE
  5
87
100
AcDbEntity
  8
print
  6
ByLayer
 62
    7
370
   -1
100
AcDbLine
 10
-100
 20
-800
 11
200
 21
-800
  0
LINE
  5
88
100
AcDbEntity
  8
print
  6
ByLayer
 62
    7
370
   -1
100
AcDbLine
 10
200
 20
-800
 11
200
 21
-1100
  0
LINE
  5
89
100
AcDbEntity
  8
print
  6
ByLayer
 62
    7
370
   -1
100
AcDbLine
 10
200
 20
-1100
 11
-100
 21
-1100
  0
LINE
  5
8A
100
AcDbEntity
  8
print
  6
ByLayer
 62
    7
370
    0
100
AcDbLine
 10
-4.000000000000057
 20
-1082.7
 11
-4.000000000000057
 21
-1069.3
  0
LINE
  5
8B
100
AcDbEntity
  8
print
  6
ByLayer
 62
    7
370
    0
100
AcDbLine
 10
196
 20
-1090
 11
196
 21
-1086
  0
ARC
  5
8C
100
AcDbEntity
  8
print
  6
ByLayer
 62
    7
370
    0
100
AcDbCircle
 10
190
 20
-1090
 40
6
100
AcDbArc
 50
270
 51
360
  0
ARC
  5
8D
100
AcDbEntity
  8
print
  6
ByLayer
 62
    7
370
    0
100
AcDbCircle
 10
1.999999999999943
 20
-1090
 40
6
100
AcDbArc
 50
180
 51
270
  0
ARC
  5
8E
100
AcDbEntity
  8
print
  6
ByLayer
 62
    7
370
    0
100
AcDbCircle
 10
1.999999999999943
 20
-1062
 40
6
100
AcDbArc
 50
90
 51
180
  0
LINE
  5
8F
100
AcDbEntity
  8
print
  6
ByLayer
 62
    7
370
   -1
100
AcDbLine
 10
-4.000000000000057
 20
-1086
 11
10.99999999999995
 21
-1086
  0
LINE
  5
90
100
AcDbEntity
  8
print
  6
ByLayer
 62
    7
370
   -1
100
AcDbLine
 10
-4.000000000000057
 20
-1066
 11
10.99999999999995
 21
-1066
  0
LINE
  5
91
100
AcDbEntity
  8
print
  6
ByLayer
 62
    7
370
   -1
100
AcDbLine
 10
-4.000000000000057
 20
-1089
 11
10.99999999999995
 21
-1089
  0
LINE
  5
92
100
AcDbEntity
  8
print
  6
ByLayer
 62
    7
370
   -1
100
AcDbLine
 10
-4.000000000000057
 20
-1063
 11
10.99999999999995
 21
-1063
  0
LINE
  5
93
100
AcDbEntity
  8
print
  6
ByLayer
 62
    7
370
   -1
100
AcDbLine
 10
-4.000000000000057
 20
-1090.6
 11
-4.000000000000057
 21
-1089
  0
LINE
  5
94
100
AcDbEntity
  8
print
  6
ByLayer
 62
    7
370
   -1
100
AcDbLine
 10
-4.000000000000057
 20
-1089
 11
10.99999999999995
 21
-1089
  0
LINE
  5
95
100
AcDbEntity
  8
print
  6
ByLayer
 62
    7
370
   -1
100
AcDbLine
 10
10.99999999999995
 20
-1089
 11
10.99999999999983
 21
-1086
  0
LINE
  5
96
100
AcDbEntity
  8
print
  6
ByLayer
 62
    7
370
   -1
100
AcDbLine
 10
10.99999999999983
 20
-1086
 11
-4.000000000000057
 21
-1086
  0
LINE
  5
97
100
AcDbEntity
  8
print
  6
ByLayer
 62
    7
370
   -1
100
AcDbLine
 10
-4.000000000000057
 20
-1086
 11
-4.000000000000057
 21
-1066
  0
LINE
  5
98
100
AcDbEntity
  8
print
  6
ByLayer
 62
    7
370
   -1
100
AcDbLine
 10
-4.000000000000057
 20
-1066
 11
10.99999999999995
 21
-1066
  0
LINE
  5
99
100
AcDbEntity
  8
print
  6
ByLayer
 62
    7
370
   -1
100
AcDbLine
 10
10.99999999999995
 20
-1066
 11
10.99999999999995
 21
-1063
  0
LINE
  5
9A
100
AcDbEntity
  8
print
  6
ByLayer
 62
    7
370
   -1
100
AcDbLine
 10
10.99999999999995
 20
-1063
 11
-4.000000000000057
 21
-1063
  0
LINE
  5
9B
100
AcDbEntity
  8
print
  6
ByLayer
 62
    7
370
   -1
100
AcDbLine
 10
-4.000000000000057
 20
-1063
 11
-4.000000000000057
 21
-1062
  0
LINE
  5
9C
100
AcDbEntity
  8
print
  6
ByLayer
 62
    7
370
   -1
100
AcDbLine
 10
26.00000000000222
 20
-1096.000000000021
 11
1.999999999999943
 21
-1096
  0
LINE
  5
9D
100
AcDbEntity
  8
print
  6
ByLayer
 62
    7
370
   -1
100
AcDbLine
 10
25.99999999999875
 20
-1056
 11
1.99998206651594
 21
-1056
  0
ARC
  5
9E
100
AcDbEntity
  8
print
  6
ByLayer
 62
    7
370
   -1
100
AcDbCircle
 10
189.9999999999992
 20
-1078.429558332464
 40
6
100
AcDbArc
 50
9.770663981455924e-12
 51
84.2895333632336
  0
LINE
  5
9F
100
AcDbEntity
  8
print
  6
ByLayer
 62
    7
370
   -1
100
AcDbLine
 10
156
 20
-1096
 11
156
 21
-1093
  0
LINE
  5
A0
100
AcDbEntity
  8
print
  6
ByLayer
 62
    7
370
   -1
100
AcDbLine
 10
156
 20
-1093
 11
130
 21
-1093.000000000004
  0
LINE
  5
A1
100
AcDbEntity
  8
print
  6
ByLayer
 62
    7
370
   -1
100
AcDbLine
 10
130
 20
-1093.000000000004
 11
130
 21
-1096.000000000004
  0
LINE
  5
A2
100
AcDbEntity
  8
print
  6
ByLayer
 62
    7
370
   -1
100
AcDbLine
 10
130
 20
-1096.000000000004
 11
104
 21
-1096
  0
LINE
  5
A3
100
AcDbEntity
  8
print
  6
ByLayer
 62
    7
370
   -1
100
AcDbLine
 10
104
 20
-1096
 11
104
 21
-1093.000000000009
  0
LINE
  5
A4
100
AcDbEntity
  8
print
  6
ByLayer
 62
    7
370
   -1
100
AcDbLine
 10
104
 20
-1093.000000000009
 11
77.99999999999994
 21
-1093.000000000013
  0
LINE
  5
A5
100
AcDbEntity
  8
print
  6
ByLayer
 62
    7
370
   -1
100
AcDbLine
 10
77.99999999999994
 20
-1093.000000000013
 11
77.99999999999994
 21
-1096.000000000013
  0
LINE
  5
A6
100
AcDbEntity
  8
print
  6
ByLayer
 62
    7
370
   -1
100
AcDbLine
 10
77.99999999999994
 20
-1096.000000000013
 11
51.99999999999994
 21
-1096
  0
LINE
  5
A7
100
AcDbEntity
  8
print
  6
ByLayer
 62
    7
370
   -1
100
AcDbLine
 10
51.99999999999994
 20
-1096
 11
51.99999999999994
 21
-1093.000000000017
  0
LINE
  5
A8
100
AcDbEntity
  8
print
  6
ByLayer
 62
    7
370
   -1
100
AcDbLine
 10
51.99999999999994
 20
-1093.000000000017
 11
26.00000000000177
 21
-1093.000000000021
  0
LINE
  5
A9
100
AcDbEntity
  8
print
  6
ByLayer
 62
    7
370
   -1
100
AcDbLine
 10
26.00000000000177
 20
-1093.000000000021
 11
26.00000000000222
 21
-1096.000000000021
  0
LINE
  5
AA
100
AcDbEntity
  8
print
  6
ByLayer
 62
    7
370
   -1
100
AcDbLine
 10
26.00000000000222
 20
-1096.000000000021
 11
1.999999999999943
 21
-1096
  0
LINE
  5
AB
100
AcDbEntity
  8
print
  6
ByLayer
 62
    7
370
   -1
100
AcDbLine
 10
190
 20
-1096
 11
156
 21
-1096
  0
LINE
  5
AC
100
AcDbEntity
  8
print
  6
ByLayer
 62
    7
370
   -1
100
AcDbLine
 10
25.99999999999875
 20
-1056
 11
25.70149543362789
 21
-1058.985112229692
  0
LINE
  5
AD
100
AcDbEntity
  8
print
  6
ByLayer
 62
    7
370
   -1
100
AcDbLine
 10
51.87097265732797
 20
-1058.587039575214
 11
51.57246809095711
 21
-1061.572151804906
  0
LINE
  5
AE
100
AcDbEntity
  8
print
  6
ByLayer
 62
    7
370
   -1
100
AcDbLine
 10
77.74194531465713
 20
-1061.174079150428
 11
77.44344074828626
 21
-1064.15919138012
  0
LINE
  5
AF
100
AcDbEntity
  8
print
  6
ByLayer
 62
    7
370
   -1
100
AcDbLine
 10
103.6129179719864
 20
-1063.761118725643
 11
103.3144134056156
 21
-1066.746230955334
  0
LINE
  5
B0
100
AcDbEntity
  8
print
  6
ByLayer
 62
    7
370
   -1
100
AcDbLine
 10
129.4838906293156
 20
-1066.348158300857
 11
129.1853860629447
 21
-1069.333270530549
  0
LINE
  5
B1
100
AcDbEntity
  8
print
  6
ByLayer
 62
    7
370
   -1
100
AcDbLine
 10
155.3548632866448
 20
-1068.935197876071
 11
155.0563587202739
 21
-1071.920310105763
  0
LINE
  5
B2
100
AcDbEntity
  8
print
  6
ByLayer
 62
    7
370
   -1
100
AcDbLine
 10
155.3548632866459
 20
-1068.935197876071
 11
155.0563587202741
 21
-1071.920310105763
  0
LINE
  5
B3
100
AcDbEntity
  8
print
  6
ByLayer
 62
    7
370
   -1
100
AcDbLine
 10
155.0563587202741
 20
-1071.920310105763
 11
129.1853860629447
 21
-1069.333270530549
  0
LINE
  5
B4
100
AcDbEntity
  8
print
  6
ByLayer
 62
    7
370
   -1
100
AcDbLine
 10
129.1853860629447
 20
-1069.333270530549
 11
129.4838906293156
 21
-1066.348158300857
  0
LINE
  5
B5
100
AcDbEntity
  8
print
  6
ByLayer
 62
    7
370
   -1
100
AcDbLine
 10
129.4838906293156
 20
-1066.348158300857
 11
103.6129179719864
 21
-1063.761118725643
  0
LINE
  5
B6
100
AcDbEntity
  8
print
  6
ByLayer
 62
    7
370
   -1
100
AcDbLine
 10
103.6129179719864
 20
-1063.761118725643
 11
103.3144134056146
 21
-1066.746230955335
  0
LINE
  5
B7
100
AcDbEntity
  8
print
  6
ByLayer
 62
    7
370
   -1
100
AcDbLine
 10
103.3144134056146
 20
-1066.746230955335
 11
77.44344074828581
 21
-1064.15919138012
  0
LINE
  5
B8
100
AcDbEntity
  8
print
  6
ByLayer
 62
    7
370
   -1
100
AcDbLine
 10
77.44344074828581
 20
-1064.15919138012
 11
77.74194531465713
 21
-1061.174079150428
  0
LINE
  5
B9
100
AcDbEntity
  8
print
  6
ByLayer
 62
    7
370
   -1
100
AcDbLine
 10
77.74194531465713
 20
-1061.174079150428
 11
51.87097265732876
 21
-1058.587039575214
  0
LINE
  5
BA
100
AcDbEntity
  8
print
  6
ByLayer
 62
    7
370
   -1
100
AcDbLine
 10
51.87097265732876
 20
-1058.587039575214
 11
51.57246809095699
 21
-1061.572151804906
  0
LINE
  5
BB
100
AcDbEntity
  8
print
  6
ByLayer
 62
    7
370
   -1
100
AcDbLine
 10
51.57246809095699
 20
-1061.572151804906
 11
25.70149543362789
 21
-1058.985112229692
  0
LINE
  5
BC
100
AcDbEntity
  8
print
  6
ByLayer
 62
    7
370
   -1
100
AcDbLine
 10
25.70149543362789
 20
-1058.985112229692
 11
25.99999999999813
 21
-1056
  0
LINE
  5
BD
100
AcDbEntity
  8
print
  6
ByLayer
 62
    7
370
   -1
100
AcDbLine
 10
190.5970091327408
 20
-1072.45933387308
 11
155.3548632866448
 21
-1068.935197876071
  0
CIRCLE
  5
BE
100
AcDbEntity
  8
print
  6
ByLayer
 62
    7
370
   -1
100
AcDbCircle
 10
117
 20
-1080.549898538079
 40
10
  0
LINE
  5
BF
100
AcDbEntity
  8
print
  6
ByLayer
 62
    7
370
   -1
100
AcDbLine
 10
117
 20
-1092.549898538079
 11
117
 21
-1068.549898538079
  0
LINE
  5
C0
100
AcDbEntity
  8
print
  6
ByLayer
 62
    7
370
   -1
100
AcDbLine
 10
128.9999999999951
 20
-1080.549898538079
 11
105.0000000000047
 21
-1080.549898538079
  0
CIRCLE
  5
C1
100
AcDbEntity
  8
print
  6
ByLayer
 62
    7
370
   -1
100
AcDbCircle
 10
64.99999999999994
 20
-1077.949956516322
 40
10
  0
LINE
  5
C2
100
AcDbEntity
  8
print
  6
ByLayer
 62
    7
370
   -1
100
AcDbLine
 10
64.99999999999994
 20
-1089.949956516322
 11
64.99999999999994
 21
-1065.949956516322
  0
LINE
  5
C3
100
AcDbEntity
  8
print
  6
ByLayer
 62
    7
370
   -1
100
AcDbLine
 10
76.99999999999505
 20
-1077.949956516322
 11
53.00000000000472
 21
-1077.949956516322
  0
LINE
  5
C4
100
AcDbEntity
  8
print
  6
ByLayer
 62
    7
370
   -1
100
AcDbLine
 10
114.258057532488
 20
-1060.825920849572
 11
114.5565620988589
 21
-1057.84080861988
  0
LINE
  5
C5
100
AcDbEntity
  8
print
  6
ByLayer
 62
    7
370
    0
100
AcDbLine
 10
196.0000028471448
 20
-1039.3
 11
196.0000028471448
 21
-1052.7
  0
ARC
  5
C6
100
AcDbEntity
  8
print
  6
ByLayer
 62
    7
370
    0
100
AcDbCircle
 10
190.0000028471448
 20
-1032
 40
6
100
AcDbArc
 50
0
 51
90
  0
ARC
  5
C7
100
AcDbEntity
  8
print
  6
ByLayer
 62
    7
370
    0
100
AcDbCircle
 10
190.0000028471448
 20
-1060
 40
6
100
AcDbArc
 50
270
 51
0
  0
LINE
  5
C8
100
AcDbEntity
  8
print
  6
ByLayer
 62
    7
370
   -1
100
AcDbLine
 10
196.0000028471448
 20
-1036
 11
181.0000028471448
 21
-1036
  0
LINE
  5
C9
100
AcDbEntity
  8
print
  6
ByLayer
 62
    7
370
   -1
100
AcDbLine
 10
196.0000028471448
 20
-1056
 11
181.0000028471448
 21
-1056
  0
LINE
  5
CA
100
AcDbEntity
  8
print
  6
ByLayer
 62
    7
370
   -1
100
AcDbLine
 10
196.0000028471448
 20
-1033
 11
181.0000028471448
 21
-1033
  0
LINE
  5
CB
100
AcDbEntity
  8
print
  6
ByLayer
 62
    7
370
   -1
100
AcDbLine
 10
196.0000028471448
 20
-1059
 11
181.0000028471448
 21
-1059
  0
LINE
  5
CC
100
AcDbEntity
  8
print
  6
ByLayer
 62
    7
370
   -1
100
AcDbLine
 10
196.0000028471448
 20
-1031.4
 11
196.0000028471448
 21
-1033
  0
LINE
  5
CD
100
AcDbEntity
  8
print
  6
ByLayer
 62
    7
370
   -1
100
AcDbLine
 10
196.0000028471448
 20
-1033
 11
181.0000028471448
 21
-1033
  0
LINE
  5
CE
100
AcDbEntity
  8
print
  6
ByLayer
 62
    7
370
   -1
100
AcDbLine
 10
181.0000028471448
 20
-1033
 11
181.0000028471449
 21
-1036
  0
LINE
  5
CF
100
AcDbEntity
  8
print
  6
ByLayer
 62
    7
370
   -1
100
AcDbLine
 10
181.0000028471449
 20
-1036
 11
196.0000028471448
 21
-1036
  0
LINE
  5
D0
100
AcDbEntity
  8
print
  6
ByLayer
 62
    7
370
   -1
100
AcDbLine
 10
196.0000028471448
 20
-1036
 11
196.0000028471448
 21
-1056
  0
LINE
  5
D1
100
AcDbEntity
  8
print
  6
ByLayer
 62
    7
370
   -1
100
AcDbLine
 10
196.0000028471448
 20
-1056
 11
181.0000028471448
 21
-1056
  0
LINE
  5
D2
100
AcDbEntity
  8
print
  6
ByLayer
 62
    7
370
   -1
100
AcDbLine
 10
181.0000028471448
 20
-1056
 11
181.0000028471448
 21
-1059
  0
LINE
  5
D3
100
AcDbEntity
  8
print
  6
ByLayer
 62
    7
370
   -1
100
AcDbLine
 10
181.0000028471448
 20
-1059
 11
196.0000028471448
 21
-1059
  0
LINE
  5
D4
100
AcDbEntity
  8
print
  6
ByLayer
 62
    7
370
   -1
100
AcDbLine
 10
196.0000028471448
 20
-1059
 11
196.0000028471448
 21
-1060
  0
LINE
  5
D5
100
AcDbEntity
  8
print
  6
ByLayer
 62
    7
370
   -1
100
AcDbLine
 10
166.0000028471425
 20
-1025.999999999979
 11
190.0000028471448
 21
-1026
  0
LINE
  5
D6
100
AcDbEntity
  8
print
  6
ByLayer
 62
    7
370
   -1
100
AcDbLine
 10
166.0000028471459
 20
-1066
 11
190.0000207806288
 21
-1066
  0
LINE
  5
D7
100
AcDbEntity
  8
print
  6
ByLayer
 62
    7
370
   -1
100
AcDbLine
 10
36.00000284714475
 20
-1026
 11
36.00000284714475
 21
-1029
  0
LINE
  5
D8
100
AcDbEntity
  8
print
  6
ByLayer
 62
    7
370
   -1
100
AcDbLine
 10
36.00000284714475
 20
-1029
 11
62.00000284714475
 21
-1028.999999999996
  0
LINE
  5
D9
100
AcDbEntity
  8
print
  6
ByLayer
 62
    7
370
   -1
100
AcDbLine
 10
62.00000284714475
 20
-1028.999999999996
 11
62.00000284714475
 21
-1025.999999999996
  0
LINE
  5
DA
100
AcDbEntity
  8
print
  6
ByLayer
 62
    7
370
   -1
100
AcDbLine
 10
62.00000284714475
 20
-1025.999999999996
 11
88.00000284714476
 21
-1026
  0
LINE
  5
DB
100
AcDbEntity
  8
print
  6
ByLayer
 62
    7
370
   -1
100
AcDbLine
 10
88.00000284714476
 20
-1026
 11
88.00000284714474
 21
-1028.999999999991
  0
LINE
  5
DC
100
AcDbEntity
  8
print
  6
ByLayer
 62
    7
370
   -1
100
AcDbLine
 10
88.00000284714474
 20
-1028.999999999991
 11
114.0000028471448
 21
-1028.999999999987
  0
LINE
  5
DD
100
AcDbEntity
  8
print
  6
ByLayer
 62
    7
370
   -1
100
AcDbLine
 10
114.0000028471448
 20
-1028.999999999987
 11
114.0000028471448
 21
-1025.999999999987
  0
LINE
  5
DE
100
AcDbEntity
  8
print
  6
ByLayer
 62
    7
370
   -1
100
AcDbLine
 10
114.0000028471448
 20
-1025.999999999987
 11
140.0000028471448
 21
-1026
  0
LINE
  5
DF
100
AcDbEntity
  8
print
  6
ByLayer
 62
    7
370
   -1
100
AcDbLine
 10
140.0000028471448
 20
-1026
 11
140.0000028471448
 21
-1028.999999999983
  0
LINE
  5
E0
100
AcDbEntity
  8
print
  6
ByLayer
 62
    7
370
   -1
100
AcDbLine
 10
140.0000028471448
 20
-1028.999999999983
 11
166.0000028471429
 21
-1028.999999999979
  0
LINE
  5
E1
100
AcDbEntity
  8
print
  6
ByLayer
 62
    7
370
   -1
100
AcDbLine
 10
166.0000028471429
 20
-1028.999999999979
 11
166.0000028471425
 21
-1025.999999999979
  0
LINE
  5
E2
100
AcDbEntity
  8
print
  6
ByLayer
 62
    7
370
   -1
100
AcDbLine
 10
166.0000028471425
 20
-1025.999999999979
 11
190.0000028471448
 21
-1026
  0
LINE
  5
E3
100
AcDbEntity
  8
print
  6
ByLayer
 62
    7
370
   -1
100
AcDbLine
 10
2.000002847144756
 20
-1026
 11
36.00000284714475
 21
-1026
  0
LINE
  5
E4
100
AcDbEntity
  8
print
  6
ByLayer
 62
    7
370
   -1
100
AcDbLine
 10
166.0000028471459
 20
-1066
 11
166.2985074135168
 21
-1063.014887770308
  0
LINE
  5
E5
100
AcDbEntity
  8
print
  6
ByLayer
 62
    7
370
   -1
100
AcDbLine
 10
140.1290301898167
 20
-1063.412960424786
 11
140.4275347561876
 21
-1060.427848195094
  0
LINE
  5
E6
100
AcDbEntity
  8
print
  6
ByLayer
 62
    7
370
   -1
100
AcDbLine
 10
88.38708487515832
 20
-1058.238881274357
 11
88.68558944152919
 21
-1055.253769044666
  0
LINE
  5
E7
100
AcDbEntity
  8
print
  6
ByLayer
 62
    7
370
   -1
100
AcDbLine
 10
62.51611221782913
 20
-1055.651841699143
 11
62.81461678419998
 21
-1052.666729469451
  0
LINE
  5
E8
100
AcDbEntity
  8
print
  6
ByLayer
 62
    7
370
   -1
100
AcDbLine
 10
36.64513956049991
 20
-1053.064802123929
 11
36.94364412687078
 21
-1050.079689894237
  0
LINE
  5
E9
100
AcDbEntity
  8
print
  6
ByLayer
 62
    7
370
   -1
100
AcDbLine
 10
36.64513956049883
 20
-1053.064802123929
 11
36.94364412687062
 21
-1050.079689894237
  0
LINE
  5
EA
100
AcDbEntity
  8
print
  6
ByLayer
 62
    7
370
   -1
100
AcDbLine
 10
36.94364412687062
 20
-1050.079689894237
 11
62.81461678419998
 21
-1052.666729469451
  0
LINE
  5
EB
100
AcDbEntity
  8
print
  6
ByLayer
 62
    7
370
   -1
100
AcDbLine
 10
62.81461678419998
 20
-1052.666729469451
 11
62.51611221782913
 21
-1055.651841699143
  0
LINE
  5
EC
100
AcDbEntity
  8
print
  6
ByLayer
 62
    7
370
   -1
100
AcDbLine
 10
62.51611221782913
 20
-1055.651841699143
 11
88.38708487515832
 21
-1058.238881274357
  0
LINE
  5
ED
100
AcDbEntity
  8
print
  6
ByLayer
 62
    7
370
   -1
100
AcDbLine
 10
88.38708487515832
 20
-1058.238881274357
 11
88.68558944153007
 21
-1055.253769044665
  0
LINE
  5
EE
100
AcDbEntity
  8
print
  6
ByLayer
 62
    7
370
   -1
100
AcDbLine
 10
88.68558944153007
 20
-1055.253769044665
 11
114.5565620988589
 21
-1057.84080861988
  0
LINE
  5
EF
100
AcDbEntity
  8
print
  6
ByLayer
 62
    7
370
   -1
100
AcDbLine
 10
114.5565620988589
 20
-1057.84080861988
 11
114.2580575324875
 21
-1060.825920849572
  0
LINE
  5
F0
100
AcDbEntity
  8
print
  6
ByLayer
 62
    7
370
   -1
100
AcDbLine
 10
114.2580575324875
 20
-1060.825920849572
 11
140.1290301898159
 21
-1063.412960424786
  0
LINE
  5
F1
100
AcDbEntity
  8
print
  6
ByLayer
 62
    7
370
   -1
100
AcDbLine
 10
140.1290301898159
 20
-1063.412960424786
 11
140.4275347561877
 21
-1060.427848195094
  0
LINE
  5
F2
100
AcDbEntity
  8
print
  6
ByLayer
 62
    7
370
   -1
100
AcDbLine
 10
140.4275347561877
 20
-1060.427848195094
 11
166.2985074135168
 21
-1063.014887770308
  0
LINE
  5
F3
100
AcDbEntity
  8
print
  6
ByLayer
 62
    7
370
   -1
100
AcDbLine
 10
166.2985074135168
 20
-1063.014887770308
 11
166.0000028471466
 21
-1066
  0
LINE
  5
F4
100
AcDbEntity
  8
print
  6
ByLayer
 62
    7
370
   -1
100
AcDbLine
 10
1.402993714403872
 20
-1049.54066612692
 11
36.64513956049991
 21
-1053.064802123929
  0
CIRCLE
  5
F5
100
AcDbEntity
  8
print
  6
ByLayer
 62
    7
370
   -1
100
AcDbCircle
 10
75.00000284714476
 20
-1041.450101461921
 40
10
  0
LINE
  5
F6
100
AcDbEntity
  8
print
  6
ByLayer
 62
    7
370
   -1
100
AcDbLine
 10
75.00000284714476
 20
-1029.450101461921
 11
75.00000284714476
 21
-1053.450101461921
  0
LINE
  5
F7
100
AcDbEntity
  8
print
  6
ByLayer
 62
    7
370
   -1
100
AcDbLine
 10
63.00000284714966
 20
-1041.450101461921
 11
87.00000284714001
 21
-1041.450101461921
  0
CIRCLE
  5
F8
100
AcDbEntity
  8
print
  6
ByLayer
 62
    7
370
   -1
100
AcDbCircle
 10
127.0000028471448
 20
-1044.050043483678
 40
10
  0
LINE
  5
F9
100
AcDbEntity
  8
print
  6
ByLayer
 62
    7
370
   -1
100
AcDbLine
 10
127.0000028471448
 20
-1032.050043483678
 11
127.0000028471448
 21
-1056.050043483678
  0
LINE
  5
FA
100
AcDbEntity
  8
print
  6
ByLayer
 62
    7
370
   -1
100
AcDbLine
 10
115.0000028471497
 20
-1044.050043483678
 11
139.00000284714
 21
-1044.050043483678
  0
LINE
  5
FB
100
AcDbEntity
  8
print
  6
ByLayer
 62
    7
370
   -1
100
AcDbLine
 10
69
 20
-992
 11
69
 21
-1012
  0
LINE
  5
FC
100
AcDbEntity
  8
print
  6
ByLayer
 62
    7
370
   -1
100
AcDbLine
 10
66
 20
-1022
 11
66
 21
-1012
  0
LINE
  5
FD
100
AcDbEntity
  8
print
  6
ByLayer
 62
    7
370
   -1
100
AcDbLine
 10
66
 20
-1012
 11
69
 21
-1012
  0
LINE
  5
FE
100
AcDbEntity
  8
print
  6
ByLayer
 62
    7
370
   -1
100
AcDbLine
 10
69
 20
-1012
 11
69
 21
-992
  0
LINE
  5
FF
100
AcDbEntity
  8
print
  6
ByLayer
 62
    7
370
   -1
100
AcDbLine
 10
69
 20
-992
 11
66
 21
-992
  0
LINE
  5
100
100
AcDbEntity
  8
print
  6
ByLayer
 62
    7
370
   -1
100
AcDbLine
 10
66
 20
-992
 11
66
 21
-982
  0
LINE
  5
101
100
AcDbEntity
  8
print
  6
ByLayer
 62
    7
370
   -1
100
AcDbLine
 10
196
 20
-1022
 11
196
 21
-1012
  0
LINE
  5
102
100
AcDbEntity
  8
print
  6
ByLayer
 62
    7
370
   -1
100
AcDbLine
 10
196
 20
-992
 11
196
 21
-982
  0
LINE
  5
103
100
AcDbEntity
  8
print
  6
ByLayer
 62
    7
370
   -1
100
AcDbLine
 10
193
 20
-1012
 11
193
 21
-992
  0
LINE
  5
104
100
AcDbEntity
  8
print
  6
ByLayer
 62
    7
370
   -1
100
AcDbLine
 10
196
 20
-992
 11
193
 21
-992
  0
LINE
  5
105
100
AcDbEntity
  8
print
  6
ByLayer
 62
    7
370
   -1
100
AcDbLine
 10
193
 20
-1012
 11
196
 21
-1012
  0
LINE
  5
106
100
AcDbEntity
  8
print
  6
ByLayer
 62
    7
370
   -1
100
AcDbLine
 10
66
 20
-982
 11
92
 21
-982
  0
LINE
  5
107
100
AcDbEntity
  8
print
  6
ByLayer
 62
    7
370
   -1
100
AcDbLine
 10
92
 20
-982
 11
92
 21
-985
  0
LINE
  5
108
100
AcDbEntity
  8
print
  6
ByLayer
 62
    7
370
   -1
100
AcDbLine
 10
92
 20
-985
 11
118
 21
-985
  0
LINE
  5
109
100
AcDbEntity
  8
print
  6
ByLayer
 62
    7
370
   -1
100
AcDbLine
 10
118
 20
-985
 11
118
 21
-982
  0
LINE
  5
10A
100
AcDbEntity
  8
print
  6
ByLayer
 62
    7
370
   -1
100
AcDbLine
 10
118
 20
-982
 11
144
 21
-982
  0
LINE
  5
10B
100
AcDbEntity
  8
print
  6
ByLayer
 62
    7
370
   -1
100
AcDbLine
 10
144
 20
-982
 11
144
 21
-985
  0
LINE
  5
10C
100
AcDbEntity
  8
print
  6
ByLayer
 62
    7
370
   -1
100
AcDbLine
 10
144
 20
-985
 11
170
 21
-985
  0
LINE
  5
10D
100
AcDbEntity
  8
print
  6
ByLayer
 62
    7
370
   -1
100
AcDbLine
 10
170
 20
-985
 11
170
 21
-982
  0
LINE
  5
10E
100
AcDbEntity
  8
print
  6
ByLayer
 62
    7
370
   -1
100
AcDbLine
 10
170
 20
-982
 11
196
 21
-982
  0
LINE
  5
10F
100
AcDbEntity
  8
print
  6
ByLayer
 62
    7
370
   -1
100
AcDbLine
 10
196
 20
-1022
 11
170
 21
-1022
  0
LINE
  5
110
100
AcDbEntity
  8
print
  6
ByLayer
 62
    7
370
   -1
100
AcDbLine
 10
170
 20
-1022
 11
170
 21
-1019
  0
LINE
  5
111
100
AcDbEntity
  8
print
  6
ByLayer
 62
    7
370
   -1
100
AcDbLine
 10
170
 20
-1019
 11
144
 21
-1019
  0
LINE
  5
112
100
AcDbEntity
  8
print
  6
ByLayer
 62
    7
370
   -1
100
AcDbLine
 10
144
 20
-1019
 11
144
 21
-1022
  0
LINE
  5
113
100
AcDbEntity
  8
print
  6
ByLayer
 62
    7
370
   -1
100
AcDbLine
 10
144
 20
-1022
 11
118
 21
-1022
  0
LINE
  5
114
100
AcDbEntity
  8
print
  6
ByLayer
 62
    7
370
   -1
100
AcDbLine
 10
118
 20
-1022
 11
118
 21
-1019
  0
LINE
  5
115
100
AcDbEntity
  8
print
  6
ByLayer
 62
    7
370
   -1
100
AcDbLine
 10
118
 20
-1019
 11
92
 21
-1019
  0
LINE
  5
116
100
AcDbEntity
  8
print
  6
ByLayer
 62
    7
370
   -1
100
AcDbLine
 10
92
 20
-1019
 11
92
 21
-1022
  0
LINE
  5
117
100
AcDbEntity
  8
print
  6
ByLayer
 62
    7
370
   -1
100
AcDbLine
 10
92
 20
-1022
 11
66
 21
-1022
  0
CIRCLE
  5
118
100
AcDbEntity
  8
print
  6
ByLayer
 62
    7
370
   -1
100
AcDbCircle
 10
92
 20
-1002
 40
10
  0
LINE
  5
119
100
AcDbEntity
  8
print
  6
ByLayer
 62
    7
370
   -1
100
AcDbLine
 10
92
 20
-990
 11
92
 21
-1014
  0
LINE
  5
11A
100
AcDbEntity
  8
print
  6
ByLayer
 62
    7
370
   -1
100
AcDbLine
 10
80.00000000000489
 20
-1002
 11
103.9999999999952
 21
-1002
  0
CIRCLE
  5
11B
100
AcDbEntity
  8
print
  6
ByLayer
 62
    7
370
   -1
100
AcDbCircle
 10
170
 20
-1002
 40
10
  0
LINE
  5
11C
100
AcDbEntity
  8
print
  6
ByLayer
 62
    7
370
   -1
100
AcDbLine
 10
170
 20
-990
 11
170
 21
-1014
  0
LINE
  5
11D
100
AcDbEntity
  8
print
  6
ByLayer
 62
    7
370
   -1
100
AcDbLine
 10
158.0000000000049
 20
-1002
 11
181.9999999999952
 21
-1002
  0
CIRCLE
  5
11E
100
AcDbEntity
  8
print
  6
ByLayer
 62
    7
370
   -1
100
AcDbCircle
 10
130.9999999999999
 20
-1002
 40
10
  0
LINE
  5
11F
100
AcDbEntity
  8
print
  6
ByLayer
 62
    7
370
   -1
100
AcDbLine
 10
130.9999999999999
 20
-990
 11
130.9999999999999
 21
-1014
  0
LINE
  5
120
100
AcDbEntity
  8
print
  6
ByLayer
 62
    7
370
   -1
100
AcDbLine
 10
119.0000000000048
 20
-1002
 11
142.9999999999952
 21
-1002
  0
LINE
  5
121
100
AcDbEntity
  8
print
  6
ByLayer
 62
    7
370
   -1
100
AcDbLine
 10
69
 20
-948
 11
69
 21
-968
  0
LINE
  5
122
100
AcDbEntity
  8
print
  6
ByLayer
 62
    7
370
   -1
100
AcDbLine
 10
66
 20
-978
 11
66
 21
-968
  0
LINE
  5
123
100
AcDbEntity
  8
print
  6
ByLayer
 62
    7
370
   -1
100
AcDbLine
 10
66
 20
-968
 11
69
 21
-968
  0
LINE
  5
124
100
AcDbEntity
  8
print
  6
ByLayer
 62
    7
370
   -1
100
AcDbLine
 10
69
 20
-968
 11
69
 21
-948
  0
LINE
  5
125
100
AcDbEntity
  8
print
  6
ByLayer
 62
    7
370
   -1
100
AcDbLine
 10
69
 20
-948
 11
66
 21
-948
  0
LINE
  5
126
100
AcDbEntity
  8
print
  6
ByLayer
 62
    7
370
   -1
100
AcDbLine
 10
66
 20
-948
 11
66
 21
-938
  0
LINE
  5
127
100
AcDbEntity
  8
print
  6
ByLayer
 62
    7
370
   -1
100
AcDbLine
 10
196
 20
-978
 11
196
 21
-968
  0
LINE
  5
128
100
AcDbEntity
  8
print
  6
ByLayer
 62
    7
370
   -1
100
AcDbLine
 10
196
 20
-948
 11
196
 21
-938
  0
LINE
  5
129
100
AcDbEntity
  8
print
  6
ByLayer
 62
    7
370
   -1
100
AcDbLine
 10
193
 20
-968
 11
193
 21
-948
  0
LINE
  5
12A
100
AcDbEntity
  8
print
  6
ByLayer
 62
    7
370
   -1
100
AcDbLine
 10
196
 20
-948
 11
193
 21
-948
  0
LINE
  5
12B
100
AcDbEntity
  8
print
  6
ByLayer
 62
    7
370
   -1
100
AcDbLine
 10
193
 20
-968
 11
196
 21
-968
  0
LINE
  5
12C
100
AcDbEntity
  8
print
  6
ByLayer
 62
    7
370
   -1
100
AcDbLine
 10
66
 20
-938
 11
92
 21
-938
  0
LINE
  5
12D
100
AcDbEntity
  8
print
  6
ByLayer
 62
    7
370
   -1
100
AcDbLine
 10
92
 20
-938
 11
92
 21
-941
  0
LINE
  5
12E
100
AcDbEntity
  8
print
  6
ByLayer
 62
    7
370
   -1
100
AcDbLine
 10
92
 20
-941
 11
118
 21
-941
  0
LINE
  5
12F
100
AcDbEntity
  8
print
  6
ByLayer
 62
    7
370
   -1
100
AcDbLine
 10
118
 20
-941
 11
118
 21
-938
  0
LINE
  5
130
100
AcDbEntity
  8
print
  6
ByLayer
 62
    7
370
   -1
100
AcDbLine
 10
118
 20
-938
 11
144
 21
-938
  0
LINE
  5
131
100
AcDbEntity
  8
print
  6
ByLayer
 62
    7
370
   -1
100
AcDbLine
 10
144
 20
-938
 11
144
 21
-941
  0
LINE
  5
132
100
AcDbEntity
  8
print
  6
ByLayer
 62
    7
370
   -1
100
AcDbLine
 10
144
 20
-941
 11
170
 21
-941
  0
LINE
  5
133
100
AcDbEntity
  8
print
  6
ByLayer
 62
    7
370
   -1
100
AcDbLine
 10
170
 20
-941
 11
170
 21
-938
  0
LINE
  5
134
100
AcDbEntity
  8
print
  6
ByLayer
 62
    7
370
   -1
100
AcDbLine
 10
170
 20
-938
 11
196
 21
-938
  0
LINE
  5
135
100
AcDbEntity
  8
print
  6
ByLayer
 62
    7
370
   -1
100
AcDbLine
 10
196
 20
-978
 11
170
 21
-978
  0
LINE
  5
136
100
AcDbEntity
  8
print
  6
ByLayer
 62
    7
370
   -1
100
AcDbLine
 10
170
 20
-978
 11
170
 21
-975
  0
LINE
  5
137
100
AcDbEntity
  8
print
  6
ByLayer
 62
    7
370
   -1
100
AcDbLine
 10
170
 20
-975
 11
144
 21
-975
  0
LINE
  5
138
100
AcDbEntity
  8
print
  6
ByLayer
 62
    7
370
   -1
100
AcDbLine
 10
144
 20
-975
 11
144
 21
-978
  0
LINE
  5
139
100
AcDbEntity
  8
print
  6
ByLayer
 62
    7
370
   -1
100
AcDbLine
 10
144
 20
-978
 11
118
 21
-978
  0
LINE
  5
13A
100
AcDbEntity
  8
print
  6
ByLayer
 62
    7
370
   -1
100
AcDbLine
 10
118
 20
-978
 11
118
 21
-975
  0
LINE
  5
13B
100
AcDbEntity
  8
print
  6
ByLayer
 62
    7
370
   -1
100
AcDbLine
 10
118
 20
-975
 11
92
 21
-975
  0
LINE
  5
13C
100
AcDbEntity
  8
print
  6
ByLayer
 62
    7
370
   -1
100
AcDbLine
 10
92
 20
-975
 11
92
 21
-978
  0
LINE
  5
13D
100
AcDbEntity
  8
print
  6
ByLayer
 62
    7
370
   -1
100
AcDbLine
 10
92
 20
-978
 11
66
 21
-978
  0
CIRCLE
  5
13E
100
AcDbEntity
  8
print
  6
ByLayer
 62
    7
370
   -1
100
AcDbCircle
 10
92
 20
-958
 40
10
  0
LINE
  5
13F
100
AcDbEntity
  8
print
  6
ByLayer
 62
    7
370
   -1
100
AcDbLine
 10
92
 20
-946
 11
92
 21
-970
  0
LINE
  5
140
100
AcDbEntity
  8
print
  6
ByLayer
 62
    7
370
   -1
100
AcDbLine
 10
80.00000000000489
 20
-958
 11
103.9999999999952
 21
-958
  0
CIRCLE
  5
141
100
AcDbEntity
  8
print
  6
ByLayer
 62
    7
370
   -1
100
AcDbCircle
 10
170
 20
-958
 40
10
  0
LINE
  5
142
100
AcDbEntity
  8
print
  6
ByLayer
 62
    7
370
   -1
100
AcDbLine
 10
170
 20
-946
 11
170
 21
-970
  0
LINE
  5
143
100
AcDbEntity
  8
print
  6
ByLayer
 62
    7
370
   -1
100
AcDbLine
 10
158.0000000000049
 20
-958
 11
181.9999999999952
 21
-958
  0
CIRCLE
  5
144
100
AcDbEntity
  8
print
  6
ByLayer
 62
    7
370
   -1
100
AcDbCircle
 10
130.9999999999999
 20
-958
 40
10
  0
LINE
  5
145
100
AcDbEntity
  8
print
  6
ByLayer
 62
    7
370
   -1
100
AcDbLine
 10
130.9999999999999
 20
-946
 11
130.9999999999999
 21
-970
  0
LINE
  5
146
100
AcDbEntity
  8
print
  6
ByLayer
 62
    7
370
   -1
100
AcDbLine
 10
119.0000000000048
 20
-958
 11
142.9999999999952
 21
-958
  0
LINE
  5
147
100
AcDbEntity
  8
print
  6
ByLayer
 62
    7
370
   -1
100
AcDbLine
 10
19.99999999999999
 20
-897
 11
44.79999999999999
 21
-897
  0
LINE
  5
148
100
AcDbEntity
  8
print
  6
ByLayer
 62
    7
370
   -1
100
AcDbLine
 10
44.79999999999999
 20
-897
 11
44.79999999999999
 21
-894
  0
LINE
  5
149
100
AcDbEntity
  8
print
  6
ByLayer
 62
    7
370
   -1
100
AcDbLine
 10
44.79999999999999
 20
-894
 11
69.59999999999999
 21
-894
  0
LINE
  5
14A
100
AcDbEntity
  8
print
  6
ByLayer
 62
    7
370
   -1
100
AcDbLine
 10
69.59999999999999
 20
-894
 11
69.59999999999999
 21
-897
  0
LINE
  5
14B
100
AcDbEntity
  8
print
  6
ByLayer
 62
    7
370
   -1
100
AcDbLine
 10
69.59999999999999
 20
-897
 11
94.39999999999999
 21
-897
  0
LINE
  5
14C
100
AcDbEntity
  8
print
  6
ByLayer
 62
    7
370
   -1
100
AcDbLine
 10
94.39999999999999
 20
-897
 11
94.39999999999999
 21
-894
  0
LINE
  5
14D
100
AcDbEntity
  8
print
  6
ByLayer
 62
    7
370
   -1
100
AcDbLine
 10
94.39999999999999
 20
-894
 11
119.2
 21
-893.9999999999999
  0
LINE
  5
14E
100
AcDbEntity
  8
print
  6
ByLayer
 62
    7
370
   -1
100
AcDbLine
 10
119.2
 20
-893.9999999999999
 11
119.2
 21
-896.9999999999999
  0
LINE
  5
14F
100
AcDbEntity
  8
print
  6
ByLayer
 62
    7
370
   -1
100
AcDbLine
 10
119.2
 20
-896.9999999999999
 11
144
 21
-896.9999999999999
  0
LINE
  5
150
100
AcDbEntity
  8
print
  6
ByLayer
 62
    7
370
   -1
100
AcDbLine
 10
119.2
 20
-896.9999999999999
 11
144
 21
-896.9999999999999
  0
LINE
  5
151
100
AcDbEntity
  8
print
  6
ByLayer
 62
    7
370
   -1
100
AcDbLine
 10
144
 20
-896.9999999999999
 11
144
 21
-902.9999999999999
  0
LINE
  5
152
100
AcDbEntity
  8
print
  6
ByLayer
 62
    7
370
   -1
100
AcDbLine
 10
144
 20
-902.9999999999999
 11
147
 21
-902.9999999999999
  0
LINE
  5
153
100
AcDbEntity
  8
print
  6
ByLayer
 62
    7
370
   -1
100
AcDbLine
 10
157
 20
-893.9999999999998
 11
157
 21
-896.9999999999998
  0
LINE
  5
154
100
AcDbEntity
  8
print
  6
ByLayer
 62
    7
370
   -1
100
AcDbLine
 10
177
 20
-896.9999999999998
 11
177
 21
-893.9999999999999
  0
LINE
  5
155
100
AcDbEntity
  8
print
  6
ByLayer
 62
    7
370
   -1
100
AcDbLine
 10
187
 20
-902.9999999999999
 11
190
 21
-902.9999999999999
  0
LINE
  5
156
100
AcDbEntity
  8
print
  6
ByLayer
 62
    7
370
   -1
100
AcDbLine
 10
147
 20
-896.9999999999999
 11
157
 21
-896.9999999999998
  0
LINE
  5
157
100
AcDbEntity
  8
print
  6
ByLayer
 62
    7
370
   -1
100
AcDbLine
 10
157
 20
-893.9999999999998
 11
177
 21
-893.9999999999998
  0
LINE
  5
158
100
AcDbEntity
  8
print
  6
ByLayer
 62
    7
370
   -1
100
AcDbLine
 10
177
 20
-896.9999999999999
 11
187
 21
-896.9999999999998
  0
LINE
  5
159
100
AcDbEntity
  8
print
  6
ByLayer
 62
    7
370
   -1
100
AcDbLine
 10
147
 20
-896.9999999999999
 11
157
 21
-896.9999999999998
  0
LINE
  5
15A
100
AcDbEntity
  8
print
  6
ByLayer
 62
    7
370
   -1
100
AcDbLine
 10
157
 20
-896.9999999999998
 11
157
 21
-893.9999999999998
  0
LINE
  5
15B
100
AcDbEntity
  8
print
  6
ByLayer
 62
    7
370
   -1
100
AcDbLine
 10
157
 20
-893.9999999999998
 11
177
 21
-893.9999999999998
  0
LINE
  5
15C
100
AcDbEntity
  8
print
  6
ByLayer
 62
    7
370
   -1
100
AcDbLine
 10
177
 20
-893.9999999999998
 11
177
 21
-896.9999999999999
  0
LINE
  5
15D
100
AcDbEntity
  8
print
  6
ByLayer
 62
    7
370
   -1
100
AcDbLine
 10
177
 20
-896.9999999999999
 11
187
 21
-896.9999999999998
  0
LINE
  5
15E
100
AcDbEntity
  8
print
  6
ByLayer
 62
    7
370
   -1
100
AcDbLine
 10
187
 20
-896.9999999999998
 11
187
 21
-902.9999999999999
  0
LINE
  5
15F
100
AcDbEntity
  8
print
  6
ByLayer
 62
    7
370
   -1
100
AcDbLine
 10
147
 20
-902.9999999999999
 11
147
 21
-896.9999999999999
  0
LINE
  5
160
100
AcDbEntity
  8
print
  6
ByLayer
 62
    7
370
   -1
100
AcDbLine
 10
190
 20
-896.9999999999998
 11
190
 21
-902.9999999999999
  0
LINE
  5
161
100
AcDbEntity
  8
print
  6
ByLayer
 62
    7
370
   -1
100
AcDbLine
 10
190
 20
-902.9999999999999
 11
187
 21
-902.9999999999999
  0
LINE
  5
162
100
AcDbEntity
  8
print
  6
ByLayer
 62
    7
370
   -1
100
AcDbLine
 10
190
 20
-896.9999999999998
 11
190
 21
-896.9999999999998
  0
ARC
  5
163
100
AcDbEntity
  8
print
  6
ByLayer
 62
    7
370
   -1
100
AcDbCircle
 10
190
 20
-902.9999999999998
 40
6
100
AcDbArc
 50
0
 51
90
  0
LINE
  5
164
100
AcDbEntity
  8
print
  6
ByLayer
 62
    7
370
   -1
100
AcDbLine
 10
196
 20
-921
 11
196
 21
-902.9999999999998
  0
LINE
  5
165
100
AcDbEntity
  8
print
  6
ByLayer
 62
    7
370
   -1
100
AcDbLine
 10
190
 20
-927
 11
190
 21
-927
  0
LINE
  5
166
100
AcDbEntity
  8
print
  6
ByLayer
 62
    7
370
   -1
100
AcDbLine
 10
44.79999999999998
 20
-931
 11
19.99999999999998
 21
-931
  0
LINE
  5
167
100
AcDbEntity
  8
print
  6
ByLayer
 62
    7
370
   -1
100
AcDbLine
 10
69.59999999999998
 20
-934
 11
44.79999999999998
 21
-934
  0
LINE
  5
168
100
AcDbEntity
  8
print
  6
ByLayer
 62
    7
370
   -1
100
AcDbLine
 10
94.39999999999999
 20
-931
 11
69.59999999999998
 21
-931
  0
LINE
  5
169
100
AcDbEntity
  8
print
  6
ByLayer
 62
    7
370
   -1
100
AcDbLine
 10
119.2
 20
-934
 11
94.39999999999999
 21
-934
  0
LINE
  5
16A
100
AcDbEntity
  8
print
  6
ByLayer
 62
    7
370
   -1
100
AcDbLine
 10
119.2
 20
-931
 11
144
 21
-931.0000000000001
  0
LINE
  5
16B
100
AcDbEntity
  8
print
  6
ByLayer
 62
    7
370
   -1
100
AcDbLine
 10
144
 20
-925
 11
147
 21
-925
  0
LINE
  5
16C
100
AcDbEntity
  8
print
  6
ByLayer
 62
    7
370
   -1
100
AcDbLine
 10
147.0000000000001
 20
-931
 11
157.0000000000001
 21
-930.9999999999999
  0
LINE
  5
16D
100
AcDbEntity
  8
print
  6
ByLayer
 62
    7
370
   -1
100
AcDbLine
 10
157
 20
-934
 11
177
 21
-934
  0
LINE
  5
16E
100
AcDbEntity
  8
print
  6
ByLayer
 62
    7
370
   -1
100
AcDbLine
 10
177
 20
-931
 11
187
 21
-931
  0
LINE
  5
16F
100
AcDbEntity
  8
print
  6
ByLayer
 62
    7
370
   -1
100
AcDbLine
 10
187
 20
-925
 11
190
 21
-925
  0
LINE
  5
170
100
AcDbEntity
  8
print
  6
ByLayer
 62
    7
370
   -1
100
AcDbLine
 10
19.99999999999998
 20
-931
 11
44.79999999999998
 21
-931
  0
LINE
  5
171
100
AcDbEntity
  8
print
  6
ByLayer
 62
    7
370
   -1
100
AcDbLine
 10
44.79999999999998
 20
-931
 11
44.79999999999998
 21
-934
  0
LINE
  5
172
100
AcDbEntity
  8
print
  6
ByLayer
 62
    7
370
   -1
100
AcDbLine
 10
44.79999999999998
 20
-934
 11
69.59999999999998
 21
-934
  0
LINE
  5
173
100
AcDbEntity
  8
print
  6
ByLayer
 62
    7
370
   -1
100
AcDbLine
 10
69.59999999999998
 20
-934
 11
69.59999999999998
 21
-931
  0
LINE
  5
174
100
AcDbEntity
  8
print
  6
ByLayer
 62
    7
370
   -1
100
AcDbLine
 10
69.59999999999998
 20
-931
 11
94.39999999999999
 21
-931
  0
LINE
  5
175
100
AcDbEntity
  8
print
  6
ByLayer
 62
    7
370
   -1
100
AcDbLine
 10
94.39999999999999
 20
-931
 11
94.39999999999999
 21
-934
  0
LINE
  5
176
100
AcDbEntity
  8
print
  6
ByLayer
 62
    7
370
   -1
100
AcDbLine
 10
94.39999999999999
 20
-934
 11
119.2
 21
-934
  0
LINE
  5
177
100
AcDbEntity
  8
print
  6
ByLayer
 62
    7
370
   -1
100
AcDbLine
 10
119.2
 20
-934
 11
119.2
 21
-931
  0
LINE
  5
178
100
AcDbEntity
  8
print
  6
ByLayer
 62
    7
370
   -1
100
AcDbLine
 10
119.2
 20
-931
 11
144
 21
-931.0000000000001
  0
LINE
  5
179
100
AcDbEntity
  8
print
  6
ByLayer
 62
    7
370
   -1
100
AcDbLine
 10
144
 20
-931.0000000000001
 11
144
 21
-925
  0
LINE
  5
17A
100
AcDbEntity
  8
print
  6
ByLayer
 62
    7
370
   -1
100
AcDbLine
 10
144
 20
-925
 11
147
 21
-925
  0
LINE
  5
17B
100
AcDbEntity
  8
print
  6
ByLayer
 62
    7
370
   -1
100
AcDbLine
 10
147
 20
-925
 11
147.0000000000001
 21
-931
  0
LINE
  5
17C
100
AcDbEntity
  8
print
  6
ByLayer
 62
    7
370
   -1
100
AcDbLine
 10
147.0000000000001
 20
-931
 11
157.0000000000001
 21
-930.9999999999999
  0
LINE
  5
17D
100
AcDbEntity
  8
print
  6
ByLayer
 62
    7
370
   -1
100
AcDbLine
 10
157.0000000000001
 20
-930.9999999999999
 11
157
 21
-934
  0
LINE
  5
17E
100
AcDbEntity
  8
print
  6
ByLayer
 62
    7
370
   -1
100
AcDbLine
 10
157
 20
-934
 11
177
 21
-934
  0
LINE
  5
17F
100
AcDbEntity
  8
print
  6
ByLayer
 62
    7
370
   -1
100
AcDbLine
 10
177
 20
-934
 11
177
 21
-931
  0
LINE
  5
180
100
AcDbEntity
  8
print
  6
ByLayer
 62
    7
370
   -1
100
AcDbLine
 10
177
 20
-931
 11
187
 21
-931
  0
LINE
  5
181
100
AcDbEntity
  8
print
  6
ByLayer
 62
    7
370
   -1
100
AcDbLine
 10
187
 20
-931
 11
187
 21
-925
  0
LINE
  5
182
100
AcDbEntity
  8
print
  6
ByLayer
 62
    7
370
   -1
100
AcDbLine
 10
187
 20
-925
 11
190
 21
-925
  0
LINE
  5
183
100
AcDbEntity
  8
print
  6
ByLayer
 62
    7
370
   -1
100
AcDbLine
 10
190
 20
-930
 11
190
 21
-930
  0
LINE
  5
184
100
AcDbEntity
  8
print
  6
ByLayer
 62
    7
370
   -1
100
AcDbLine
 10
190
 20
-931
 11
190
 21
-925
  0
LINE
  5
185
100
AcDbEntity
  8
print
  6
ByLayer
 62
    7
370
   -1
100
AcDbLine
 10
190
 20
-931
 11
190
 21
-931
  0
LINE
  5
186
100
AcDbEntity
  8
print
  6
ByLayer
 62
    7
370
   -1
100
AcDbLine
 10
196
 20
-925
 11
196
 21
-902.9999999999998
  0
ARC
  5
187
100
AcDbEntity
  8
print
  6
ByLayer
 62
    7
370
   -1
100
AcDbCircle
 10
190
 20
-925
 40
6
100
AcDbArc
 50
270
 51
0
  0
LINE
  5
188
100
AcDbEntity
  8
print
  6
ByLayer
 62
    7
370
   -1
100
AcDbLine
 10
157
 20
-893.9999999999998
 11
177
 21
-893.9999999999998
  0
LINE
  5
189
100
AcDbEntity
  8
print
  6
ByLayer
 62
    7
370
   -1
100
AcDbLine
 10
177
 20
-934
 11
157
 21
-934
  0
LINE
  5
18A
100
AcDbEntity
  8
print
  6
ByLayer
 62
    7
370
   -1
100
AcDbLine
 10
157
 20
-893.9999999999999
 11
167
 21
-893.9999999999998
  0
LINE
  5
18B
100
AcDbEntity
  8
print
  6
ByLayer
 62
    7
370
   -1
100
AcDbLine
 10
94.39999999999999
 20
-894
 11
119.2
 21
-893.9999999999999
  0
LINE
  5
18C
100
AcDbEntity
  8
print
  6
ByLayer
 62
    7
370
   -1
100
AcDbLine
 10
119.2
 20
-933.9999999999999
 11
94.39999999999999
 21
-934
  0
LINE
  5
18D
100
AcDbEntity
  8
print
  6
ByLayer
 62
    7
370
   -1
100
AcDbLine
 10
94.39999999999999
 20
-894
 11
106.8
 21
-893.9999999999999
  0
LINE
  5
18E
100
AcDbEntity
  8
print
  6
ByLayer
 62
    7
370
   -1
100
AcDbLine
 10
44.79999999999999
 20
-893.9999999999999
 11
69.59999999999999
 21
-894
  0
LINE
  5
18F
100
AcDbEntity
  8
print
  6
ByLayer
 62
    7
370
   -1
100
AcDbLine
 10
69.59999999999998
 20
-934
 11
44.79999999999998
 21
-934
  0
LINE
  5
190
100
AcDbEntity
  8
print
  6
ByLayer
 62
    7
370
   -1
100
AcDbLine
 10
44.79999999999999
 20
-894
 11
57.19999999999999
 21
-894
  0
CIRCLE
  5
191
100
AcDbEntity
  8
print
  6
ByLayer
 62
    7
370
   -1
100
AcDbCircle
 10
167
 20
-914.0000000000005
 40
10
  0
LINE
  5
192
100
AcDbEntity
  8
print
  6
ByLayer
 62
    7
370
   -1
100
AcDbLine
 10
167
 20
-902.0000000000005
 11
167
 21
-926.0000000000005
  0
LINE
  5
193
100
AcDbEntity
  8
print
  6
ByLayer
 62
    7
370
   -1
100
AcDbLine
 10
155.0000000000049
 20
-914.0000000000005
 11
178.9999999999952
 21
-914.0000000000005
  0
LINE
  5
194
100
AcDbEntity
  8
print
  6
ByLayer
 62
    7
370
   -1
100
AcDbLine
 10
19.99999999999999
 20
-904
 11
22.99999999999999
 21
-904
  0
LINE
  5
195
100
AcDbEntity
  8
print
  6
ByLayer
 62
    7
370
   -1
100
AcDbLine
 10
22.99999999999998
 20
-924
 11
19.99999999999998
 21
-924
  0
LINE
  5
196
100
AcDbEntity
  8
print
  6
ByLayer
 62
    7
370
   -1
100
AcDbLine
 10
19.99999999999999
 20
-897
 11
19.99999999999999
 21
-904
  0
LINE
  5
197
100
AcDbEntity
  8
print
  6
ByLayer
 62
    7
370
   -1
100
AcDbLine
 10
19.99999999999998
 20
-924
 11
19.99999999999998
 21
-931
  0
LINE
  5
198
100
AcDbEntity
  8
print
  6
ByLayer
 62
    7
370
   -1
100
AcDbLine
 10
22.99999999999999
 20
-904
 11
22.99999999999998
 21
-924
  0
LINE
  5
199
100
AcDbEntity
  8
print
  6
ByLayer
 62
    7
370
   -1
100
AcDbLine
 10
144
 20
-902.9999999999999
 11
144
 21
-925
  0
CIRCLE
  5
19A
100
AcDbEntity
  8
print
  6
ByLayer
 62
    7
370
   -1
100
AcDbCircle
 10
44.79999999999991
 20
-914
 40
10
  0
LINE
  5
19B
100
AcDbEntity
  8
print
  6
ByLayer
 62
    7
370
   -1
100
AcDbLine
 10
44.79999999999991
 20
-902
 11
44.79999999999991
 21
-926
  0
LINE
  5
19C
100
AcDbEntity
  8
print
  6
ByLayer
 62
    7
370
   -1
100
AcDbLine
 10
32.80000000000481
 20
-914
 11
56.79999999999515
 21
-914
  0
CIRCLE
  5
19D
100
AcDbEntity
  8
print
  6
ByLayer
 62
    7
370
   -1
100
AcDbCircle
 10
81.99999999999991
 20
-914
 40
10
  0
LINE
  5
19E
100
AcDbEntity
  8
print
  6
ByLayer
 62
    7
370
   -1
100
AcDbLine
 10
81.99999999999991
 20
-902
 11
81.99999999999991
 21
-926
  0
LINE
  5
19F
100
AcDbEntity
  8
print
  6
ByLayer
 62
    7
370
   -1
100
AcDbLine
 10
70.00000000000482
 20
-914
 11
93.99999999999515
 21
-914
  0
CIRCLE
  5
1A0
100
AcDbEntity
  8
print
  6
ByLayer
 62
    7
370
   -1
100
AcDbCircle
 10
119.2
 20
-913.9999999999999
 40
10
  0
LINE
  5
1A1
100
AcDbEntity
  8
print
  6
ByLayer
 62
    7
370
   -1
100
AcDbLine
 10
119.2
 20
-901.9999999999999
 11
119.2
 21
-925.9999999999999
  0
LINE
  5
1A2
100
AcDbEntity
  8
print
  6
ByLayer
 62
    7
370
   -1
100
AcDbLine
 10
107.2000000000049
 20
-913.9999999999999
 11
131.1999999999952
 21
-913.9999999999999
  0
LINE
  5
1A3
100
AcDbEntity
  8
print
  6
ByLayer
 62
    7
370
   -1
100
AcDbLine
 10
-10.00000000000001
 20
-860
 11
4.999999999999986
 21
-860
  0
LINE
  5
1A4
100
AcDbEntity
  8
print
  6
ByLayer
 62
    7
370
   -1
100
AcDbLine
 10
4.999999999999986
 20
-880
 11
-10.00000000000001
 21
-880
  0
ARC
  5
1A5
100
AcDbEntity
  8
print
  6
ByLayer
 62
    7
370
   -1
100
AcDbCircle
 10
-4.000000000000014
 20
-856
 40
6
100
AcDbArc
 50
90
 51
180
  0
ARC
  5
1A6
100
AcDbEntity
  8
print
  6
ByLayer
 62
    7
370
   -1
100
AcDbCircle
 10
-4.000000000000014
 20
-884
 40
6
100
AcDbArc
 50
180
 51
270
  0
LINE
  5
1A7
100
AcDbEntity
  8
print
  6
ByLayer
 62
    7
370
   -1
100
AcDbLine
 10
107
 20
-860
 11
147
 21
-860
  0
LINE
  5
1A8
100
AcDbEntity
  8
print
  6
ByLayer
 62
    7
370
   -1
100
AcDbLine
 10
147
 20
-879.9999999999999
 11
107
 21
-879.9999999999999
  0
LINE
  5
1A9
100
AcDbEntity
  8
print
  6
ByLayer
 62
    7
370
   -1
100
AcDbLine
 10
103
 20
-860
 11
107
 21
-860
  0
LINE
  5
1AA
100
AcDbEntity
  8
print
  6
ByLayer
 62
    7
370
   -1
100
AcDbLine
 10
103
 20
-880
 11
107
 21
-879.9999999999999
  0
LINE
  5
1AB
100
AcDbEntity
  8
print
  6
ByLayer
 62
    7
370
   -1
100
AcDbLine
 10
103
 20
-860
 11
103
 21
-880
  0
LINE
  5
1AC
100
AcDbEntity
  8
print
  6
ByLayer
 62
    7
370
   -1
100
AcDbLine
 10
19.99999999999999
 20
-889.9999999999999
 11
36.59999999999999
 21
-889.9999999999999
  0
LINE
  5
1AD
100
AcDbEntity
  8
print
  6
ByLayer
 62
    7
370
   -1
100
AcDbLine
 10
36.59999999999999
 20
-850
 11
19.99999999999999
 21
-850
  0
LINE
  5
1AE
100
AcDbEntity
  8
print
  6
ByLayer
 62
    7
370
   -1
100
AcDbLine
 10
-4.000000000000014
 20
-850
 11
19.99999999999999
 21
-850
  0
LINE
  5
1AF
100
AcDbEntity
  8
print
  6
ByLayer
 62
    7
370
   -1
100
AcDbLine
 10
19.99999999999999
 20
-889.9999999999999
 11
-4.000000000000014
 21
-890
  0
LINE
  5
1B0
100
AcDbEntity
  8
print
  6
ByLayer
 62
    7
370
   -1
100
AcDbLine
 10
-3.999985773861575
 20
-890
 11
44.79999999999998
 21
-889.9999999999999
  0
LINE
  5
1B1
100
AcDbEntity
  8
print
  6
ByLayer
 62
    7
370
   -1
100
AcDbLine
 10
44.79999999999998
 20
-889.9999999999999
 11
44.79999999999998
 21
-886.9999999999999
  0
LINE
  5
1B2
100
AcDbEntity
  8
print
  6
ByLayer
 62
    7
370
   -1
100
AcDbLine
 10
44.79999999999998
 20
-886.9999999999999
 11
69.59999999999999
 21
-886.9999999999999
  0
LINE
  5
1B3
100
AcDbEntity
  8
print
  6
ByLayer
 62
    7
370
   -1
100
AcDbLine
 10
69.79999999999998
 20
-889.9999999999999
 11
94.69999999999999
 21
-889.9999999999999
  0
LINE
  5
1B4
100
AcDbEntity
  8
print
  6
ByLayer
 62
    7
370
   -1
100
AcDbLine
 10
19.99999999999999
 20
-850
 11
44.79999999999998
 21
-850
  0
LINE
  5
1B5
100
AcDbEntity
  8
print
  6
ByLayer
 62
    7
370
   -1
100
AcDbLine
 10
44.79999999999998
 20
-850
 11
44.79999999999998
 21
-853
  0
LINE
  5
1B6
100
AcDbEntity
  8
print
  6
ByLayer
 62
    7
370
   -1
100
AcDbLine
 10
44.79999999999998
 20
-853
 11
69.59999999999999
 21
-853
  0
LINE
  5
1B7
100
AcDbEntity
  8
print
  6
ByLayer
 62
    7
370
   -1
100
AcDbLine
 10
69.59999999999999
 20
-853
 11
69.59999999999999
 21
-850
  0
LINE
  5
1B8
100
AcDbEntity
  8
print
  6
ByLayer
 62
    7
370
   -1
100
AcDbLine
 10
69.59999999999999
 20
-850
 11
94.39999999999999
 21
-850
  0
LINE
  5
1B9
100
AcDbEntity
  8
print
  6
ByLayer
 62
    7
370
   -1
100
AcDbLine
 10
94.39999999999999
 20
-850
 11
94.39999999999999
 21
-853
  0
LINE
  5
1BA
100
AcDbEntity
  8
print
  6
ByLayer
 62
    7
370
   -1
100
AcDbLine
 10
94.39999999999999
 20
-853
 11
119.2
 21
-853
  0
LINE
  5
1BB
100
AcDbEntity
  8
print
  6
ByLayer
 62
    7
370
   -1
100
AcDbLine
 10
119.2
 20
-853
 11
119.2
 21
-850
  0
LINE
  5
1BC
100
AcDbEntity
  8
print
  6
ByLayer
 62
    7
370
   -1
100
AcDbLine
 10
147
 20
-889.9999999999999
 11
119.2
 21
-889.9999999999998
  0
LINE
  5
1BD
100
AcDbEntity
  8
print
  6
ByLayer
 62
    7
370
   -1
100
AcDbLine
 10
119.2
 20
-889.9999999999998
 11
119.2
 21
-886.9999999999998
  0
LINE
  5
1BE
100
AcDbEntity
  8
print
  6
ByLayer
 62
    7
370
   -1
100
AcDbLine
 10
119.2
 20
-886.9999999999998
 11
94.39999999999999
 21
-886.9999999999999
  0
LINE
  5
1BF
100
AcDbEntity
  8
print
  6
ByLayer
 62
    7
370
   -1
100
AcDbLine
 10
94.39999999999999
 20
-886.9999999999999
 11
94.39999999999999
 21
-889.9999999999999
  0
LINE
  5
1C0
100
AcDbEntity
  8
print
  6
ByLayer
 62
    7
370
   -1
100
AcDbLine
 10
94.39999999999999
 20
-889.9999999999999
 11
69.79999999999998
 21
-889.9999999999999
  0
LINE
  5
1C1
100
AcDbEntity
  8
print
  6
ByLayer
 62
    7
370
   -1
100
AcDbLine
 10
69.79999999999998
 20
-889.9999999999999
 11
69.59999999999999
 21
-886.9999999999999
  0
LINE
  5
1C2
100
AcDbEntity
  8
print
  6
ByLayer
 62
    7
370
   -1
100
AcDbLine
 10
69.59999999999999
 20
-886.9999999999999
 11
44.79999999999998
 21
-886.9999999999999
  0
LINE
  5
1C3
100
AcDbEntity
  8
print
  6
ByLayer
 62
    7
370
   -1
100
AcDbLine
 10
44.79999999999998
 20
-886.9999999999999
 11
44.79999999999998
 21
-889.9999999999999
  0
LINE
  5
1C4
100
AcDbEntity
  8
print
  6
ByLayer
 62
    7
370
   -1
100
AcDbLine
 10
44.79999999999998
 20
-889.9999999999999
 11
-3.999985773861575
 21
-890
  0
LINE
  5
1C5
100
AcDbEntity
  8
print
  6
ByLayer
 62
    7
370
   -1
100
AcDbLine
 10
119.2
 20
-850
 11
190
 21
-850.0000000000001
  0
LINE
  5
1C6
100
AcDbEntity
  8
print
  6
ByLayer
 62
    7
370
   -1
100
AcDbLine
 10
190
 20
-890
 11
190
 21
-880
  0
LINE
  5
1C7
100
AcDbEntity
  8
print
  6
ByLayer
 62
    7
370
   -1
100
AcDbLine
 10
190
 20
-880
 11
187
 21
-880
  0
LINE
  5
1C8
100
AcDbEntity
  8
print
  6
ByLayer
 62
    7
370
   -1
100
AcDbLine
 10
187
 20
-880
 11
187
 21
-860
  0
LINE
  5
1C9
100
AcDbEntity
  8
print
  6
ByLayer
 62
    7
370
   -1
100
AcDbLine
 10
187
 20
-860
 11
190
 21
-860
  0
LINE
  5
1CA
100
AcDbEntity
  8
print
  6
ByLayer
 62
    7
370
   -1
100
AcDbLine
 10
103
 20
-860
 11
147
 21
-860
  0
LINE
  5
1CB
100
AcDbEntity
  8
print
  6
ByLayer
 62
    7
370
   -1
100
AcDbLine
 10
147
 20
-860
 11
147
 21
-880
  0
LINE
  5
1CC
100
AcDbEntity
  8
print
  6
ByLayer
 62
    7
370
   -1
100
AcDbLine
 10
147
 20
-880
 11
103
 21
-880
  0
LINE
  5
1CD
100
AcDbEntity
  8
print
  6
ByLayer
 62
    7
370
   -1
100
AcDbLine
 10
103
 20
-880
 11
103
 21
-860
  0
LINE
  5
1CE
100
AcDbEntity
  8
print
  6
ByLayer
 62
    7
370
   -1
100
AcDbLine
 10
119.2
 20
-889.9999999999998
 11
157
 21
-890
  0
LINE
  5
1CF
100
AcDbEntity
  8
print
  6
ByLayer
 62
    7
370
   -1
100
AcDbLine
 10
157
 20
-890
 11
157
 21
-886.9999999999999
  0
LINE
  5
1D0
100
AcDbEntity
  8
print
  6
ByLayer
 62
    7
370
   -1
100
AcDbLine
 10
157
 20
-886.9999999999999
 11
177
 21
-886.9999999999999
  0
LINE
  5
1D1
100
AcDbEntity
  8
print
  6
ByLayer
 62
    7
370
   -1
100
AcDbLine
 10
177
 20
-886.9999999999999
 11
177
 21
-890
  0
LINE
  5
1D2
100
AcDbEntity
  8
print
  6
ByLayer
 62
    7
370
   -1
100
AcDbLine
 10
177
 20
-890
 11
190
 21
-890
  0
LINE
  5
1D3
100
AcDbEntity
  8
print
  6
ByLayer
 62
    7
370
   -1
100
AcDbLine
 10
190
 20
-890
 11
190
 21
-880
  0
LINE
  5
1D4
100
AcDbEntity
  8
print
  6
ByLayer
 62
    7
370
   -1
100
AcDbLine
 10
190
 20
-844
 11
190
 21
-850.0000000000001
  0
LINE
  5
1D5
100
AcDbEntity
  8
print
  6
ByLayer
 62
    7
370
   -1
100
AcDbLine
 10
190
 20
-850.0000000000001
 11
119.2
 21
-850
  0
LINE
  5
1D6
100
AcDbEntity
  8
print
  6
ByLayer
 62
    7
370
   -1
100
AcDbLine
 10
190
 20
-844
 11
190
 21
-844
  0
ARC
  5
1D7
100
AcDbEntity
  8
print
  6
ByLayer
 62
    7
370
   -1
100
AcDbCircle
 10
190
 20
-850
 40
6
100
AcDbArc
 50
0
 51
90
  0
LINE
  5
1D8
100
AcDbEntity
  8
print
  6
ByLayer
 62
    7
370
   -1
100
AcDbLine
 10
196
 20
-854
 11
196
 21
-850
  0
LINE
  5
1D9
100
AcDbEntity
  8
print
  6
ByLayer
 62
    7
370
   -1
100
AcDbLine
 10
187
 20
-860
 11
190.0000000000001
 21
-860
  0
ARC
  5
1DA
100
AcDbEntity
  8
print
  6
ByLayer
 62
    7
370
   -1
100
AcDbCircle
 10
190.0000000000001
 20
-854
 40
6
100
AcDbArc
 50
270
 51
0
  0
LINE
  5
1DB
100
AcDbEntity
  8
print
  6
ByLayer
 62
    7
370
   -1
100
AcDbLine
 10
-10.00000000000001
 20
-860
 11
-10.00000000000001
 21
-880
  0
LINE
  5
1DC
100
AcDbEntity
  8
print
  6
ByLayer
 62
    7
370
   -1
100
AcDbLine
 10
-10
 20
-884.0000142261388
 11
-10.00000000000001
 21
-883
  0
LINE
  5
1DD
100
AcDbEntity
  8
print
  6
ByLayer
 62
    7
370
   -1
100
AcDbLine
 10
-10.00000000000001
 20
-883
 11
4.999999999999979
 21
-883
  0
LINE
  5
1DE
100
AcDbEntity
  8
print
  6
ByLayer
 62
    7
370
   -1
100
AcDbLine
 10
4.999999999999979
 20
-883
 11
4.999999999999986
 21
-880
  0
LINE
  5
1DF
100
AcDbEntity
  8
print
  6
ByLayer
 62
    7
370
   -1
100
AcDbLine
 10
4.999999999999986
 20
-880
 11
-10.00000000000001
 21
-880
  0
LINE
  5
1E0
100
AcDbEntity
  8
print
  6
ByLayer
 62
    7
370
   -1
100
AcDbLine
 10
-10.00000000000001
 20
-880
 11
-10.00000000000001
 21
-860
  0
LINE
  5
1E1
100
AcDbEntity
  8
print
  6
ByLayer
 62
    7
370
   -1
100
AcDbLine
 10
-10.00000000000001
 20
-860
 11
4.999999999999979
 21
-860
  0
LINE
  5
1E2
100
AcDbEntity
  8
print
  6
ByLayer
 62
    7
370
   -1
100
AcDbLine
 10
4.999999999999979
 20
-860
 11
4.999999999999972
 21
-857
  0
LINE
  5
1E3
100
AcDbEntity
  8
print
  6
ByLayer
 62
    7
370
   -1
100
AcDbLine
 10
4.999999999999972
 20
-857
 11
-10.00000000000001
 21
-857
  0
LINE
  5
1E4
100
AcDbEntity
  8
print
  6
ByLayer
 62
    7
370
   -1
100
AcDbLine
 10
-10.00000000000001
 20
-857
 11
-10
 21
-855.999990235629
  0
CIRCLE
  5
1E5
100
AcDbEntity
  8
print
  6
ByLayer
 62
    7
370
   -1
100
AcDbCircle
 10
81.99999999999999
 20
-870
 40
10
  0
LINE
  5
1E6
100
AcDbEntity
  8
print
  6
ByLayer
 62
    7
370
   -1
100
AcDbLine
 10
81.99999999999999
 20
-858
 11
81.99999999999999
 21
-882
  0
LINE
  5
1E7
100
AcDbEntity
  8
print
  6
ByLayer
 62
    7
370
   -1
100
AcDbLine
 10
70.00000000000489
 20
-870
 11
93.99999999999523
 21
-870
  0
CIRCLE
  5
1E8
100
AcDbEntity
  8
print
  6
ByLayer
 62
    7
370
   -1
100
AcDbCircle
 10
167
 20
-870
 40
10
  0
LINE
  5
1E9
100
AcDbEntity
  8
print
  6
ByLayer
 62
    7
370
   -1
100
AcDbLine
 10
167
 20
-858
 11
167
 21
-882
  0
LINE
  5
1EA
100
AcDbEntity
  8
print
  6
ByLayer
 62
    7
370
   -1
100
AcDbLine
 10
155.0000000000048
 20
-870
 11
178.9999999999952
 21
-870
  0
CIRCLE
  5
1EB
100
AcDbEntity
  8
print
  6
ByLayer
 62
    7
370
   -1
100
AcDbCircle
 10
33.69999999999992
 20
-870
 40
10
  0
LINE
  5
1EC
100
AcDbEntity
  8
print
  6
ByLayer
 62
    7
370
   -1
100
AcDbLine
 10
33.69999999999992
 20
-858
 11
33.69999999999992
 21
-882
  0
LINE
  5
1ED
100
AcDbEntity
  8
print
  6
ByLayer
 62
    7
370
   -1
100
AcDbLine
 10
21.70000000000482
 20
-870
 11
45.69999999999516
 21
-870
  0
LINE
  5
1EE
100
AcDbEntity
  8
print
  6
ByLayer
 62
    7
370
   -1
100
AcDbLine
 10
-59
 20
-1062
 11
-93
 21
-1062
  0
LINE
  5
1EF
100
AcDbEntity
  8
print
  6
ByLayer
 62
    7
370
   -1
100
AcDbLine
 10
-59
 20
-1096
 11
-93
 21
-1096
  0
LINE
  5
1F0
100
AcDbEntity
  8
print
  6
ByLayer
 62
    7
370
   -1
100
AcDbLine
 10
-56
 20
-1069
 11
-56
 21
-1089
  0
LINE
  5
1F1
100
AcDbEntity
  8
print
  6
ByLayer
 62
    7
370
   -1
100
AcDbLine
 10
-96
 20
-1089
 11
-96
 21
-1069
  0
LINE
  5
1F2
100
AcDbEntity
  8
print
  6
ByLayer
 62
    7
370
   -1
100
AcDbLine
 10
-59
 20
-1089
 11
-59
 21
-1096
  0
LINE
  5
1F3
100
AcDbEntity
  8
print
  6
ByLayer
 62
    7
370
   -1
100
AcDbLine
 10
-93
 20
-1096
 11
-93
 21
-1089
  0
LINE
  5
1F4
100
AcDbEntity
  8
print
  6
ByLayer
 62
    7
370
   -1
100
AcDbLine
 10
-59
 20
-1062
 11
-59
 21
-1069
  0
LINE
  5
1F5
100
AcDbEntity
  8
print
  6
ByLayer
 62
    7
370
   -1
100
AcDbLine
 10
-93
 20
-1069
 11
-93
 21
-1062
  0
LINE
  5
1F6
100
AcDbEntity
  8
print
  6
ByLayer
 62
    7
370
   -1
100
AcDbLine
 10
-56
 20
-1089
 11
-59
 21
-1089
  0
LINE
  5
1F7
100
AcDbEntity
  8
print
  6
ByLayer
 62
    7
370
   -1
100
AcDbLine
 10
-59
 20
-1069
 11
-56
 21
-1069
  0
LINE
  5
1F8
100
AcDbEntity
  8
print
  6
ByLayer
 62
    7
370
   -1
100
AcDbLine
 10
-93
 20
-1089
 11
-96
 21
-1089
  0
LINE
  5
1F9
100
AcDbEntity
  8
print
  6
ByLayer
 62
    7
370
   -1
100
AcDbLine
 10
-96
 20
-1069
 11
-93
 21
-1069
  0
CIRCLE
  5
1FA
100
AcDbEntity
  8
print
  6
ByLayer
 62
    7
370
   -1
100
AcDbCircle
 10
-76
 20
-1079
 40
10
  0
LINE
  5
1FB
100
AcDbEntity
  8
print
  6
ByLayer
 62
    7
370
   -1
100
AcDbLine
 10
-76
 20
-1091
 11
-76
 21
-1067
  0
LINE
  5
1FC
100
AcDbEntity
  8
print
  6
ByLayer
 62
    7
370
   -1
100
AcDbLine
 10
-64.000000000005
 20
-1079
 11
-87.99999999999523
 21
-1079
  0
LINE
  5
1FD
100
AcDbEntity
  8
print
  6
ByLayer
 62
    7
370
   -1
100
AcDbLine
 10
-48
 20
-1093
 11
-41
 21
-1093
  0
LINE
  5
1FE
100
AcDbEntity
  8
print
  6
ByLayer
 62
    7
370
   -1
100
AcDbLine
 10
-41
 20
-1093
 11
-41
 21
-1096
  0
LINE
  5
1FF
100
AcDbEntity
  8
print
  6
ByLayer
 62
    7
370
   -1
100
AcDbLine
 10
-41
 20
-1096
 11
-21
 21
-1096
  0
LINE
  5
200
100
AcDbEntity
  8
print
  6
ByLayer
 62
    7
370
   -1
100
AcDbLine
 10
-21
 20
-1096
 11
-21
 21
-1093
  0
LINE
  5
201
100
AcDbEntity
  8
print
  6
ByLayer
 62
    7
370
   -1
100
AcDbLine
 10
-21
 20
-1093
 11
-14
 21
-1093
  0
LINE
  5
202
100
AcDbEntity
  8
print
  6
ByLayer
 62
    7
370
   -1
100
AcDbLine
 10
-14
 20
-1093
 11
-14
 21
-1072
  0
LINE
  5
203
100
AcDbEntity
  8
print
  6
ByLayer
 62
    7
370
   -1
100
AcDbLine
 10
-14
 20
-1072
 11
-21
 21
-1072
  0
LINE
  5
204
100
AcDbEntity
  8
print
  6
ByLayer
 62
    7
370
   -1
100
AcDbLine
 10
-21
 20
-1072
 11
-21
 21
-1069
  0
LINE
  5
205
100
AcDbEntity
  8
print
  6
ByLayer
 62
    7
370
   -1
100
AcDbLine
 10
-21
 20
-1069
 11
-41
 21
-1069
  0
LINE
  5
206
100
AcDbEntity
  8
print
  6
ByLayer
 62
    7
370
   -1
100
AcDbLine
 10
-41
 20
-1069
 11
-41
 21
-1072
  0
LINE
  5
207
100
AcDbEntity
  8
print
  6
ByLayer
 62
    7
370
   -1
100
AcDbLine
 10
-41
 20
-1072
 11
-48
 21
-1072
  0
LINE
  5
208
100
AcDbEntity
  8
print
  6
ByLayer
 62
    7
370
   -1
100
AcDbLine
 10
-48
 20
-1072
 11
-48
 21
-1093
  0
CIRCLE
  5
209
100
AcDbEntity
  8
print
  6
ByLayer
 62
    7
370
   -1
100
AcDbCircle
 10
-31
 20
-1082.5
 40
5
  0
LINE
  5
20A
100
AcDbEntity
  8
print
  6
ByLayer
 62
    7
370
   -1
100
AcDbLine
 10
-31
 20
-1089.49999999999
 11
-31
 21
-1075.5
  0
LINE
  5
20B
100
AcDbEntity
  8
print
  6
ByLayer
 62
    7
370
   -1
100
AcDbLine
 10
-38
 20
-1082.5
 11
-24
 21
-1082.5
  0
LINE
  5
20C
100
AcDbEntity
  8
print
  6
ByLayer
 62
    7
370
   -1
100
AcDbLine
 10
183
 20
-805
 11
179
 21
-805
  0
LINE
  5
20D
100
AcDbEntity
  8
print
  6
ByLayer
 62
    7
370
   -1
100
AcDbLine
 10
173
 20
-815
 11
173
 21
-808
  0
LINE
  5
20E
100
AcDbEntity
  8
print
  6
ByLayer
 62
    7
370
   -1
100
AcDbLine
 10
173
 20
-840
 11
173
 21
-834
  0
LINE
  5
20F
100
AcDbEntity
  8
print
  6
ByLayer
 62
    7
370
   -1
100
AcDbLine
 10
183
 20
-840
 11
183
 21
-837
  0
LINE
  5
210
100
AcDbEntity
  8
print
  6
ByLayer
 62
    7
370
   -1
100
AcDbLine
 10
183
 20
-808
 11
183
 21
-811
  0
LINE
  5
211
100
AcDbEntity
  8
print
  6
ByLayer
 62
    7
370
   -1
100
AcDbLine
 10
183
 20
-837
 11
183
 21
-836
  0
LINE
  5
212
100
AcDbEntity
  8
print
  6
ByLayer
 62
    7
370
   -1
100
AcDbLine
 10
186
 20
-836
 11
186
 21
-837
  0
LINE
  5
213
100
AcDbEntity
  8
print
  6
ByLayer
 62
    7
370
   -1
100
AcDbLine
 10
186
 20
-812
 11
186
 21
-811
  0
LINE
  5
214
100
AcDbEntity
  8
print
  6
ByLayer
 62
    7
370
   -1
100
AcDbLine
 10
183
 20
-840
 11
183
 21
-843
  0
LINE
  5
215
100
AcDbEntity
  8
print
  6
ByLayer
 62
    7
370
   -1
100
AcDbLine
 10
183
 20
-843
 11
179
 21
-843
  0
LINE
  5
216
100
AcDbEntity
  8
print
  6
ByLayer
 62
    7
370
   -1
100
AcDbLine
 10
179
 20
-843
 11
179
 21
-840
  0
LINE
  5
217
100
AcDbEntity
  8
print
  6
ByLayer
 62
    7
370
   -1
100
AcDbLine
 10
183
 20
-812
 11
183
 21
-805
  0
LINE
  5
218
100
AcDbEntity
  8
print
  6
ByLayer
 62
    7
370
   -1
100
AcDbLine
 10
179
 20
-805
 11
179
 21
-808
  0
LINE
  5
219
100
AcDbEntity
  8
print
  6
ByLayer
 62
    7
370
   -1
100
AcDbLine
 10
173
 20
-808
 11
179
 21
-808
  0
LINE
  5
21A
100
AcDbEntity
  8
print
  6
ByLayer
 62
    7
370
   -1
100
AcDbLine
 10
173
 20
-840
 11
179
 21
-840
  0
LINE
  5
21B
100
AcDbEntity
  8
print
  6
ByLayer
 62
    7
370
   -1
100
AcDbLine
 10
183
 20
-840
 11
183
 21
-836
  0
LINE
  5
21C
100
AcDbEntity
  8
print
  6
ByLayer
 62
    7
370
   -1
100
AcDbLine
 10
190
 20
-840
 11
186
 21
-840
  0
LINE
  5
21D
100
AcDbEntity
  8
print
  6
ByLayer
 62
    7
370
   -1
100
AcDbLine
 10
190
 20
-808
 11
186
 21
-808
  0
LINE
  5
21E
100
AcDbEntity
  8
print
  6
ByLayer
 62
    7
370
   -1
100
AcDbLine
 10
186
 20
-840
 11
186
 21
-836.5
  0
LINE
  5
21F
100
AcDbEntity
  8
print
  6
ByLayer
 62
    7
370
   -1
100
AcDbLine
 10
186
 20
-811.5
 11
186
 21
-808
  0
LINE
  5
220
100
AcDbEntity
  8
print
  6
ByLayer
 62
    7
370
   -1
100
AcDbLine
 10
190
 20
-840
 11
194
 21
-840
  0
LINE
  5
221
100
AcDbEntity
  8
print
  6
ByLayer
 62
    7
370
   -1
100
AcDbLine
 10
190
 20
-808
 11
194
 21
-808
  0
LINE
  5
222
100
AcDbEntity
  8
print
  6
ByLayer
 62
    7
370
   -1
100
AcDbLine
 10
183
 20
-836
 11
183
 21
-833
  0
LINE
  5
223
100
AcDbEntity
  8
print
  6
ByLayer
 62
    7
370
   -1
100
AcDbLine
 10
183
 20
-833
 11
186
 21
-833
  0
LINE
  5
224
100
AcDbEntity
  8
print
  6
ByLayer
 62
    7
370
   -1
100
AcDbLine
 10
186
 20
-833
 11
186
 21
-836
  0
LINE
  5
225
100
AcDbEntity
  8
print
  6
ByLayer
 62
    7
370
   -1
100
AcDbLine
 10
183
 20
-812
 11
183
 21
-815
  0
LINE
  5
226
100
AcDbEntity
  8
print
  6
ByLayer
 62
    7
370
   -1
100
AcDbLine
 10
183
 20
-815
 11
186
 21
-815
  0
LINE
  5
227
100
AcDbEntity
  8
print
  6
ByLayer
 62
    7
370
   -1
100
AcDbLine
 10
186
 20
-815
 11
186
 21
-812
  0
LINE
  5
228
100
AcDbEntity
  8
print
  6
ByLayer
 62
    7
370
   -1
100
AcDbLine
 10
173
 20
-834
 11
173
 21
-815
  0
LINE
  5
229
100
AcDbEntity
  8
print
  6
ByLayer
 62
    7
370
   -1
100
AcDbLine
 10
196
 20
-840
 11
196
 21
-808
  0
LINE
  5
22A
100
AcDbEntity
  8
print
  6
ByLayer
 62
    7
370
   -1
100
AcDbLine
 10
194
 20
-840
 11
196
 21
-840
  0
LINE
  5
22B
100
AcDbEntity
  8
print
  6
ByLayer
 62
    7
370
   -1
100
AcDbLine
 10
196
 20
-808
 11
194
 21
-808
  0
LINE
  5
22C
100
AcDbEntity
  8
print
  6
ByLayer
 62
    7
370
   -1
100
AcDbLine
 10
131
 20
-846
 11
125
 21
-846
  0
LINE
  5
22D
100
AcDbEntity
  8
print
  6
ByLayer
 62
    7
370
   -1
100
AcDbLine
 10
131
 20
-827
 11
157
 21
-827
  0
LINE
  5
22E
100
AcDbEntity
  8
print
  6
ByLayer
 62
    7
370
   -1
100
AcDbLine
 10
144
 20
-840
 11
144
 21
-814
  0
LINE
  5
22F
100
AcDbEntity
  8
print
  6
ByLayer
 62
    7
370
   -1
100
AcDbLine
 10
132
 20
-843
 11
132
 21
-846
  0
LINE
  5
230
100
AcDbEntity
  8
print
  6
ByLayer
 62
    7
370
   -1
100
AcDbLine
 10
132
 20
-846
 11
125
 21
-846
  0
LINE
  5
231
100
AcDbEntity
  8
print
  6
ByLayer
 62
    7
370
   -1
100
AcDbLine
 10
132
 20
-843
 11
144
 21
-843
  0
LINE
  5
232
100
AcDbEntity
  8
print
  6
ByLayer
 62
    7
370
   -1
100
AcDbLine
 10
163
 20
-846
 11
157
 21
-846
  0
LINE
  5
233
100
AcDbEntity
  8
print
  6
ByLayer
 62
    7
370
   -1
100
AcDbLine
 10
144
 20
-840
 11
144
 21
-814
  0
LINE
  5
234
100
AcDbEntity
  8
print
  6
ByLayer
 62
    7
370
   -1
100
AcDbLine
 10
157
 20
-827
 11
131
 21
-827
  0
LINE
  5
235
100
AcDbEntity
  8
print
  6
ByLayer
 62
    7
370
   -1
100
AcDbLine
 10
156
 20
-846
 11
156
 21
-843
  0
LINE
  5
236
100
AcDbEntity
  8
print
  6
ByLayer
 62
    7
370
   -1
100
AcDbLine
 10
163
 20
-846
 11
156
 21
-846
  0
LINE
  5
237
100
AcDbEntity
  8
print
  6
ByLayer
 62
    7
370
   -1
100
AcDbLine
 10
156
 20
-846
 11
156
 21
-843
  0
LINE
  5
238
100
AcDbEntity
  8
print
  6
ByLayer
 62
    7
370
   -1
100
AcDbLine
 10
156
 20
-843
 11
144
 21
-843
  0
LINE
  5
239
100
AcDbEntity
  8
print
  6
ByLayer
 62
    7
370
   -1
100
AcDbLine
 10
157
 20
-808
 11
163
 21
-808
  0
LINE
  5
23A
100
AcDbEntity
  8
print
  6
ByLayer
 62
    7
370
   -1
100
AcDbLine
 10
157
 20
-827
 11
131
 21
-827
  0
LINE
  5
23B
100
AcDbEntity
  8
print
  6
ByLayer
 62
    7
370
   -1
100
AcDbLine
 10
144
 20
-814
 11
144
 21
-840
  0
LINE
  5
23C
100
AcDbEntity
  8
print
  6
ByLayer
 62
    7
370
   -1
100
AcDbLine
 10
156
 20
-811
 11
156
 21
-808
  0
LINE
  5
23D
100
AcDbEntity
  8
print
  6
ByLayer
 62
    7
370
   -1
100
AcDbLine
 10
156
 20
-808
 11
163
 21
-808
  0
LINE
  5
23E
100
AcDbEntity
  8
print
  6
ByLayer
 62
    7
370
   -1
100
AcDbLine
 10
156
 20
-811
 11
144
 21
-811
  0
LINE
  5
23F
100
AcDbEntity
  8
print
  6
ByLayer
 62
    7
370
   -1
100
AcDbLine
 10
125
 20
-808
 11
131
 21
-808
  0
LINE
  5
240
100
AcDbEntity
  8
print
  6
ByLayer
 62
    7
370
   -1
100
AcDbLine
 10
144
 20
-814
 11
144
 21
-840
  0
LINE
  5
241
100
AcDbEntity
  8
print
  6
ByLayer
 62
    7
370
   -1
100
AcDbLine
 10
131
 20
-827
 11
157
 21
-827
  0
LINE
  5
242
100
AcDbEntity
  8
print
  6
ByLayer
 62
    7
370
   -1
100
AcDbLine
 10
132
 20
-808
 11
132
 21
-811
  0
LINE
  5
243
100
AcDbEntity
  8
print
  6
ByLayer
 62
    7
370
   -1
100
AcDbLine
 10
125
 20
-808
 11
132
 21
-808
  0
LINE
  5
244
100
AcDbEntity
  8
print
  6
ByLayer
 62
    7
370
   -1
100
AcDbLine
 10
132
 20
-808
 11
132
 21
-811
  0
LINE
  5
245
100
AcDbEntity
  8
print
  6
ByLayer
 62
    7
370
   -1
100
AcDbLine
 10
132
 20
-811
 11
144
 21
-811
  0
LINE
  5
246
100
AcDbEntity
  8
print
  6
ByLayer
 62
    7
370
   -1
100
AcDbLine
 10
106
 20
-846
 11
106
 21
-839
  0
LINE
  5
247
100
AcDbEntity
  8
print
  6
ByLayer
 62
    7
370
   -1
100
AcDbLine
 10
106
 20
-815
 11
106
 21
-808
  0
LINE
  5
248
100
AcDbEntity
  8
print
  6
ByLayer
 62
    7
370
   -1
100
AcDbLine
 10
106
 20
-846
 11
125
 21
-846
  0
LINE
  5
249
100
AcDbEntity
  8
print
  6
ByLayer
 62
    7
370
   -1
100
AcDbLine
 10
106
 20
-808
 11
125
 21
-808
  0
LINE
  5
24A
100
AcDbEntity
  8
print
  6
ByLayer
 62
    7
370
   -1
100
AcDbLine
 10
106
 20
-839
 11
125
 21
-836
  0
LINE
  5
24B
100
AcDbEntity
  8
print
  6
ByLayer
 62
    7
370
   -1
100
AcDbLine
 10
125
 20
-836
 11
128
 21
-836
  0
LINE
  5
24C
100
AcDbEntity
  8
print
  6
ByLayer
 62
    7
370
   -1
100
AcDbLine
 10
128
 20
-836
 11
128
 21
-818
  0
LINE
  5
24D
100
AcDbEntity
  8
print
  6
ByLayer
 62
    7
370
   -1
100
AcDbLine
 10
128
 20
-818
 11
124
 21
-818
  0
LINE
  5
24E
100
AcDbEntity
  8
print
  6
ByLayer
 62
    7
370
   -1
100
AcDbLine
 10
124
 20
-818
 11
128
 21
-818
  0
LINE
  5
24F
100
AcDbEntity
  8
print
  6
ByLayer
 62
    7
370
   -1
100
AcDbLine
 10
128
 20
-818
 11
125
 21
-818
  0
LINE
  5
250
100
AcDbEntity
  8
print
  6
ByLayer
 62
    7
370
   -1
100
AcDbLine
 10
125
 20
-818
 11
106
 21
-815
  0
LINE
  5
251
100
AcDbEntity
  8
print
  6
ByLayer
 62
    7
370
   -1
100
AcDbLine
 10
169
 20
-846
 11
169
 21
-843
  0
LINE
  5
252
100
AcDbEntity
  8
print
  6
ByLayer
 62
    7
370
   -1
100
AcDbLine
 10
169
 20
-811
 11
169
 21
-808
  0
LINE
  5
253
100
AcDbEntity
  8
print
  6
ByLayer
 62
    7
370
   -1
100
AcDbLine
 10
163
 20
-846
 11
169
 21
-846
  0
LINE
  5
254
100
AcDbEntity
  8
print
  6
ByLayer
 62
    7
370
   -1
100
AcDbLine
 10
163
 20
-808
 11
169
 21
-808
  0
LINE
  5
255
100
AcDbEntity
  8
print
  6
ByLayer
 62
    7
370
   -1
100
AcDbLine
 10
169
 20
-846
 11
169
 21
-839
  0
LINE
  5
256
100
AcDbEntity
  8
print
  6
ByLayer
 62
    7
370
   -1
100
AcDbLine
 10
169
 20
-839
 11
163
 21
-836
  0
LINE
  5
257
100
AcDbEntity
  8
print
  6
ByLayer
 62
    7
370
   -1
100
AcDbLine
 10
163
 20
-836
 11
160
 21
-836
  0
LINE
  5
258
100
AcDbEntity
  8
print
  6
ByLayer
 62
    7
370
   -1
100
AcDbLine
 10
160
 20
-836
 11
160
 21
-818
  0
LINE
  5
259
100
AcDbEntity
  8
print
  6
ByLayer
 62
    7
370
   -1
100
AcDbLine
 10
160
 20
-818
 11
163
 21
-818
  0
LINE
  5
25A
100
AcDbEntity
  8
print
  6
ByLayer
 62
    7
370
   -1
100
AcDbLine
 10
163
 20
-818
 11
169
 21
-815
  0
LINE
  5
25B
100
AcDbEntity
  8
print
  6
ByLayer
 62
    7
370
   -1
100
AcDbLine
 10
169
 20
-815
 11
169
 21
-808
  0
LINE
  5
25C
100
AcDbEntity
  8
print
  6
ByLayer
 62
    7
370
   -1
100
AcDbLine
 10
93.99999999999989
 20
-834.9999999999659
 11
96.99999999999989
 21
-834.9999999999659
  0
LINE
  5
25D
100
AcDbEntity
  8
print
  6
ByLayer
 62
    7
370
   -1
100
AcDbLine
 10
90.99999999999989
 20
-844.9999999999659
 11
85.99999999999989
 21
-834.9999999999659
  0
LINE
  5
25E
100
AcDbEntity
  8
print
  6
ByLayer
 62
    7
370
   -1
100
AcDbLine
 10
99.99999999999989
 20
-844.9999999999659
 11
90.99999999999989
 21
-844.9999999999659
  0
LINE
  5
25F
100
AcDbEntity
  8
print
  6
ByLayer
 62
    7
370
   -1
100
AcDbLine
 10
61.99999999999989
 20
-844.9999999999659
 11
61.99999999999989
 21
-838.9999999999659
  0
LINE
  5
260
100
AcDbEntity
  8
print
  6
ByLayer
 62
    7
370
   -1
100
AcDbLine
 10
64.99999999999989
 20
-834.9999999999659
 11
67.99999999999989
 21
-834.9999999999659
  0
LINE
  5
261
100
AcDbEntity
  8
print
  6
ByLayer
 62
    7
370
   -1
100
AcDbLine
 10
67.99999999999989
 20
-831.9999999999659
 11
64.99999999999989
 21
-831.9999999999659
  0
LINE
  5
262
100
AcDbEntity
  8
print
  6
ByLayer
 62
    7
370
   -1
100
AcDbLine
 10
85.99999999999989
 20
-834.9999999999659
 11
75.99999999999989
 21
-834.9999999999659
  0
LINE
  5
263
100
AcDbEntity
  8
print
  6
ByLayer
 62
    7
370
   -1
100
AcDbLine
 10
75.99999999999989
 20
-834.9999999999659
 11
70.99999999999989
 21
-844.9999999999659
  0
LINE
  5
264
100
AcDbEntity
  8
print
  6
ByLayer
 62
    7
370
   -1
100
AcDbLine
 10
70.99999999999989
 20
-844.9999999999659
 11
61.99999999999989
 21
-844.9999999999659
  0
LINE
  5
265
100
AcDbEntity
  8
print
  6
ByLayer
 62
    7
370
   -1
100
AcDbLine
 10
119
 20
-831.9999999999659
 11
93.99999999999989
 21
-831.9999999999659
  0
LINE
  5
266
100
AcDbEntity
  8
print
  6
ByLayer
 62
    7
370
   -1
100
AcDbLine
 10
100
 20
-845
 11
100
 21
-839
  0
LINE
  5
267
100
AcDbEntity
  8
print
  6
ByLayer
 62
    7
370
   -1
100
AcDbLine
 10
97
 20
-835
 11
97
 21
-839
  0
LINE
  5
268
100
AcDbEntity
  8
print
  6
ByLayer
 62
    7
370
   -1
100
AcDbLine
 10
97
 20
-839
 11
100
 21
-839
  0
LINE
  5
269
100
AcDbEntity
  8
print
  6
ByLayer
 62
    7
370
   -1
100
AcDbLine
 10
119
 20
-832
 11
119
 21
-823.9999999999659
  0
LINE
  5
26A
100
AcDbEntity
  8
print
  6
ByLayer
 62
    7
370
   -1
100
AcDbLine
 10
65
 20
-835
 11
65
 21
-839
  0
LINE
  5
26B
100
AcDbEntity
  8
print
  6
ByLayer
 62
    7
370
   -1
100
AcDbLine
 10
65
 20
-839
 11
62
 21
-839
  0
LINE
  5
26C
100
AcDbEntity
  8
print
  6
ByLayer
 62
    7
370
   -1
100
AcDbLine
 10
55.99999999999989
 20
-823.9999999999659
 11
55.99999999999989
 21
-827.9999999999659
  0
LINE
  5
26D
100
AcDbEntity
  8
print
  6
ByLayer
 62
    7
370
   -1
100
AcDbLine
 10
55.99999999999989
 20
-831.9999999999659
 11
55.99999999999989
 21
-827.9999999999659
  0
LINE
  5
26E
100
AcDbEntity
  8
print
  6
ByLayer
 62
    7
370
   -1
100
AcDbLine
 10
64.99999999999989
 20
-831.9999999999659
 11
55.99999999999989
 21
-831.9999999999659
  0
LINE
  5
26F
100
AcDbEntity
  8
print
  6
ByLayer
 62
    7
370
   -1
100
AcDbLine
 10
55.99999999999989
 20
-831.9999999999659
 11
55.99999999999989
 21
-823.9999999999659
  0
LINE
  5
270
100
AcDbEntity
  8
print
  6
ByLayer
 62
    7
370
   -1
100
AcDbLine
 10
93.99999999999989
 20
-831.9999999999658
 11
93
 21
-832
  0
LINE
  5
271
100
AcDbEntity
  8
print
  6
ByLayer
 62
    7
370
   -1
100
AcDbLine
 10
93
 20
-832
 11
93
 21
-835
  0
LINE
  5
272
100
AcDbEntity
  8
print
  6
ByLayer
 62
    7
370
   -1
100
AcDbLine
 10
93
 20
-835
 11
93.99999999999989
 21
-834.9999999999659
  0
LINE
  5
273
100
AcDbEntity
  8
print
  6
ByLayer
 62
    7
370
   -1
100
AcDbLine
 10
68
 20
-835
 11
69
 21
-835
  0
LINE
  5
274
100
AcDbEntity
  8
print
  6
ByLayer
 62
    7
370
   -1
100
AcDbLine
 10
69
 20
-835
 11
69
 21
-832
  0
LINE
  5
275
100
AcDbEntity
  8
print
  6
ByLayer
 62
    7
370
   -1
100
AcDbLine
 10
69
 20
-832
 11
68
 21
-832
  0
LINE
  5
276
100
AcDbEntity
  8
print
  6
ByLayer
 62
    7
370
   -1
100
AcDbLine
 10
119
 20
-821.9999999999659
 11
61.99999999999989
 21
-821.9999999999659
  0
LINE
  5
277
100
AcDbEntity
  8
print
  6
ByLayer
 62
    7
370
   -1
100
AcDbLine
 10
55.99999999999989
 20
-821.9999999999659
 11
61.99999999999989
 21
-821.9999999999659
  0
LINE
  5
278
100
AcDbEntity
  8
print
  6
ByLayer
 62
    7
370
   -1
100
AcDbLine
 10
119
 20
-823.9999999999659
 11
119
 21
-821.9999999999659
  0
LINE
  5
279
100
AcDbEntity
  8
print
  6
ByLayer
 62
    7
370
   -1
100
AcDbLine
 10
55.99999999999989
 20
-821.9999999999659
 11
55.99999999999989
 21
-823.9999999999659
  0
LINE
  5
27A
100
AcDbEntity
  8
print
  6
ByLayer
 62
    7
370
   -1
100
AcDbLine
 10
84.0000000000216
 20
-827.0000000000102
 11
78.0000000000216
 21
-827.0000000000102
  0
LINE
  5
27B
100
AcDbEntity
  8
print
  6
ByLayer
 62
    7
370
   -1
100
AcDbLine
 10
81.0000000000216
 20
-829.9999999999898
 11
81.0000000000216
 21
-824.0000000000102
  0
CIRCLE
  5
27C
100
AcDbEntity
  8
print
  6
ByLayer
 62
    7
370
   -1
100
AcDbCircle
 10
81.00000000002149
 20
-827
 40
1.5
  0
LINE
  5
27D
100
AcDbEntity
  8
print
  6
ByLayer
 62
    7
370
   -1
100
AcDbLine
 10
81.00000000002149
 20
-829.9999999999521
 11
81.00000000002149
 21
-824
  0
LINE
  5
27E
100
AcDbEntity
  8
print
  6
ByLayer
 62
    7
370
   -1
100
AcDbLine
 10
84.00000000002149
 20
-827
 11
77.99999999997851
 21
-827
  0
CIRCLE
  5
27F
100
AcDbEntity
  8
print
  6
ByLayer
 62
    7
370
   -1
100
AcDbCircle
 10
115.0000000000216
 20
-827.0000000000102
 40
1
  0
CIRCLE
  5
280
100
AcDbEntity
  8
print
  6
ByLayer
 62
    7
370
   -1
100
AcDbCircle
 10
115.0000000000216
 20
-826.9999999999761
 40
2
  0
LINE
  5
281
100
AcDbEntity
  8
print
  6
ByLayer
 62
    7
370
   -1
100
AcDbLine
 10
115.0000000000216
 20
-828.9999999999761
 11
115.0000000000216
 21
-825.0000000000102
  0
LINE
  5
282
100
AcDbEntity
  8
print
  6
ByLayer
 62
    7
370
   -1
100
AcDbLine
 10
117.0000000000216
 20
-827.0000000000102
 11
112.9999999999416
 21
-826.9999999999761
  0
LINE
  5
283
100
AcDbEntity
  8
print
  6
ByLayer
 62
    7
370
    0
100
AcDbLine
 10
11
 20
-846
 11
43
 21
-846
  0
LINE
  5
284
100
AcDbEntity
  8
print
  6
ByLayer
 62
    7
370
    0
100
AcDbLine
 10
46.29999999999995
 20
-836
 11
46.29999999999995
 21
-836
  0
LINE
  5
285
100
AcDbEntity
  8
print
  6
ByLayer
 62
    7
370
    0
100
AcDbLine
 10
43
 20
-826
 11
43
 21
-846
  0
LINE
  5
286
100
AcDbEntity
  8
print
  6
ByLayer
 62
    7
370
   -1
100
AcDbLine
 10
9
 20
-826
 11
9
 21
-846
  0
LINE
  5
287
100
AcDbEntity
  8
print
  6
ByLayer
 62
    7
370
   -1
100
AcDbLine
 10
9
 20
-846
 11
9
 21
-826
  0
LINE
  5
288
100
AcDbEntity
  8
print
  6
ByLayer
 62
    7
370
   -1
100
AcDbLine
 10
9
 20
-826
 11
6
 21
-826
  0
LINE
  5
289
100
AcDbEntity
  8
print
  6
ByLayer
 62
    7
370
   -1
100
AcDbLine
 10
46
 20
-826
 11
46
 21
-835.992495306625
  0
LINE
  5
28A
100
AcDbEntity
  8
print
  6
ByLayer
 62
    7
370
    0
100
AcDbLine
 10
46
 20
-826
 11
43
 21
-826
  0
LINE
  5
28B
100
AcDbEntity
  8
print
  6
ByLayer
 62
    7
370
   -1
100
AcDbLine
 10
6
 20
-826
 11
6
 21
-835.9924783461083
  0
LINE
  5
28C
100
AcDbEntity
  8
print
  6
ByLayer
 62
    7
370
   -1
100
AcDbLine
 10
7.700000000000045
 20
-806
 11
5.69998112558801
 21
-806.00000000003
  0
LINE
  5
28D
100
AcDbEntity
  8
print
  6
ByLayer
 62
    7
370
   -1
100
AcDbLine
 10
46
 20
-835.992495306625
 11
46
 21
-835.992495306625
  0
ARC
  5
28E
100
AcDbEntity
  8
print
  6
ByLayer
 62
    7
370
   -1
100
AcDbCircle
 10
46
 20
-829.992495306625
 40
6
100
AcDbArc
 50
270
 51
0
  0
LINE
  5
28F
100
AcDbEntity
  8
print
  6
ByLayer
 62
    7
370
   -1
100
AcDbLine
 10
52
 20
-812
 11
52
 21
-829.992495306625
  0
ARC
  5
290
100
AcDbEntity
  8
print
  6
ByLayer
 62
    7
370
   -1
100
AcDbCircle
 10
46
 20
-812
 40
6
100
AcDbArc
 50
0
 51
90
  0
LINE
  5
291
100
AcDbEntity
  8
print
  6
ByLayer
 62
    7
370
    0
100
AcDbLine
 10
46
 20
-806
 11
6
 21
-806
  0
ARC
  5
292
100
AcDbEntity
  8
print
  6
ByLayer
 62
    7
370
   -1
100
AcDbCircle
 10
6
 20
-812
 40
6
100
AcDbArc
 50
90
 51
180
  0
LINE
  5
293
100
AcDbEntity
  8
print
  6
ByLayer
 62
    7
370
   -1
100
AcDbLine
 10
0
 20
-812
 11
0
 21
-829.992478346109
  0
ARC
  5
294
100
AcDbEntity
  8
print
  6
ByLayer
 62
    7
370
   -1
100
AcDbCircle
 10
6
 20
-829.992478346109
 40
6
100
AcDbArc
 50
180.0000000000011
 51
270.0000000000011
  0
LINE
  5
295
100
AcDbEntity
  8
print
  6
ByLayer
 62
    7
370
   -1
100
AcDbLine
 10
11
 20
-846
 11
9
 21
-846
  0
LINE
  5
296
100
AcDbEntity
  8
print
  6
ByLayer
 62
    7
370
    0
100
AcDbLine
 10
-3.999997152855244
 20
-1032
 11
-3.999997152855244
 21
-1036
  0
ARC
  5
297
100
AcDbEntity
  8
print
  6
ByLayer
 62
    7
370
    0
100
AcDbCircle
 10
2.000002847144756
 20
-1032
 40
6
100
AcDbArc
 50
90
 51
180
  0
ARC
  5
298
100
AcDbEntity
  8
print
  6
ByLayer
 62
    7
370
   -1
100
AcDbCircle
 10
2.000002847145569
 20
-1043.570441667536
 40
6
100
AcDbArc
 50
180.0000000000098
 51
264.2895333632336
  0
LINE
  5
299
100
AcDbEntity
  8
print
  6
ByLayer
 62
    7
370
   -1
100
AcDbLine
 10
16.00000284714475
 20
-1040
 11
-3.999997152855244
 21
-1040
  0
LINE
  5
29A
100
AcDbEntity
  8
print
  6
ByLayer
 62
    7
370
   -1
100
AcDbLine
 10
-3.999997152855244
 20
-1037
 11
16.00000284714475
 21
-1037
  0
LINE
  5
29B
100
AcDbEntity
  8
print
  6
ByLayer
 62
    7
370
   -1
100
AcDbLine
 10
-3.999997152855244
 20
-1036
 11
-3.999997152855244
 21
-1037
  0
LINE
  5
29C
100
AcDbEntity
  8
print
  6
ByLayer
 62
    7
370
   -1
100
AcDbLine
 10
-3.999997152855244
 20
-1037
 11
-3.999997152855244
 21
-1032
  0
LINE
  5
29D
100
AcDbEntity
  8
print
  6
ByLayer
 62
    7
370
   -1
100
AcDbLine
 10
16.00000284714475
 20
-1037
 11
16.00000284714475
 21
-1040
  0
LINE
  5
29E
100
AcDbEntity
  8
print
  6
ByLayer
 62
    7
370
   -1
100
AcDbLine
 10
-3.999997152855244
 20
-1040
 11
-3.999997152854348
 21
-1043.570441667537
  0
LINE
  5
29F
100
AcDbEntity
  8
print
  6
ByLayer
 62
    7
370
   -1
100
AcDbLine
 10
176
 20
-1082
 11
196
 21
-1082
  0
LINE
  5
2A0
100
AcDbEntity
  8
print
  6
ByLayer
 62
    7
370
   -1
100
AcDbLine
 10
196
 20
-1085
 11
176
 21
-1085
  0
LINE
  5
2A1
100
AcDbEntity
  8
print
  6
ByLayer
 62
    7
370
   -1
100
AcDbLine
 10
196
 20
-1086
 11
196
 21
-1085
  0
LINE
  5
2A2
100
AcDbEntity
  8
print
  6
ByLayer
 62
    7
370
   -1
100
AcDbLine
 10
176
 20
-1085
 11
176
 21
-1082
  0
LINE
  5
2A3
100
AcDbEntity
  8
print
  6
ByLayer
 62
    7
370
   -1
100
AcDbLine
 10
196
 20
-1082
 11
195.9999999999991
 21
-1078.429549034557
  0
LINE
  5
2A4
100
AcDbEntity
  8
print
  6
ByLayer
 62
    7
370
    0
100
AcDbLine
 10
11.00000000002226
 20
-1080
 11
11.00000000002226
 21
-1072
  0
LINE
  5
2A5
100
AcDbEntity
  8
print
  6
ByLayer
 62
    7
370
   -1
100
AcDbLine
 10
14.99999999997764
 20
-1076
 11
7.000000000022255
 21
-1076
  0
LINE
  5
2A6
100
AcDbEntity
  8
print
  6
ByLayer
 62
    7
370
    0
100
AcDbLine
 10
181.0000028471224
 20
-1042
 11
181.0000028471224
 21
-1050
  0
LINE
  5
2A7
100
AcDbEntity
  8
print
  6
ByLayer
 62
    7
370
   -1
100
AcDbLine
 10
177.0000028471671
 20
-1046
 11
185.0000028471224
 21
-1046
  0
CIRCLE
  5
2A8
100
AcDbEntity
  8
print
  6
ByLayer
 62
    7
370
   -1
100
AcDbCircle
 10
181.0000028471224
 20
-1046
 40
3
  0
CIRCLE
  5
2A9
100
AcDbEntity
  8
print
  6
ByLayer
 62
    7
370
   -1
100
AcDbCircle
 10
10.99999999999995
 20
-1076
 40
3
  0
LINE
  5
2AA
100
AcDbEntity
  8
print
  6
ByLayer
 62
    7
370
    0
100
AcDbLine
 10
5.000000000022284
 20
-873.9999999999998
 11
5.000000000022284
 21
-865.9999999999998
  0
LINE
  5
2AB
100
AcDbEntity
  8
print
  6
ByLayer
 62
    7
370
   -1
100
AcDbLine
 10
8.999999999977664
 20
-869.9999999999998
 11
1.00000000002228
 21
-869.9999999999998
  0
CIRCLE
  5
2AC
100
AcDbEntity
  8
print
  6
ByLayer
 62
    7
370
   -1
100
AcDbCircle
 10
4.999999999999972
 20
-869.9999999999998
 40
3
  0
LINE
  5
2AD
100
AcDbEntity
  8
print
  6
ByLayer
 62
    7
370
    0
100
AcDbLine
 10
-43.13704012886364
 20
-997.499999999726
 11
-35.13704012910224
 21
-997.499999999864
  0
LINE
  5
2AE
100
AcDbEntity
  8
print
  6
ByLayer
 62
    7
370
    0
100
AcDbLine
 10
-39.13704012905182
 20
-1001.499999999675
 11
-39.13704012891406
 21
-993.4999999999144
  0
CIRCLE
  5
2AF
100
AcDbEntity
  8
print
  6
ByLayer
 62
    7
370
    0
100
AcDbCircle
 10
-39.13704012898295
 20
-997.499999999795
 40
4
  0
CIRCLE
  5
2B0
100
AcDbEntity
  8
print
  6
ByLayer
 62
    7
370
    0
100
AcDbCircle
 10
-39.13704012898295
 20
-997.499999999795
 40
1.5
  0
LINE
  5
2B1
100
AcDbEntity
  8
print
  6
ByLayer
 62
    7
370
    0
100
AcDbLine
 10
5.862959870688606
 20
-1001.499999999825
 11
5.862959870826366
 21
-993.5000000000642
  0
LINE
  5
2B2
100
AcDbEntity
  8
print
  6
ByLayer
 62
    7
370
    0
100
AcDbLine
 10
9.862959870638157
 20
-997.5000000000141
 11
1.862959870876786
 21
-997.4999999998761
  0
CIRCLE
  5
2B3
100
AcDbEntity
  8
print
  6
ByLayer
 62
    7
370
    0
100
AcDbCircle
 10
5.862959870757471
 20
-997.4999999999451
 40
4
  0
CIRCLE
  5
2B4
100
AcDbEntity
  8
print
  6
ByLayer
 62
    7
370
    0
100
AcDbCircle
 10
5.862959870757471
 20
-997.4999999999451
 40
1.5
  0
LINE
  5
2B5
100
AcDbEntity
  8
print
  6
ByLayer
 62
    7
370
    0
100
AcDbLine
 10
9.862959870788053
 20
-952.5000000002734
 11
1.862959871026682
 21
-952.5000000001356
  0
LINE
  5
2B6
100
AcDbEntity
  8
print
  6
ByLayer
 62
    7
370
    0
100
AcDbLine
 10
5.862959870976261
 20
-948.5000000003238
 11
5.862959870838502
 21
-956.5000000000852
  0
CIRCLE
  5
2B7
100
AcDbEntity
  8
print
  6
ByLayer
 62
    7
370
    0
100
AcDbCircle
 10
5.862959870907368
 20
-952.5000000002045
 40
4
  0
CIRCLE
  5
2B8
100
AcDbEntity
  8
print
  6
ByLayer
 62
    7
370
    0
100
AcDbCircle
 10
5.862959870907368
 20
-952.5000000002045
 40
1.5
  0
LINE
  5
2B9
100
AcDbEntity
  8
print
  6
ByLayer
 62
    7
370
    0
100
AcDbLine
 10
-39.13704012876419
 20
-948.5000000001739
 11
-39.13704012890195
 21
-956.4999999999353
  0
LINE
  5
2BA
100
AcDbEntity
  8
print
  6
ByLayer
 62
    7
370
    0
100
AcDbLine
 10
-43.13704012871377
 20
-952.4999999999858
 11
-35.13704012895237
 21
-952.5000000001235
  0
CIRCLE
  5
2BB
100
AcDbEntity
  8
print
  6
ByLayer
 62
    7
370
    0
100
AcDbCircle
 10
-39.13704012883309
 20
-952.5000000000547
 40
4
  0
CIRCLE
  5
2BC
100
AcDbEntity
  8
print
  6
ByLayer
 62
    7
370
    0
100
AcDbCircle
 10
-39.13704012883309
 20
-952.5000000000547
 40
1.5
  0
LINE
  5
2BD
100
AcDbEntity
  8
print
  6
ByLayer
 62
    7
370
   -1
100
AcDbLine
 10
61.00000000000356
 20
-991.3000000000014
 11
61.00000000002442
 21
-958.6999999999997
  0
LINE
  5
2BE
100
AcDbEntity
  8
print
  6
ByLayer
 62
    7
370
   -1
100
AcDbLine
 10
61.00000000000356
 20
-991.3000000000014
 11
61.00000000002442
 21
-958.6999999999997
  0
LINE
  5
2BF
100
AcDbEntity
  8
print
  6
ByLayer
 62
    7
370
   -1
100
AcDbLine
 10
46.00000000000191
 20
-991.9999999999998
 11
61.00000000000191
 21
-992.0000000000015
  0
LINE
  5
2C0
100
AcDbEntity
  8
print
  6
ByLayer
 62
    7
370
   -1
100
AcDbLine
 10
61.00000000000151
 20
-995.000000000001
 11
46.00000000000157
 21
-995
  0
LINE
  5
2C1
100
AcDbEntity
  8
print
  6
ByLayer
 62
    7
370
   -1
100
AcDbLine
 10
61.00000000002487
 20
-957.9999999999998
 11
46.00000000002493
 21
-957.9999999999901
  0
LINE
  5
2C2
100
AcDbEntity
  8
print
  6
ByLayer
 62
    7
370
   -1
100
AcDbLine
 10
46.00000000002692
 20
-954.9999999999901
 11
61.00000000002681
 21
-954.9999999999998
  0
LINE
  5
2C3
100
AcDbEntity
  8
print
  6
ByLayer
 62
    7
370
   -1
100
AcDbLine
 10
61.00000000000151
 20
-995.000000000001
 11
46.00000000000157
 21
-995
  0
LINE
  5
2C4
100
AcDbEntity
  8
print
  6
ByLayer
 62
    7
370
   -1
100
AcDbLine
 10
46.00000000000157
 20
-995
 11
46.00000000000191
 21
-991.9999999999998
  0
LINE
  5
2C5
100
AcDbEntity
  8
print
  6
ByLayer
 62
    7
370
   -1
100
AcDbLine
 10
46.00000000000191
 20
-991.9999999999998
 11
61.00000000000191
 21
-992.0000000000015
  0
LINE
  5
2C6
100
AcDbEntity
  8
print
  6
ByLayer
 62
    7
370
   -1
100
AcDbLine
 10
61.00000000000191
 20
-992.0000000000015
 11
61.00000000000356
 21
-991.3000000000014
  0
LINE
  5
2C7
100
AcDbEntity
  8
print
  6
ByLayer
 62
    7
370
   -1
100
AcDbLine
 10
61.00000000002442
 20
-958.6999999999997
 11
61.00000000002487
 21
-957.9999999999998
  0
LINE
  5
2C8
100
AcDbEntity
  8
print
  6
ByLayer
 62
    7
370
   -1
100
AcDbLine
 10
61.00000000002487
 20
-957.9999999999998
 11
46.00000000002493
 21
-957.9999999999901
  0
LINE
  5
2C9
100
AcDbEntity
  8
print
  6
ByLayer
 62
    7
370
   -1
100
AcDbLine
 10
46.00000000002493
 20
-957.9999999999901
 11
46.00000000002692
 21
-954.9999999999901
  0
LINE
  5
2CA
100
AcDbEntity
  8
print
  6
ByLayer
 62
    7
370
   -1
100
AcDbLine
 10
46.00000000002692
 20
-954.9999999999901
 11
61.00000000002681
 21
-954.9999999999998
  0
LINE
  5
2CB
100
AcDbEntity
  8
print
  6
ByLayer
 62
    7
370
   -1
100
AcDbLine
 10
61.00000000002681
 20
-954.9999999999998
 11
61.00000000003261
 21
-945.9999999999998
  0
ARC
  5
2CC
100
AcDbEntity
  8
print
  6
ByLayer
 62
    7
370
   -1
100
AcDbCircle
 10
55.000000000033
 20
-945.9999999999958
 40
6
100
AcDbArc
 50
359.9999999999634
 51
89.99999999996349
  0
LINE
  5
2CD
100
AcDbEntity
  8
print
  6
ByLayer
 62
    7
370
   -1
100
AcDbLine
 10
61.00000000000151
 20
-995.000000000001
 11
61.0000000000006
 21
-1004.000000000001
  0
ARC
  5
2CE
100
AcDbEntity
  8
print
  6
ByLayer
 62
    7
370
   -1
100
AcDbCircle
 10
55.00000000000072
 20
-1004
 40
6
100
AcDbArc
 50
269.9999999999932
 51
359.9999999999931
  0
LINE
  5
2CF
100
AcDbEntity
  8
print
  6
ByLayer
 62
    7
370
   -1
100
AcDbLine
 10
54.99999999999998
 20
-1010
 11
13.69446164717349
 21
-1009.999999999996
  0
ARC
  5
2D0
100
AcDbEntity
  8
print
  6
ByLayer
 62
    7
370
   -1
100
AcDbCircle
 10
13.69446164717281
 20
-1015.999999999996
 40
6
100
AcDbArc
 50
89.99999999999343
 51
126.4937665998311
  0
LINE
  5
2D1
100
AcDbEntity
  8
print
  6
ByLayer
 62
    7
370
   -1
100
AcDbLine
 10
13.69446164712296
 20
-939.9999999999694
 11
55.00000000003681
 21
-939.9999999999959
  0
CIRCLE
  5
2D2
100
AcDbEntity
  8
print
  6
ByLayer
 62
    7
370
    0
100
AcDbCircle
 10
-16.63704012903781
 20
-974.9999999999998
 40
45
  0
ARC
  5
2D3
100
AcDbEntity
  8
print
  6
ByLayer
 62
    7
370
   -1
100
AcDbCircle
 10
13.69446164712677
 20
-933.9999999999694
 40
6
100
AcDbArc
 50
233.5062334002335
 51
269.999999999963
  0
LINE
  5
2D4
100
AcDbEntity
  8
print
  6
ByLayer
 62
    7
370
   -1
100
AcDbLine
 10
-41.33934611187063
 20
-899.6143509736172
 11
-69.57177427525518
 21
-915.9143509736001
  0
LINE
  5
2D5
100
AcDbEntity
  8
print
  6
ByLayer
 62
    7
370
   -1
100
AcDbLine
 10
-41.33934611187063
 20
-899.6143509736172
 11
-69.57177427525518
 21
-915.9143509736001
  0
LINE
  5
2D6
100
AcDbEntity
  8
print
  6
ByLayer
 62
    7
370
   -1
100
AcDbLine
 10
-33.23312832922206
 20
-912.2547320303861
 11
-40.73312832922059
 21
-899.2643509736187
  0
LINE
  5
2D7
100
AcDbEntity
  8
print
  6
ByLayer
 62
    7
370
   -1
100
AcDbLine
 10
-38.1350521178671
 20
-897.764350973619
 11
-30.63505211786858
 21
-910.7547320303864
  0
LINE
  5
2D8
100
AcDbEntity
  8
print
  6
ByLayer
 62
    7
370
   -1
100
AcDbLine
 10
-70.17799205790443
 20
-916.2643509735997
 11
-62.6779920579129
 21
-929.254732030371
  0
LINE
  5
2D9
100
AcDbEntity
  8
print
  6
ByLayer
 62
    7
370
   -1
100
AcDbLine
 10
-65.27606826926718
 20
-930.7547320303693
 11
-72.77606826925889
 21
-917.7643509735979
  0
LINE
  5
2DA
100
AcDbEntity
  8
print
  6
ByLayer
 62
    7
370
   -1
100
AcDbLine
 10
-38.1350521178671
 20
-897.764350973619
 11
-30.63505211786858
 21
-910.7547320303864
  0
LINE
  5
2DB
100
AcDbEntity
  8
print
  6
ByLayer
 62
    7
370
   -1
100
AcDbLine
 10
-30.63505211786858
 20
-910.7547320303864
 11
-33.23312832922206
 21
-912.2547320303861
  0
LINE
  5
2DC
100
AcDbEntity
  8
print
  6
ByLayer
 62
    7
370
   -1
100
AcDbLine
 10
-33.23312832922206
 20
-912.2547320303861
 11
-40.73312832922059
 21
-899.2643509736187
  0
LINE
  5
2DD
100
AcDbEntity
  8
print
  6
ByLayer
 62
    7
370
   -1
100
AcDbLine
 10
-40.73312832922059
 20
-899.2643509736187
 11
-41.33934611187063
 21
-899.6143509736172
  0
LINE
  5
2DE
100
AcDbEntity
  8
print
  6
ByLayer
 62
    7
370
   -1
100
AcDbLine
 10
-69.57177427525518
 20
-915.9143509736001
 11
-70.17799205790443
 21
-916.2643509735997
  0
LINE
  5
2DF
100
AcDbEntity
  8
print
  6
ByLayer
 62
    7
370
   -1
100
AcDbLine
 10
-70.17799205790443
 20
-916.2643509735997
 11
-62.6779920579129
 21
-929.254732030371
  0
LINE
  5
2E0
100
AcDbEntity
  8
print
  6
ByLayer
 62
    7
370
   -1
100
AcDbLine
 10
-62.6779920579129
 20
-929.254732030371
 11
-65.27606826926718
 21
-930.7547320303693
  0
LINE
  5
2E1
100
AcDbEntity
  8
print
  6
ByLayer
 62
    7
370
   -1
100
AcDbLine
 10
-65.27606826926718
 20
-930.7547320303693
 11
-72.77606826925889
 21
-917.7643509735979
  0
LINE
  5
2E2
100
AcDbEntity
  8
print
  6
ByLayer
 62
    7
370
   -1
100
AcDbLine
 10
-38.1350521178671
 20
-897.764350973619
 11
-30.34082348380664
 21
-893.2643509736199
  0
ARC
  5
2E3
100
AcDbEntity
  8
print
  6
ByLayer
 62
    7
370
   -1
100
AcDbCircle
 10
-27.34082348380746
 20
-898.4605033963267
 40
6
100
AcDbArc
 50
29.9999999999932
 51
119.9999999999931
  0
LINE
  5
2E4
100
AcDbEntity
  8
print
  6
ByLayer
 62
    7
370
   -1
100
AcDbLine
 10
-22.14467106110043
 20
-895.4605033963273
 11
-1.491901884691229
 21
-931.2321489268699
  0
LINE
  5
2E5
100
AcDbEntity
  8
print
  6
ByLayer
 62
    7
370
   -1
100
AcDbLine
 10
-69.57177427524623
 20
-1034.085649026381
 11
-41.33934611188249
 21
-1050.385649026399
  0
LINE
  5
2E6
100
AcDbEntity
  8
print
  6
ByLayer
 62
    7
370
   -1
100
AcDbLine
 10
-69.57177427524623
 20
-1034.085649026381
 11
-41.33934611188249
 21
-1050.385649026399
  0
LINE
  5
2E7
100
AcDbEntity
  8
print
  6
ByLayer
 62
    7
370
   -1
100
AcDbLine
 10
-62.67799205789304
 20
-1020.745267969613
 11
-70.17799205789449
 21
-1033.735649026379
  0
LINE
  5
2E8
100
AcDbEntity
  8
print
  6
ByLayer
 62
    7
370
   -1
100
AcDbLine
 10
-72.77606826924763
 20
-1032.235649026378
 11
-65.27606826924618
 21
-1019.245267969613
  0
LINE
  5
2E9
100
AcDbEntity
  8
print
  6
ByLayer
 62
    7
370
   -1
100
AcDbLine
 10
-40.73312832923363
 20
-1050.735649026399
 11
-33.23312832922525
 21
-1037.745267969639
  0
LINE
  5
2EA
100
AcDbEntity
  8
print
  6
ByLayer
 62
    7
370
   -1
100
AcDbLine
 10
-30.63505211787293
 20
-1039.245267969639
 11
-38.13505211788125
 21
-1052.235649026402
  0
LINE
  5
2EB
100
AcDbEntity
  8
print
  6
ByLayer
 62
    7
370
   -1
100
AcDbLine
 10
-72.77606826924763
 20
-1032.235649026378
 11
-65.27606826924618
 21
-1019.245267969613
  0
LINE
  5
2EC
100
AcDbEntity
  8
print
  6
ByLayer
 62
    7
370
   -1
100
AcDbLine
 10
-65.27606826924618
 20
-1019.245267969613
 11
-62.67799205789304
 21
-1020.745267969613
  0
LINE
  5
2ED
100
AcDbEntity
  8
print
  6
ByLayer
 62
    7
370
   -1
100
AcDbLine
 10
-62.67799205789304
 20
-1020.745267969613
 11
-70.17799205789449
 21
-1033.735649026379
  0
LINE
  5
2EE
100
AcDbEntity
  8
print
  6
ByLayer
 62
    7
370
   -1
100
AcDbLine
 10
-70.17799205789449
 20
-1033.735649026379
 11
-69.57177427524623
 21
-1034.085649026381
  0
LINE
  5
2EF
100
AcDbEntity
  8
print
  6
ByLayer
 62
    7
370
   -1
100
AcDbLine
 10
-41.33934611188249
 20
-1050.385649026399
 11
-40.73312832923363
 21
-1050.735649026399
  0
LINE
  5
2F0
100
AcDbEntity
  8
print
  6
ByLayer
 62
    7
370
   -1
100
AcDbLine
 10
-40.73312832923363
 20
-1050.735649026399
 11
-33.23312832922525
 21
-1037.745267969639
  0
LINE
  5
2F1
100
AcDbEntity
  8
print
  6
ByLayer
 62
    7
370
   -1
100
AcDbLine
 10
-33.23312832922525
 20
-1037.745267969639
 11
-30.63505211787293
 21
-1039.245267969639
  0
LINE
  5
2F2
100
AcDbEntity
  8
print
  6
ByLayer
 62
    7
370
   -1
100
AcDbLine
 10
-30.63505211787293
 20
-1039.245267969639
 11
-38.13505211788125
 21
-1052.235649026402
  0
LINE
  5
2F3
100
AcDbEntity
  8
print
  6
ByLayer
 62
    7
370
   -1
100
AcDbLine
 10
-38.13505211788125
 20
-1052.235649026402
 11
-30.34082348382423
 21
-1056.735649026407
  0
ARC
  5
2F4
100
AcDbEntity
  8
print
  6
ByLayer
 62
    7
370
   -1
100
AcDbCircle
 10
-27.34082348382102
 20
-1051.539496603703
 40
6
100
AcDbArc
 50
239.9999999999633
 51
329.9999999999634
  0
LINE
  5
2F5
100
AcDbEntity
  8
print
  6
ByLayer
 62
    7
370
   -1
100
AcDbLine
 10
-1.491901884636459
 20
-1018.767851073102
 11
-22.14467106111629
 21
-1054.539496603705
  0
ARC
  5
2F6
100
AcDbEntity
  8
print
  6
ByLayer
 62
    7
370
   -1
100
AcDbCircle
 10
3.704250538068216
 20
-1021.767851073106
 40
6
100
AcDbArc
 50
113.5062334002334
 51
149.999999999963
  0
LINE
  5
2F7
100
AcDbEntity
  8
print
  6
ByLayer
 62
    7
370
   -1
100
AcDbLine
 10
61.00000000000356
 20
-991.3000000000014
 11
61.00000000002442
 21
-958.6999999999997
  0
LINE
  5
2F8
100
AcDbEntity
  8
print
  6
ByLayer
 62
    7
370
   -1
100
AcDbLine
 10
61.00000000000356
 20
-991.3000000000014
 11
61.00000000002442
 21
-958.6999999999997
  0
LINE
  5
2F9
100
AcDbEntity
  8
print
  6
ByLayer
 62
    7
370
   -1
100
AcDbLine
 10
46.00000000000191
 20
-991.9999999999998
 11
61.00000000000191
 21
-992.0000000000015
  0
LINE
  5
2FA
100
AcDbEntity
  8
print
  6
ByLayer
 62
    7
370
   -1
100
AcDbLine
 10
61.00000000000151
 20
-995.000000000001
 11
46.00000000000157
 21
-995
  0
LINE
  5
2FB
100
AcDbEntity
  8
print
  6
ByLayer
 62
    7
370
   -1
100
AcDbLine
 10
61.00000000002487
 20
-957.9999999999998
 11
46.00000000002493
 21
-957.9999999999901
  0
LINE
  5
2FC
100
AcDbEntity
  8
print
  6
ByLayer
 62
    7
370
   -1
100
AcDbLine
 10
46.00000000002692
 20
-954.9999999999901
 11
61.00000000002681
 21
-954.9999999999998
  0
LINE
  5
2FD
100
AcDbEntity
  8
print
  6
ByLayer
 62
    7
370
   -1
100
AcDbLine
 10
61.00000000000151
 20
-995.000000000001
 11
46.00000000000157
 21
-995
  0
LINE
  5
2FE
100
AcDbEntity
  8
print
  6
ByLayer
 62
    7
370
   -1
100
AcDbLine
 10
46.00000000000157
 20
-995
 11
46.00000000000191
 21
-991.9999999999998
  0
LINE
  5
2FF
100
AcDbEntity
  8
print
  6
ByLayer
 62
    7
370
   -1
100
AcDbLine
 10
46.00000000000191
 20
-991.9999999999998
 11
61.00000000000191
 21
-992.0000000000015
  0
LINE
  5
300
100
AcDbEntity
  8
print
  6
ByLayer
 62
    7
370
   -1
100
AcDbLine
 10
61.00000000000191
 20
-992.0000000000015
 11
61.00000000000356
 21
-991.3000000000014
  0
LINE
  5
301
100
AcDbEntity
  8
print
  6
ByLayer
 62
    7
370
   -1
100
AcDbLine
 10
61.00000000002442
 20
-958.6999999999997
 11
61.00000000002487
 21
-957.9999999999998
  0
LINE
  5
302
100
AcDbEntity
  8
print
  6
ByLayer
 62
    7
370
   -1
100
AcDbLine
 10
61.00000000002487
 20
-957.9999999999998
 11
46.00000000002493
 21
-957.9999999999901
  0
LINE
  5
303
100
AcDbEntity
  8
print
  6
ByLayer
 62
    7
370
   -1
100
AcDbLine
 10
46.00000000002493
 20
-957.9999999999901
 11
46.00000000002692
 21
-954.9999999999901
  0
LINE
  5
304
100
AcDbEntity
  8
print
  6
ByLayer
 62
    7
370
   -1
100
AcDbLine
 10
46.00000000002692
 20
-954.9999999999901
 11
61.00000000002681
 21
-954.9999999999998
  0
LINE
  5
305
100
AcDbEntity
  8
print
  6
ByLayer
 62
    7
370
   -1
100
AcDbLine
 10
61.00000000002681
 20
-954.9999999999998
 11
61.00000000003261
 21
-945.9999999999998
  0
ARC
  5
306
100
AcDbEntity
  8
print
  6
ByLayer
 62
    7
370
   -1
100
AcDbCircle
 10
55.000000000033
 20
-945.9999999999958
 40
6
100
AcDbArc
 50
359.9999999999634
 51
89.99999999996349
  0
LINE
  5
307
100
AcDbEntity
  8
print
  6
ByLayer
 62
    7
370
   -1
100
AcDbLine
 10
61.00000000000151
 20
-995.000000000001
 11
61.0000000000006
 21
-1004.000000000001
  0
ARC
  5
308
100
AcDbEntity
  8
print
  6
ByLayer
 62
    7
370
   -1
100
AcDbCircle
 10
55.00000000000072
 20
-1004
 40
6
100
AcDbArc
 50
269.9999999999932
 51
359.9999999999931
  0
LINE
  5
309
100
AcDbEntity
  8
print
  6
ByLayer
 62
    7
370
   -1
100
AcDbLine
 10
54.99999999999998
 20
-1010
 11
13.69446164717349
 21
-1009.999999999996
  0
ARC
  5
30A
100
AcDbEntity
  8
print
  6
ByLayer
 62
    7
370
   -1
100
AcDbCircle
 10
13.69446164717281
 20
-1015.999999999996
 40
6
100
AcDbArc
 50
89.99999999999341
 51
126.4937665998312
  0
LINE
  5
30B
100
AcDbEntity
  8
print
  6
ByLayer
 62
    7
370
   -1
100
AcDbLine
 10
13.69446164712296
 20
-939.9999999999694
 11
55.00000000003681
 21
-939.9999999999959
  0
ARC
  5
30C
100
AcDbEntity
  8
print
  6
ByLayer
 62
    7
370
   -1
100
AcDbCircle
 10
13.69446164712677
 20
-933.9999999999694
 40
6
100
AcDbArc
 50
233.5062334002335
 51
269.9999999999631
  0
ARC
  5
30D
100
AcDbEntity
  8
print
  6
ByLayer
 62
    7
370
   -1
100
AcDbCircle
 10
3.704250538015749
 20
-928.2321489268704
 40
6
100
AcDbArc
 50
209.9999999999934
 51
246.4937665998311
  0
CIRCLE
  5
30E
100
AcDbEntity
  8
print
  6
ByLayer
 62
    7
370
   -1
100
AcDbCircle
 10
-47.95556019356748
 20
-920.7547320303785
 40
3
  0
LINE
  5
30F
100
AcDbEntity
  8
print
  6
ByLayer
 62
    7
370
   -1
100
AcDbLine
 10
-51.41966180868589
 20
-922.7547320303644
 11
-44.49145857844896
 21
-918.7547320303928
  0
LINE
  5
310
100
AcDbEntity
  8
print
  6
ByLayer
 62
    7
370
   -1
100
AcDbLine
 10
-45.95556019358163
 20
-924.2188336454971
 11
-49.95556019355321
 21
-917.2906304152601
  0
CIRCLE
  5
311
100
AcDbEntity
  8
print
  6
ByLayer
 62
    7
370
   -1
100
AcDbCircle
 10
-47.95556019364604
 20
-1029.245267969626
 40
3
  0
LINE
  5
312
100
AcDbEntity
  8
print
  6
ByLayer
 62
    7
370
   -1
100
AcDbLine
 10
-44.49145857853016
 20
-1031.245267969616
 11
-51.41966180876177
 21
-1027.245267969635
  0
LINE
  5
313
100
AcDbEntity
  8
print
  6
ByLayer
 62
    7
370
   -1
100
AcDbLine
 10
-45.95556019365556
 20
-1025.78116635451
 11
-49.95556019363637
 21
-1032.709369584742
  0
CIRCLE
  5
314
100
AcDbEntity
  8
print
  6
ByLayer
 62
    7
370
   -1
100
AcDbCircle
 10
45.99999999997021
 20
-975.0000000000703
 40
3
  0
LINE
  5
315
100
AcDbEntity
  8
print
  6
ByLayer
 62
    7
370
   -1
100
AcDbLine
 10
45.99999999997274
 20
-971.0000000000941
 11
45.99999999996741
 21
-979.0000000000465
  0
LINE
  5
316
100
AcDbEntity
  8
print
  6
ByLayer
 62
    7
370
   -1
100
AcDbLine
 10
41.99999999999389
 20
-975.0000000000676
 11
49.99999999994627
 21
-975.000000000073
  0
LINE
  5
317
100
AcDbEntity
  8
print
  6
ByLayer
 62
    7
370
   -1
100
AcDbLine
 10
-86.49999999996318
 20
-952.9999999999795
 11
-86.49999999996318
 21
-949.9999999999797
  0
LINE
  5
318
100
AcDbEntity
  8
print
  6
ByLayer
 62
    7
370
   -1
100
AcDbLine
 10
-69.49999999996318
 20
-949.999999999996
 11
-69.49999999996318
 21
-952.999999999996
  0
LINE
  5
319
100
AcDbEntity
  8
print
  6
ByLayer
 62
    7
370
   -1
100
AcDbLine
 10
-87.9999999999644
 20
-951.4999999999797
 11
-67.9999999999644
 21
-951.499999999996
  0
LINE
  5
31A
100
AcDbEntity
  8
print
  6
ByLayer
 62
    7
370
   -1
100
AcDbLine
 10
-87.9999999999644
 20
-998.4999999999795
 11
-67.9999999999644
 21
-998.4999999999959
  0
LINE
  5
31B
100
AcDbEntity
  8
print
  6
ByLayer
 62
    7
370
   -1
100
AcDbLine
 10
-86.49999999996318
 20
-999.9999999999794
 11
-86.49999999996318
 21
-996.9999999999795
  0
LINE
  5
31C
100
AcDbEntity
  8
print
  6
ByLayer
 62
    7
370
   -1
100
AcDbLine
 10
-69.49999999996318
 20
-996.9999999999959
 11
-69.49999999996318
 21
-999.9999999999959
  0
ARC
  5
31D
100
AcDbEntity
  8
print
  6
ByLayer
 62
    7
370
   -1
100
AcDbCircle
 10
-86.49999999996318
 20
-951.4999999999809
 40
1.5
100
AcDbArc
 50
89.99999999995332
 51
180
  0
LINE
  5
31E
100
AcDbEntity
  8
print
  6
ByLayer
 62
    7
370
   -1
100
AcDbLine
 10
-87.99999999996318
 20
-951.4999999999809
 11
-87.99999999996318
 21
-951.4999999999809
  0
ARC
  5
31F
100
AcDbEntity
  8
print
  6
ByLayer
 62
    7
370
   -1
100
AcDbCircle
 10
-86.49999999996318
 20
-951.4999999999809
 40
1.5
100
AcDbArc
 50
180
 51
269.9999999999528
  0
LINE
  5
320
100
AcDbEntity
  8
print
  6
ByLayer
 62
    7
370
   -1
100
AcDbLine
 10
-86.49999999996196
 20
-949.9999999999809
 11
-69.49999999996196
 21
-949.9999999999948
  0
ARC
  5
321
100
AcDbEntity
  8
print
  6
ByLayer
 62
    7
370
   -1
100
AcDbCircle
 10
-69.49999999996318
 20
-951.4999999999948
 40
1.5
100
AcDbArc
 50
0
 51
89.99999999995332
  0
LINE
  5
322
100
AcDbEntity
  8
print
  6
ByLayer
 62
    7
370
   -1
100
AcDbLine
 10
-67.99999999996318
 20
-951.4999999999948
 11
-67.99999999996318
 21
-951.4999999999947
  0
LINE
  5
323
100
AcDbEntity
  8
print
  6
ByLayer
 62
    7
370
   -1
100
AcDbLine
 10
-69.49999999996442
 20
-952.9999999999948
 11
-86.49999999996442
 21
-952.9999999999808
  0
ARC
  5
324
100
AcDbEntity
  8
print
  6
ByLayer
 62
    7
370
   -1
100
AcDbCircle
 10
-69.49999999996318
 20
-951.4999999999947
 40
1.5
100
AcDbArc
 50
269.9999999999528
 51
0
  0
ARC
  5
325
100
AcDbEntity
  8
print
  6
ByLayer
 62
    7
370
   -1
100
AcDbCircle
 10
-86.49999999996318
 20
-998.4999999999809
 40
1.5
100
AcDbArc
 50
89.99999999995332
 51
180
  0
LINE
  5
326
100
AcDbEntity
  8
print
  6
ByLayer
 62
    7
370
   -1
100
AcDbLine
 10
-87.99999999996318
 20
-998.4999999999807
 11
-87.99999999996318
 21
-998.4999999999809
  0
ARC
  5
327
100
AcDbEntity
  8
print
  6
ByLayer
 62
    7
370
   -1
100
AcDbCircle
 10
-86.49999999996318
 20
-998.4999999999807
 40
1.5
100
AcDbArc
 50
180
 51
269.9999999999528
  0
LINE
  5
328
100
AcDbEntity
  8
print
  6
ByLayer
 62
    7
370
   -1
100
AcDbLine
 10
-86.49999999996196
 20
-996.9999999999808
 11
-69.49999999996196
 21
-996.9999999999947
  0
ARC
  5
329
100
AcDbEntity
  8
print
  6
ByLayer
 62
    7
370
   -1
100
AcDbCircle
 10
-69.49999999996318
 20
-998.4999999999948
 40
1.5
100
AcDbArc
 50
0
 51
89.99999999995332
  0
LINE
  5
32A
100
AcDbEntity
  8
print
  6
ByLayer
 62
    7
370
   -1
100
AcDbLine
 10
-67.99999999996318
 20
-998.4999999999948
 11
-67.99999999996318
 21
-998.4999999999947
  0
LINE
  5
32B
100
AcDbEntity
  8
print
  6
ByLayer
 62
    7
370
   -1
100
AcDbLine
 10
-69.49999999996442
 20
-999.9999999999947
 11
-86.49999999996442
 21
-999.9999999999807
  0
ARC
  5
32C
100
AcDbEntity
  8
print
  6
ByLayer
 62
    7
370
   -1
100
AcDbCircle
 10
-69.49999999996318
 20
-998.4999999999947
 40
1.5
100
AcDbArc
 50
269.9999999999528
 51
0
  0
LINE
  5
32D
100
AcDbEntity
  8
print
  6
ByLayer
 62
    7
370
   -1
100
AcDbLine
 10
-72.77606826924763
 20
-1032.235649026378
 11
-94.99999999996399
 21
-1019.404656059193
  0
ARC
  5
32E
100
AcDbEntity
  8
print
  6
ByLayer
 62
    7
370
   -1
100
AcDbCircle
 10
-91.99999999996318
 20
-1014.208503636486
 40
6
100
AcDbArc
 50
180
 51
239.9999999999911
  0
LINE
  5
32F
100
AcDbEntity
  8
print
  6
ByLayer
 62
    7
370
   -1
100
AcDbLine
 10
-72.77606826925889
 20
-917.7643509735979
 11
-94.99999999995987
 21
-930.5953439407509
  0
ARC
  5
330
100
AcDbEntity
  8
print
  6
ByLayer
 62
    7
370
   -1
100
AcDbCircle
 10
-91.99999999996318
 20
-935.7914963634595
 40
6
100
AcDbArc
 50
119.9999999999634
 51
180
  0
LINE
  5
331
100
AcDbEntity
  8
print
  6
ByLayer
 62
    7
370
   -1
100
AcDbLine
 10
-97.99999999996318
 20
-1014.208503636486
 11
-97.99999999996318
 21
-935.7914963634595
  0
CIRCLE
  5
332
100
AcDbEntity
  8
print
  6
ByLayer
 62
    7
370
   -1
100
AcDbCircle
 10
-16.6370401290376
 20
-974.9999999999995
 40
10
  0
LINE
  5
333
100
AcDbEntity
  8
print
  6
ByLayer
 62
    7
370
   -1
100
AcDbLine
 10
-16.6370401290376
 20
-962.9999999999995
 11
-16.6370401290376
 21
-986.9999999999995
  0
LINE
  5
334
100
AcDbEntity
  8
print
  6
ByLayer
 62
    7
370
   -1
100
AcDbLine
 10
-28.63704012903271
 20
-974.9999999999995
 11
-4.637040129042404
 21
-974.9999999999995
  0
LINE
  5
335
100
AcDbEntity
  8
print
  6
ByLayer
 62
    7
370
   -1
100
AcDbLine
 10
-50
 20
-886
 11
-50
 21
-846
  0
LINE
  5
336
100
AcDbEntity
  8
print
  6
ByLayer
 62
    7
370
   -1
100
AcDbLine
 10
-16
 20
-846
 11
-16
 21
-886
  0
LINE
  5
337
100
AcDbEntity
  8
print
  6
ByLayer
 62
    7
370
   -1
100
AcDbLine
 10
-50
 20
-846
 11
-16
 21
-846
  0
LINE
  5
338
100
AcDbEntity
  8
print
  6
ByLayer
 62
    7
370
   -1
100
AcDbLine
 10
-50
 20
-886
 11
-16
 21
-886
  0
LINE
  5
339
100
AcDbEntity
  8
print
  6
ByLayer
 62
    7
370
    0
100
AcDbLine
 10
-55.29999999999995
 20
-845
 11
-55.29999999999995
 21
-845
  0
LINE
  5
33A
100
AcDbEntity
  8
print
  6
ByLayer
 62
    7
370
   -1
100
AcDbLine
 10
-57
 20
-844.9924783461083
 11
-57
 21
-844.9924783461083
  0
LINE
  5
33B
100
AcDbEntity
  8
print
  6
ByLayer
 62
    7
370
   -1
100
AcDbLine
 10
-93
 20
-901
 11
-93
 21
-891
  0
LINE
  5
33C
100
AcDbEntity
  8
print
  6
ByLayer
 62
    7
370
   -1
100
AcDbLine
 10
-93
 20
-891
 11
-96
 21
-891
  0
LINE
  5
33D
100
AcDbEntity
  8
print
  6
ByLayer
 62
    7
370
   -1
100
AcDbLine
 10
-96
 20
-891
 11
-96
 21
-871.0000000000002
  0
LINE
  5
33E
100
AcDbEntity
  8
print
  6
ByLayer
 62
    7
370
   -1
100
AcDbLine
 10
-96
 20
-871.0000000000002
 11
-93
 21
-871.0000000000002
  0
LINE
  5
33F
100
AcDbEntity
  8
print
  6
ByLayer
 62
    7
370
   -1
100
AcDbLine
 10
-93
 20
-871.0000000000002
 11
-93
 21
-861
  0
LINE
  5
340
100
AcDbEntity
  8
print
  6
ByLayer
 62
    7
370
   -1
100
AcDbLine
 10
-93
 20
-861
 11
-96
 21
-861
  0
LINE
  5
341
100
AcDbEntity
  8
print
  6
ByLayer
 62
    7
370
   -1
100
AcDbLine
 10
-96
 20
-861
 11
-96
 21
-851
  0
LINE
  5
342
100
AcDbEntity
  8
print
  6
ByLayer
 62
    7
370
   -1
100
AcDbLine
 10
-93
 20
-901
 11
-87
 21
-901
  0
LINE
  5
343
100
AcDbEntity
  8
print
  6
ByLayer
 62
    7
370
   -1
100
AcDbLine
 10
-87
 20
-901
 11
-87
 21
-898
  0
LINE
  5
344
100
AcDbEntity
  8
print
  6
ByLayer
 62
    7
370
   -1
100
AcDbLine
 10
-87
 20
-898
 11
-67
 21
-898
  0
LINE
  5
345
100
AcDbEntity
  8
print
  6
ByLayer
 62
    7
370
   -1
100
AcDbLine
 10
-56
 20
-851
 11
-56
 21
-861
  0
LINE
  5
346
100
AcDbEntity
  8
print
  6
ByLayer
 62
    7
370
   -1
100
AcDbLine
 10
-59
 20
-861
 11
-59
 21
-871.0000000000002
  0
LINE
  5
347
100
AcDbEntity
  8
print
  6
ByLayer
 62
    7
370
   -1
100
AcDbLine
 10
-56
 20
-871.0000000000002
 11
-56
 21
-891
  0
LINE
  5
348
100
AcDbEntity
  8
print
  6
ByLayer
 62
    7
370
   -1
100
AcDbLine
 10
-59
 20
-901
 11
-59
 21
-890.9999999999998
  0
LINE
  5
349
100
AcDbEntity
  8
print
  6
ByLayer
 62
    7
370
   -1
100
AcDbLine
 10
-65
 20
-898
 11
-65
 21
-901
  0
LINE
  5
34A
100
AcDbEntity
  8
print
  6
ByLayer
 62
    7
370
   -1
100
AcDbLine
 10
-87
 20
-898
 11
-65
 21
-898
  0
LINE
  5
34B
100
AcDbEntity
  8
print
  6
ByLayer
 62
    7
370
   -1
100
AcDbLine
 10
-65
 20
-898
 11
-65
 21
-901
  0
LINE
  5
34C
100
AcDbEntity
  8
print
  6
ByLayer
 62
    7
370
   -1
100
AcDbLine
 10
-65
 20
-901
 11
-59
 21
-901
  0
LINE
  5
34D
100
AcDbEntity
  8
print
  6
ByLayer
 62
    7
370
   -1
100
AcDbLine
 10
-59
 20
-901
 11
-59
 21
-890.9999999999998
  0
LINE
  5
34E
100
AcDbEntity
  8
print
  6
ByLayer
 62
    7
370
   -1
100
AcDbLine
 10
-59
 20
-890.9999999999998
 11
-56
 21
-891
  0
LINE
  5
34F
100
AcDbEntity
  8
print
  6
ByLayer
 62
    7
370
   -1
100
AcDbLine
 10
-56
 20
-891
 11
-56
 21
-871.0000000000002
  0
LINE
  5
350
100
AcDbEntity
  8
print
  6
ByLayer
 62
    7
370
   -1
100
AcDbLine
 10
-56
 20
-871.0000000000002
 11
-59
 21
-871.0000000000002
  0
LINE
  5
351
100
AcDbEntity
  8
print
  6
ByLayer
 62
    7
370
   -1
100
AcDbLine
 10
-59
 20
-871.0000000000002
 11
-59
 21
-861
  0
LINE
  5
352
100
AcDbEntity
  8
print
  6
ByLayer
 62
    7
370
   -1
100
AcDbLine
 10
-59
 20
-861
 11
-56
 21
-861
  0
LINE
  5
353
100
AcDbEntity
  8
print
  6
ByLayer
 62
    7
370
   -1
100
AcDbLine
 10
-93
 20
-877.0000000000002
 11
-93
 21
-885.0000000000002
  0
LINE
  5
354
100
AcDbEntity
  8
print
  6
ByLayer
 62
    7
370
   -1
100
AcDbLine
 10
-93
 20
-885.0000000000002
 11
-85
 21
-885.0000000000002
  0
LINE
  5
355
100
AcDbEntity
  8
print
  6
ByLayer
 62
    7
370
   -1
100
AcDbLine
 10
-85
 20
-885.0000000000002
 11
-85
 21
-877.0000000000002
  0
LINE
  5
356
100
AcDbEntity
  8
print
  6
ByLayer
 62
    7
370
   -1
100
AcDbLine
 10
-85
 20
-877.0000000000002
 11
-93
 21
-877.0000000000002
  0
CIRCLE
  5
357
100
AcDbEntity
  8
print
  6
ByLayer
 62
    7
370
   -1
100
AcDbCircle
 10
-76
 20
-881.0000000000002
 40
10
  0
LINE
  5
358
100
AcDbEntity
  8
print
  6
ByLayer
 62
    7
370
   -1
100
AcDbLine
 10
-76
 20
-869.0000000000002
 11
-76
 21
-893.0000000000002
  0
LINE
  5
359
100
AcDbEntity
  8
print
  6
ByLayer
 62
    7
370
   -1
100
AcDbLine
 10
-87.999999999995
 20
-881.0000000000002
 11
-64.00000000000477
 21
-881.0000000000002
  0
CIRCLE
  5
35A
100
AcDbEntity
  8
print
  6
ByLayer
 62
    7
370
   -1
100
AcDbCircle
 10
-76
 20
-848
 40
2
  0
LINE
  5
35B
100
AcDbEntity
  8
print
  6
ByLayer
 62
    7
370
   -1
100
AcDbLine
 10
-76
 20
-845.0000000000205
 11
-76
 21
-851
  0
LINE
  5
35C
100
AcDbEntity
  8
print
  6
ByLayer
 62
    7
370
   -1
100
AcDbLine
 10
-79.3702860273379
 20
-841.8647598177471
 11
-96
 21
-851
  0
LINE
  5
35D
100
AcDbEntity
  8
print
  6
ByLayer
 62
    7
370
   -1
100
AcDbLine
 10
-72.6297139726621
 20
-841.8647598177471
 11
-56
 21
-851
  0
CIRCLE
  5
35E
100
AcDbEntity
  8
print
  6
ByLayer
 62
    7
370
   -1
100
AcDbCircle
 10
-76
 20
-848
 40
7
  0
LINE
  5
35F
100
AcDbEntity
  8
print
  6
ByLayer
 62
    7
370
   -1
100
AcDbLine
 10
-79
 20
-848
 11
-73
 21
-848
  0
LINE
  5
360
100
AcDbEntity
  8
print
  6
ByLayer
 62
    7
370
   -1
100
AcDbLine
 10
-63
 20
-832.5
 11
-63
 21
-817.5
  0
LINE
  5
361
100
AcDbEntity
  8
print
  6
ByLayer
 62
    7
370
   -1
100
AcDbLine
 10
-23
 20
-832.5
 11
-23
 21
-817.5
  0
LINE
  5
362
100
AcDbEntity
  8
print
  6
ByLayer
 62
    7
370
   -1
100
AcDbLine
 10
-60
 20
-840
 11
-26
 21
-840
  0
LINE
  5
363
100
AcDbEntity
  8
print
  6
ByLayer
 62
    7
370
   -1
100
AcDbLine
 10
-23
 20
-832.5
 11
-23
 21
-817.5
  0
LINE
  5
364
100
AcDbEntity
  8
print
  6
ByLayer
 62
    7
370
   -1
100
AcDbLine
 10
-63
 20
-817.5
 11
-63
 21
-832.5
  0
LINE
  5
365
100
AcDbEntity
  8
print
  6
ByLayer
 62
    7
370
   -1
100
AcDbLine
 10
-60
 20
-840
 11
-26
 21
-840
  0
LINE
  5
366
100
AcDbEntity
  8
print
  6
ByLayer
 62
    7
370
   -1
100
AcDbLine
 10
-60
 20
-840
 11
-26
 21
-840
  0
LINE
  5
367
100
AcDbEntity
  8
print
  6
ByLayer
 62
    7
370
   -1
100
AcDbLine
 10
-26
 20
-806
 11
-60
 21
-806
  0
LINE
  5
368
100
AcDbEntity
  8
print
  6
ByLayer
 62
    7
370
   -1
100
AcDbLine
 10
-23
 20
-832.5
 11
-23
 21
-813.5
  0
LINE
  5
369
100
AcDbEntity
  8
print
  6
ByLayer
 62
    7
370
   -1
100
AcDbLine
 10
-26
 20
-806
 11
-60
 21
-806
  0
LINE
  5
36A
100
AcDbEntity
  8
print
  6
ByLayer
 62
    7
370
   -1
100
AcDbLine
 10
-63
 20
-813.5
 11
-63
 21
-832.5
  0
CIRCLE
  5
36B
100
AcDbEntity
  8
print
  6
ByLayer
 62
    7
370
   -1
100
AcDbCircle
 10
-42.99999999999989
 20
-823
 40
10
  0
LINE
  5
36C
100
AcDbEntity
  8
print
  6
ByLayer
 62
    7
370
   -1
100
AcDbLine
 10
-42.99999999999989
 20
-835
 11
-42.99999999999989
 21
-811
  0
LINE
  5
36D
100
AcDbEntity
  8
print
  6
ByLayer
 62
    7
370
   -1
100
AcDbLine
 10
-31.00000000000477
 20
-823
 11
-54.99999999999511
 21
-823
  0
LINE
  5
36E
100
AcDbEntity
  8
print
  6
ByLayer
 62
    7
370
   -1
100
AcDbLine
 10
-63
 20
-833
 11
-60
 21
-833
  0
LINE
  5
36F
100
AcDbEntity
  8
print
  6
ByLayer
 62
    7
370
   -1
100
AcDbLine
 10
-60
 20
-813
 11
-63
 21
-813
  0
LINE
  5
370
100
AcDbEntity
  8
print
  6
ByLayer
 62
    7
370
   -1
100
AcDbLine
 10
-26
 20
-833
 11
-23
 21
-833
  0
LINE
  5
371
100
AcDbEntity
  8
print
  6
ByLayer
 62
    7
370
   -1
100
AcDbLine
 10
-23
 20
-813
 11
-26
 21
-813
  0
LINE
  5
372
100
AcDbEntity
  8
print
  6
ByLayer
 62
    7
370
   -1
100
AcDbLine
 10
-23
 20
-813.5
 11
-23
 21
-813
  0
LINE
  5
373
100
AcDbEntity
  8
print
  6
ByLayer
 62
    7
370
   -1
100
AcDbLine
 10
-23
 20
-833
 11
-23
 21
-832.5
  0
LINE
  5
374
100
AcDbEntity
  8
print
  6
ByLayer
 62
    7
370
   -1
100
AcDbLine
 10
-63
 20
-833
 11
-63
 21
-832.5
  0
LINE
  5
375
100
AcDbEntity
  8
print
  6
ByLayer
 62
    7
370
   -1
100
AcDbLine
 10
-63
 20
-813.5
 11
-63
 21
-813
  0
LINE
  5
376
100
AcDbEntity
  8
print
  6
ByLayer
 62
    7
370
   -1
100
AcDbLine
 10
-26
 20
-840
 11
-26
 21
-833
  0
LINE
  5
377
100
AcDbEntity
  8
print
  6
ByLayer
 62
    7
370
   -1
100
AcDbLine
 10
-26
 20
-813
 11
-26
 21
-806
  0
LINE
  5
378
100
AcDbEntity
  8
print
  6
ByLayer
 62
    7
370
   -1
100
AcDbLine
 10
-60
 20
-806
 11
-60
 21
-813
  0
LINE
  5
379
100
AcDbEntity
  8
print
  6
ByLayer
 62
    7
370
   -1
100
AcDbLine
 10
-60
 20
-833
 11
-60
 21
-840
  0
MTEXT
  5
37A
100
AcDbEntity
  8
print
  6
ByLayer
 62
    7
370
   -1
100
AcDbMText
 10
158.1592394819461
 20
-1043.378863448062
 30
0
 40
5
 41
17.222222222223
 71
    1
 72
    1
  1
6mm%%C
  7
standard
210
0
220
0
230
1
 50
0
 73
    2
 44
1
  0
MTEXT
  5
37B
100
AcDbEntity
  8
print
  6
ByLayer
 62
    7
370
   -1
100
AcDbMText
 10
36.35301922420851
 20
-983.8921047175395
 30
0
 40
5
 41
17.222222222223
 71
    1
 72
    1
  1
6mm%%C
  7
standard
210
0
220
0
230
1
 50
0
 73
    2
 44
1
  0
MTEXT
  5
37C
100
AcDbEntity
  8
print
  6
ByLayer
 62
    7
370
   -1
100
AcDbMText
 10
-39.47342048322605
 20
-1025.860370967477
 30
0
 40
5
 41
17.222222222223
 71
    1
 72
    1
  1
6mm%%C
  7
standard
210
0
220
0
230
1
 50
0
 73
    2
 44
1
  0
MTEXT
  5
37D
100
AcDbEntity
  8
print
  6
ByLayer
 62
    7
370
   -1
100
AcDbMText
 10
19.28814864521273
 20
-1073.407900185908
 30
0
 40
5
 41
17.222222222223
 71
    1
 72
    1
  1
6mm%%C
  7
standard
210
0
220
0
230
1
 50
0
 73
    2
 44
1
  0
MTEXT
  5
37E
100
AcDbEntity
  8
print
  6
ByLayer
 62
    7
370
   -1
100
AcDbMText
 10
6.436073489991123
 20
-860.772925467845
 30
0
 40
5
 41
17.222222222223
 71
    1
 72
    1
  1
6mm%%C
  7
standard
210
0
220
0
230
1
 50
0
 73
    2
 44
1
  0
MTEXT
  5
37F
100
AcDbEntity
  8
print
  6
ByLayer
 62
    7
370
   -1
100
AcDbMText
 10
-84.42584136294067
 20
-855.6992986739174
 30
0
 40
5
 41
17.77777777777824
 71
    1
 72
    1
  1
4mm%%C
  7
standard
210
0
220
0
230
1
 50
0
 73
    2
 44
1
  0
MTEXT
  5
380
100
AcDbEntity
  8
print
  6
ByLayer
 62
    7
370
   -1
100
AcDbMText
 10
59.57150488693478
 20
-824.5327497595607
 30
0
 40
5
 41
17.77777777777824
 71
    1
 72
    1
  1
4mm%%C
  7
standard
210
0
220
0
230
1
 50
0
 73
    2
 44
1
  0
MTEXT
  5
381
100
AcDbEntity
  8
print
  6
ByLayer
 62
    7
370
   -1
100
AcDbMText
 10
1.972566386984595
 20
-957.8782375197194
 30
0
 40
5
 41
17.222222222223
 71
    1
 72
    1
  1
3mm%%C
  7
standard
210
0
220
0
230
1
 50
0
 73
    2
 44
1
  0
MTEXT
  5
382
100
AcDbEntity
  8
print
  6
ByLayer
 62
    7
370
   -1
100
AcDbMText
 10
-41.45001509995143
 20
-918.0388825121343
 30
0
 40
5
 41
17.222222222223
 71
    1
 72
    1
  1
6mm%%C
  7
standard
210
0
220
0
230
1
 50
0
 73
    2
 44
1
  0
MTEXT
  5
383
100
AcDbEntity
  8
print
  6
ByLayer
 62
    7
370
   -1
100
AcDbMText
 10
95.90364709696823
 20
-824.6173029502369
 30
0
 40
5
 41
16.11111111111158
 71
    1
 72
    1
  1
1mm%%C
  7
STANDARD
210
0
220
0
230
1
 50
0
 73
    2
 44
1
  0
ENDSEC
  0
SECTION
  2
OBJECTS
  0
DICTIONARY
  5
C
330
0
100
AcDbDictionary
281
    1
  3
ACAD_GROUP
350
D
  0
DICTIONARY
  5
D
330
C
100
AcDbDictionary
281
    1
  0
ENDSEC
  0
EOF
