  0
SECTION
  2
HEADER
  9
$ACADVER
  1
AC1015
  9
$ACADMAINTVER
 70
     6
  9
$DWGCODEPAGE
  3
ANSI_1252
  9
$INSBASE
 10
0.0
 20
0.0
 30
0.0
  9
$EXTMIN
 10
-2.2617282275
 20
-4.2132262879
 30
0.0
  9
$EXTMAX
 10
3.3810243997
 20
2.5871789758
 30
0.0
  9
$LIMMIN
 10
0.0
 20
0.0
  9
$LIMMAX
 10
12.0
 20
9.0
  9
$ORTHOMODE
 70
     0
  9
$REGENMODE
 70
     1
  9
$FILLMODE
 70
     1
  9
$QTEXTMODE
 70
     0
  9
$MIRRTEXT
 70
     1
  9
$LTSCALE
 40
1.0
  9
$ATTMODE
 70
     1
  9
$TEXTSIZE
 40
0.1377952756
  9
$TRACEWID
 40
0.05
  9
$TEXTSTYLE
  7
Standard
  9
$CLAYER
  8
0
  9
$CELTYPE
  6
ByLayer
  9
$CECOLOR
 62
   256
  9
$CELTSCALE
 40
1.0
  9
$DISPSILH
 70
     0
  9
$DIMSCALE
 40
1.0
  9
$DIMASZ
 40
0.13
  9
$DIMEXO
 40
0.0393700787
  9
$DIMDLI
 40
0.38
  9
$DIMRND
 40
0.0
  9
$DIMDLE
 40
0.0
  9
$DIMEXE
 40
0.0393700787
  9
$DIMTP
 40
0.0
  9
$DIMTM
 40
0.0
  9
$DIMTXT
 40
0.1377952756
  9
$DIMCEN
 40
0.09
  9
$DIMTSZ
 40
0.0
  9
$DIMTOL
 70
     0
  9
$DIMLIM
 70
     0
  9
$DIMTIH
 70
     1
  9
$DIMTOH
 70
     1
  9
$DIMSE1
 70
     0
  9
$DIMSE2
 70
     0
  9
$DIMTAD
 70
     1
  9
$DIMZIN
 70
     0
  9
$DIMBLK
  1

  9
$DIMASO
 70
     1
  9
$DIMSHO
 70
     1
  9
$DIMPOST
  1

  9
$DIMAPOST
  1

  9
$DIMALT
 70
     0
  9
$DIMALTD
 70
     2
  9
$DIMALTF
 40
25.4
  9
$DIMLFAC
 40
1.0
  9
$DIMTOFL
 70
     0
  9
$DIMTVP
 40
0.0
  9
$DIMTIX
 70
     0
  9
$DIMSOXD
 70
     0
  9
$DIMSAH
 70
     0
  9
$DIMBLK1
  1

  9
$DIMBLK2
  1

  9
$DIMSTYLE
  2
Standard
  9
$DIMCLRD
 70
     0
  9
$DIMCLRE
 70
     0
  9
$DIMCLRT
 70
     0
  9
$DIMTFAC
 40
1.0
  9
$DIMGAP
 40
0.06
  9
$DIMJUST
 70
     0
  9
$DIMSD1
 70
     0
  9
$DIMSD2
 70
     0
  9
$DIMTOLJ
 70
     1
  9
$DIMTZIN
 70
     0
  9
$DIMALTZ
 70
     0
  9
$DIMALTTZ
 70
     0
  9
$DIMUPT
 70
     0
  9
$DIMDEC
 70
     3
  9
$DIMTDEC
 70
     3
  9
$DIMALTU
 70
     2
  9
$DIMALTTD
 70
     2
  9
$DIMTXSTY
  7
Standard
  9
$DIMAUNIT
 70
     0
  9
$DIMADEC
 70
     2
  9
$DIMALTRND
 40
0.0
  9
$DIMAZIN
 70
     0
  9
$DIMDSEP
 70
    46
  9
$DIMATFIT
 70
     3
  9
$DIMFRAC
 70
     0
  9
$DIMLDRBLK
  1

  9
$DIMLUNIT
 70
     2
  9
$DIMLWD
 70
    -2
  9
$DIMLWE
 70
    -2
  9
$DIMTMOVE
 70
     0
  9
$LUNITS
 70
     2
  9
$LUPREC
 70
     2
  9
$SKETCHINC
 40
0.1
  9
$FILLETRAD
 40
0.5
  9
$AUNITS
 70
     0
  9
$AUPREC
 70
     2
  9
$MENU
  1
.
  9
$ELEVATION
 40
0.0
  9
$PELEVATION
 40
0.0
  9
$THICKNESS
 40
0.0
  9
$LIMCHECK
 70
     0
  9
$CHAMFERA
 40
0.5
  9
$CHAMFERB
 40
0.5
  9
$CHAMFERC
 40
1.0
  9
$CHAMFERD
 40
0.0
  9
$SKPOLY
 70
     0
  9
$TDCREATE
 40
2456984.647242315
  9
$TDUCREATE
 40
2456984.980575648
  9
$TDUPDATE
 40
2456984.647279618
  9
$TDUUPDATE
 40
2456984.980612951
  9
$TDINDWG
 40
0.0000000116
  9
$TDUSRTIMER
 40
0.0000000116
  9
$USRTIMER
 70
     1
  9
$ANGBASE
 50
0.0
  9
$ANGDIR
 70
     0
  9
$PDMODE
 70
     0
  9
$PDSIZE
 40
-1.0
  9
$PLINEWID
 40
0.0
  9
$SPLFRAME
 70
     0
  9
$SPLINETYPE
 70
     6
  9
$SPLINESEGS
 70
     8
  9
$HANDSEED
  5
59A
  9
$SURFTAB1
 70
     6
  9
$SURFTAB2
 70
     6
  9
$SURFTYPE
 70
     6
  9
$SURFU
 70
     6
  9
$SURFV
 70
     6
  9
$UCSBASE
  2

  9
$UCSNAME
  2

  9
$UCSORG
 10
0.0
 20
0.0
 30
0.0
  9
$UCSXDIR
 10
1.0
 20
0.0
 30
0.0
  9
$UCSYDIR
 10
0.0
 20
1.0
 30
0.0
  9
$UCSORTHOREF
  2

  9
$UCSORTHOVIEW
 70
     0
  9
$UCSORGTOP
 10
0.0
 20
0.0
 30
0.0
  9
$UCSORGBOTTOM
 10
0.0
 20
0.0
 30
0.0
  9
$UCSORGLEFT
 10
0.0
 20
0.0
 30
0.0
  9
$UCSORGRIGHT
 10
0.0
 20
0.0
 30
0.0
  9
$UCSORGFRONT
 10
0.0
 20
0.0
 30
0.0
  9
$UCSORGBACK
 10
0.0
 20
0.0
 30
0.0
  9
$PUCSBASE
  2

  9
$PUCSNAME
  2

  9
$PUCSORG
 10
0.0
 20
0.0
 30
0.0
  9
$PUCSXDIR
 10
1.0
 20
0.0
 30
0.0
  9
$PUCSYDIR
 10
0.0
 20
1.0
 30
0.0
  9
$PUCSORTHOREF
  2

  9
$PUCSORTHOVIEW
 70
     0
  9
$PUCSORGTOP
 10
0.0
 20
0.0
 30
0.0
  9
$PUCSORGBOTTOM
 10
0.0
 20
0.0
 30
0.0
  9
$PUCSORGLEFT
 10
0.0
 20
0.0
 30
0.0
  9
$PUCSORGRIGHT
 10
0.0
 20
0.0
 30
0.0
  9
$PUCSORGFRONT
 10
0.0
 20
0.0
 30
0.0
  9
$PUCSORGBACK
 10
0.0
 20
0.0
 30
0.0
  9
$USERI1
 70
     0
  9
$USERI2
 70
     0
  9
$USERI3
 70
     0
  9
$USERI4
 70
     0
  9
$USERI5
 70
     0
  9
$USERR1
 40
0.0
  9
$USERR2
 40
0.0
  9
$USERR3
 40
0.0
  9
$USERR4
 40
0.0
  9
$USERR5
 40
0.0
  9
$WORLDVIEW
 70
     1
  9
$SHADEDGE
 70
     3
  9
$SHADEDIF
 70
    70
  9
$TILEMODE
 70
     1
  9
$MAXACTVP
 70
    64
  9
$PINSBASE
 10
0.0
 20
0.0
 30
0.0
  9
$PLIMCHECK
 70
     0
  9
$PEXTMIN
 10
1.0000000000E+20
 20
1.0000000000E+20
 30
1.0000000000E+20
  9
$PEXTMAX
 10
-1.0000000000E+20
 20
-1.0000000000E+20
 30
-1.0000000000E+20
  9
$PLIMMIN
 10
0.0
 20
0.0
  9
$PLIMMAX
 10
12.0
 20
9.0
  9
$UNITMODE
 70
     0
  9
$VISRETAIN
 70
     1
  9
$PLINEGEN
 70
     0
  9
$PSLTSCALE
 70
     1
  9
$TREEDEPTH
 70
  3020
  9
$CMLSTYLE
  2
Standard
  9
$CMLJUST
 70
     0
  9
$CMLSCALE
 40
1.0
  9
$PROXYGRAPHICS
 70
     1
  9
$MEASUREMENT
 70
     0
  9
$CELWEIGHT
370
    -1
  9
$ENDCAPS
280
     0
  9
$JOINSTYLE
280
     0
  9
$LWDISPLAY
290
     1
  9
$INSUNITS
 70
     1
  9
$HYPERLINKBASE
  1

  9
$STYLESHEET
  1

  9
$XEDIT
290
     1
  9
$CEPSNTYPE
380
     0
  9
$PSTYLEMODE
290
     1
  9
$FINGERPRINTGUID
  2
{37886E9E-C1AD-4EF0-9CC4-9D39BAD154A2}
  9
$VERSIONGUID
  2
{FAEB1C32-E019-11D5-929B-00C0DF256EC4}
  9
$EXTNAMES
290
     1
  9
$PSVPSCALE
 40
0.0
  9
$OLESTARTUP
290
     0
  0
ENDSEC
  0
SECTION
  2
CLASSES
  0
CLASS
  1
ACDBDICTIONARYWDFLT
  2
AcDbDictionaryWithDefault
  3
ObjectDBX Classes
 90
        0
280
     0
281
     0
  0
CLASS
  1
VISUALSTYLE
  2
AcDbVisualStyle
  3
ObjectDBX Classes
 90
     4095
280
     0
281
     0
  0
CLASS
  1
MATERIAL
  2
AcDbMaterial
  3
ObjectDBX Classes
 90
     1153
280
     0
281
     0
  0
CLASS
  1
ACDBPLACEHOLDER
  2
AcDbPlaceHolder
  3
ObjectDBX Classes
 90
        0
280
     0
281
     0
  0
CLASS
  1
LAYOUT
  2
AcDbLayout
  3
ObjectDBX Classes
 90
        0
280
     0
281
     0
  0
ENDSEC
  0
SECTION
  2
TABLES
  0
TABLE
  2
VPORT
  5
8
330
0
100
AcDbSymbolTable
 70
     1
  0
VPORT
  5
29
330
8
100
AcDbSymbolTableRecord
100
AcDbViewportTableRecord
  2
*Active
 70
     0
 10
0.0
 20
0.0
 11
1.0
 21
1.0
 12
0.5596480861
 22
-0.813023656
 13
0.0
 23
0.0
 14
0.5
 24
0.5
 15
0.5
 25
0.5
 16
0.0
 26
0.0
 36
1.0
 17
0.0
 27
0.0
 37
0.0
 40
6.9364133689
 41
0.8297671107
 42
50.0
 43
0.0
 44
0.0
 50
0.0
 51
0.0
 71
     0
 72
   100
 73
     1
 74
     3
 75
     0
 76
     0
 77
     0
 78
     0
281
     0
 65
     1
110
0.0
120
0.0
130
0.0
111
1.0
121
0.0
131
0.0
112
0.0
122
1.0
132
0.0
 79
     0
146
0.0
  0
ENDTAB
  0
TABLE
  2
LTYPE
  5
5
330
0
100
AcDbSymbolTable
 70
     6
  0
LTYPE
  5
14
330
5
100
AcDbSymbolTableRecord
100
AcDbLinetypeTableRecord
  2
ByBlock
 70
     0
  3

 72
    65
 73
     0
 40
0.0
  0
LTYPE
  5
15
330
5
100
AcDbSymbolTableRecord
100
AcDbLinetypeTableRecord
  2
ByLayer
 70
     0
  3

 72
    65
 73
     0
 40
0.0
  0
LTYPE
  5
16
330
5
100
AcDbSymbolTableRecord
100
AcDbLinetypeTableRecord
  2
Continuous
 70
     0
  3
Solid line
 72
    65
 73
     0
 40
0.0
  0
LTYPE
  5
3F
330
5
100
AcDbSymbolTableRecord
100
AcDbLinetypeTableRecord
  2
HIDDEN
 70
     0
  3
Hidden __ __ __ __ __ __ __ __ __ __ __ __ __ __
 72
    65
 73
     2
 40
0.075
 49
0.05
 74
     0
 49
-0.025
 74
     0
  0
LTYPE
  5
40
330
5
100
AcDbSymbolTableRecord
100
AcDbLinetypeTableRecord
  2
PHANTOM
 70
     0
  3
Phantom ______  __  __  ______  __  __  ______
 72
    65
 73
     6
 40
0.5
 49
0.25
 74
     0
 49
-0.05
 74
     0
 49
0.05
 74
     0
 49
-0.05
 74
     0
 49
0.05
 74
     0
 49
-0.05
 74
     0
  0
LTYPE
  5
41
330
5
100
AcDbSymbolTableRecord
100
AcDbLinetypeTableRecord
  2
CENTER
 70
     0
  3
Center ____ _ ____ _ ____ _ ____ _ ____ _ ____
 72
    65
 73
     4
 40
0.4
 49
0.25
 74
     0
 49
-0.05
 74
     0
 49
0.05
 74
     0
 49
-0.05
 74
     0
  0
LTYPE
  5
42
330
5
100
AcDbSymbolTableRecord
100
AcDbLinetypeTableRecord
  2
CENTERX2
 70
     0
  3
Center (2x) ________  __  ________  __  _____
 72
    65
 73
     4
 40
0.8
 49
0.5
 74
     0
 49
-0.1
 74
     0
 49
0.1
 74
     0
 49
-0.1
 74
     0
  0
LTYPE
  5
43
330
5
100
AcDbSymbolTableRecord
100
AcDbLinetypeTableRecord
  2
DOT2
 70
     0
  3
Dot (.5x) ........................................
 72
    65
 73
     2
 40
0.025
 49
0.0
 74
     0
 49
-0.025
 74
     0
  0
ENDTAB
  0
TABLE
  2
LAYER
  5
2
330
0
100
AcDbSymbolTable
 70
     1
  0
LAYER
  5
10
330
2
100
AcDbSymbolTableRecord
100
AcDbLayerTableRecord
  2
0
 70
     0
 62
     7
  6
Continuous
370
    -3
390
F
  0
ENDTAB
  0
TABLE
  2
STYLE
  5
3
330
0
100
AcDbSymbolTable
 70
     1
  0
STYLE
  5
11
330
3
100
AcDbSymbolTableRecord
100
AcDbTextStyleTableRecord
  2
Standard
 70
     0
 40
0.0
 41
1.0
 50
0.0
 71
     0
 42
0.1377952756
  3
txt
  4

  0
ENDTAB
  0
TABLE
  2
VIEW
  5
6
330
0
100
AcDbSymbolTable
 70
     0
  0
ENDTAB
  0
TABLE
  2
UCS
  5
7
330
0
100
AcDbSymbolTable
 70
     0
  0
ENDTAB
  0
TABLE
  2
APPID
  5
9
330
0
100
AcDbSymbolTable
 70
     1
  0
APPID
  5
12
330
9
100
AcDbSymbolTableRecord
100
AcDbRegAppTableRecord
  2
ACAD
 70
     0
  0
ENDTAB
  0
TABLE
  2
DIMSTYLE
  5
A
330
0
100
AcDbSymbolTable
 70
     1
100
AcDbDimStyleTable
  0
DIMSTYLE
105
27
330
A
100
AcDbSymbolTableRecord
100
AcDbDimStyleTableRecord
  2
Standard
 70
     0
178
     0
340
11
  0
ENDTAB
  0
TABLE
  2
BLOCK_RECORD
  5
1
330
0
100
AcDbSymbolTable
 70
     1
  0
BLOCK_RECORD
  5
1F
330
1
100
AcDbSymbolTableRecord
100
AcDbBlockTableRecord
  2
*Model_Space
340
22
  0
BLOCK_RECORD
  5
1B
330
1
100
AcDbSymbolTableRecord
100
AcDbBlockTableRecord
  2
*Paper_Space
340
1E
  0
BLOCK_RECORD
  5
23
330
1
100
AcDbSymbolTableRecord
100
AcDbBlockTableRecord
  2
*Paper_Space0
340
26
  0
ENDTAB
  0
ENDSEC
  0
SECTION
  2
BLOCKS
  0
BLOCK
  5
20
330
1F
100
AcDbEntity
  8
0
100
AcDbBlockBegin
  2
*Model_Space
 70
     0
 10
0.0
 20
0.0
 30
0.0
  3
*Model_Space
  1

  0
ENDBLK
  5
21
330
1F
100
AcDbEntity
  8
0
100
AcDbBlockEnd
  0
BLOCK
  5
1C
330
1B
100
AcDbEntity
 67
     1
  8
0
100
AcDbBlockBegin
  2
*Paper_Space
 70
     0
 10
0.0
 20
0.0
 30
0.0
  3
*Paper_Space
  1

  0
ENDBLK
  5
1D
330
1B
100
AcDbEntity
 67
     1
  8
0
100
AcDbBlockEnd
  0
BLOCK
  5
24
330
23
100
AcDbEntity
  8
0
100
AcDbBlockBegin
  2
*Paper_Space0
 70
     0
 10
0.0
 20
0.0
 30
0.0
  3
*Paper_Space0
  1

  0
ENDBLK
  5
25
330
23
100
AcDbEntity
  8
0
100
AcDbBlockEnd
  0
ENDSEC
  0
SECTION
  2
ENTITIES
  0
LINE
  5
2EF
330
1F
100
AcDbEntity
  8
0
  6
Continuous
 62
     7
370
    15
100
AcDbLine
 10
-0.6501355885
 20
-0.547041198
 30
0.0
 11
-0.6253531696
 21
-0.5653894558
 31
0.0
  0
LINE
  5
2F0
330
1F
100
AcDbEntity
  8
0
  6
Continuous
 62
     7
370
    15
100
AcDbLine
 10
-0.6253531696
 20
-0.5653894558
 30
0.0
 11
-0.5999304059
 21
-0.5828413098
 31
0.0
  0
LINE
  5
2F1
330
1F
100
AcDbEntity
  8
0
  6
Continuous
 62
     7
370
    15
100
AcDbLine
 10
-0.5999304059
 20
-0.5828413098
 30
0.0
 11
-0.5738950049
 21
-0.5993670532
 31
0.0
  0
LINE
  5
2F2
330
1F
100
AcDbEntity
  8
0
  6
Continuous
 62
     7
370
    15
100
AcDbLine
 10
-0.5738950049
 20
-0.5993670532
 30
0.0
 11
-0.5472761864
 21
-0.6149375351
 31
0.0
  0
LINE
  5
2F3
330
1F
100
AcDbEntity
  8
0
  6
Continuous
 62
     7
370
    15
100
AcDbLine
 10
-0.5472761864
 20
-0.6149375351
 30
0.0
 11
-0.5201046977
 21
-0.62952423
 31
0.0
  0
LINE
  5
2F4
330
1F
100
AcDbEntity
  8
0
  6
Continuous
 62
     7
370
    15
100
AcDbLine
 10
-0.5201046977
 20
-0.62952423
 30
0.0
 11
-0.4924128266
 21
-0.6430993092
 31
0.0
  0
LINE
  5
2F5
330
1F
100
AcDbEntity
  8
0
  6
Continuous
 62
     7
370
    15
100
AcDbLine
 10
-0.4924128266
 20
-0.6430993092
 30
0.0
 11
-0.4642344121
 21
-0.6556357154
 31
0.0
  0
LINE
  5
2F6
330
1F
100
AcDbEntity
  8
0
  6
Continuous
 62
     7
370
    15
100
AcDbLine
 10
-0.4642344121
 20
-0.6556357154
 30
0.0
 11
-0.4356048525
 21
-0.6671072407
 31
0.0
  0
LINE
  5
2F7
330
1F
100
AcDbEntity
  8
0
  6
Continuous
 62
     7
370
    15
100
AcDbLine
 10
-0.4356048525
 20
-0.6671072407
 30
0.0
 11
-0.4065611108
 21
-0.6774886061
 31
0.0
  0
LINE
  5
2F8
330
1F
100
AcDbEntity
  8
0
  6
Continuous
 62
     7
370
    15
100
AcDbLine
 10
-0.4065611108
 20
-0.6774886061
 30
0.0
 11
-0.3771417178
 21
-0.6867555452
 31
0.0
  0
LINE
  5
2F9
330
1F
100
AcDbEntity
  8
0
  6
Continuous
 62
     7
370
    15
100
AcDbLine
 10
-0.3771417178
 20
-0.6867555452
 30
0.0
 11
-0.3473867707
 21
-0.6948848901
 31
0.0
  0
LINE
  5
2FA
330
1F
100
AcDbEntity
  8
0
  6
Continuous
 62
     7
370
    15
100
AcDbLine
 10
-0.3473867707
 20
-0.6948848901
 30
0.0
 11
-0.3173379299
 21
-0.7018546602
 31
0.0
  0
LINE
  5
2FB
330
1F
100
AcDbEntity
  8
0
  6
Continuous
 62
     7
370
    15
100
AcDbLine
 10
-0.3173379299
 20
-0.7018546602
 30
0.0
 11
-0.2870384109
 21
-0.7076441538
 31
0.0
  0
LINE
  5
2FC
330
1F
100
AcDbEntity
  8
0
  6
Continuous
 62
     7
370
    15
100
AcDbLine
 10
-0.2870384109
 20
-0.7076441538
 30
0.0
 11
-0.2565329727
 21
-0.712234043
 31
0.0
  0
LINE
  5
2FD
330
1F
100
AcDbEntity
  8
0
  6
Continuous
 62
     7
370
    15
100
AcDbLine
 10
-0.2565329727
 20
-0.712234043
 30
0.0
 11
-0.2258679022
 21
-0.7156064706
 31
0.0
  0
LINE
  5
2FE
330
1F
100
AcDbEntity
  8
0
  6
Continuous
 62
     7
370
    15
100
AcDbLine
 10
-0.2258679022
 20
-0.7156064706
 30
0.0
 11
-0.1950909939
 21
-0.7177451505
 31
0.0
  0
LINE
  5
2FF
330
1F
100
AcDbEntity
  8
0
  6
Continuous
 62
     7
370
    15
100
AcDbLine
 10
-0.1950909939
 20
-0.7177451505
 30
0.0
 11
-0.1642515244
 21
-0.7186354702
 31
0.0
  0
LINE
  5
300
330
1F
100
AcDbEntity
  8
0
  6
Continuous
 62
     7
370
    15
100
AcDbLine
 10
-0.1642515244
 20
-0.7186354702
 30
0.0
 11
-0.1334002225
 21
-0.7182645961
 31
0.0
  0
LINE
  5
301
330
1F
100
AcDbEntity
  8
0
  6
Continuous
 62
     7
370
    15
100
AcDbLine
 10
-0.1334002225
 20
-0.7182645961
 30
0.0
 11
-0.1025892331
 21
-0.7166215816
 31
0.0
  0
LINE
  5
302
330
1F
100
AcDbEntity
  8
0
  6
Continuous
 62
     7
370
    15
100
AcDbLine
 10
-0.1025892331
 20
-0.7166215816
 30
0.0
 11
-0.0718720757
 21
-0.7136974766
 31
0.0
  0
LINE
  5
303
330
1F
100
AcDbEntity
  8
0
  6
Continuous
 62
     7
370
    15
100
AcDbLine
 10
-0.0718720757
 20
-0.7136974766
 30
0.0
 11
-0.0413035966
 21
-0.7094854405
 31
0.0
  0
LINE
  5
304
330
1F
100
AcDbEntity
  8
0
  6
Continuous
 62
     7
370
    15
100
AcDbLine
 10
-0.0413035966
 20
-0.7094854405
 30
0.0
 11
-0.0109399143
 21
-0.7039808562
 31
0.0
  0
LINE
  5
305
330
1F
100
AcDbEntity
  8
0
  6
Continuous
 62
     7
370
    15
100
AcDbLine
 10
-0.0109399143
 20
-0.7039808562
 30
0.0
 11
0.0191616417
 21
-0.6971814466
 31
0.0
  0
LINE
  5
306
330
1F
100
AcDbEntity
  8
0
  6
Continuous
 62
     7
370
    15
100
AcDbLine
 10
0.0191616417
 20
-0.6971814466
 30
0.0
 11
0.0489426003
 21
-0.6890873922
 31
0.0
  0
LINE
  5
307
330
1F
100
AcDbEntity
  8
0
  6
Continuous
 62
     7
370
    15
100
AcDbLine
 10
0.0489426003
 20
-0.6890873922
 30
0.0
 11
0.0783434246
 21
-0.6797014508
 31
0.0
  0
LINE
  5
308
330
1F
100
AcDbEntity
  8
0
  6
Continuous
 62
     7
370
    15
100
AcDbLine
 10
0.0783434246
 20
-0.6797014508
 30
0.0
 11
0.1073035977
 21
-0.6690290774
 31
0.0
  0
LINE
  5
309
330
1F
100
AcDbEntity
  8
0
  6
Continuous
 62
     7
370
    15
100
AcDbLine
 10
0.1073035977
 20
-0.6690290774
 30
0.0
 11
0.1357617156
 21
-0.6570785455
 31
0.0
  0
LINE
  5
30A
330
1F
100
AcDbEntity
  8
0
  6
Continuous
 62
     7
370
    15
100
AcDbLine
 10
0.1357617156
 20
-0.6570785455
 30
0.0
 11
0.1636555905
 21
-0.643861069
 31
0.0
  0
LINE
  5
30B
330
1F
100
AcDbEntity
  8
0
  6
Continuous
 62
     7
370
    15
100
AcDbLine
 10
0.1636555905
 20
-0.643861069
 30
0.0
 11
0.1909223629
 21
-0.6293909233
 31
0.0
  0
LINE
  5
30C
330
1F
100
AcDbEntity
  8
0
  6
Continuous
 62
     7
370
    15
100
AcDbLine
 10
0.1909223629
 20
-0.6293909233
 30
0.0
 11
0.2174986244
 21
-0.6136855665
 31
0.0
  0
LINE
  5
30D
330
1F
100
AcDbEntity
  8
0
  6
Continuous
 62
     7
370
    15
100
AcDbLine
 10
0.2174986244
 20
-0.6136855665
 30
0.0
 11
0.2433205506
 21
-0.5967657598
 31
0.0
  0
LINE
  5
30E
330
1F
100
AcDbEntity
  8
0
  6
Continuous
 62
     7
370
    15
100
AcDbLine
 10
0.2433205506
 20
-0.5967657598
 30
0.0
 11
0.2683240454
 21
-0.5786556861
 31
0.0
  0
LINE
  5
30F
330
1F
100
AcDbEntity
  8
0
  6
Continuous
 62
     7
370
    15
100
AcDbLine
 10
0.2683240454
 20
-0.5786556861
 30
0.0
 11
0.2924448968
 21
-0.5593830664
 31
0.0
  0
LINE
  5
310
330
1F
100
AcDbEntity
  8
0
  6
Continuous
 62
     7
370
    15
100
AcDbLine
 10
0.2924448968
 20
-0.5593830664
 30
0.0
 11
0.3156189449
 21
-0.5389792737
 31
0.0
  0
LINE
  5
311
330
1F
100
AcDbEntity
  8
0
  6
Continuous
 62
     7
370
    15
100
AcDbLine
 10
0.3156189449
 20
-0.5389792737
 30
0.0
 11
0.3377822622
 21
-0.5174794433
 31
0.0
  0
LINE
  5
312
330
1F
100
AcDbEntity
  8
0
  6
Continuous
 62
     7
370
    15
100
AcDbLine
 10
0.3377822622
 20
-0.5174794433
 30
0.0
 11
0.3588713472
 21
-0.4949225785
 31
0.0
  0
LINE
  5
313
330
1F
100
AcDbEntity
  8
0
  6
Continuous
 62
     7
370
    15
100
AcDbLine
 10
0.3588713472
 20
-0.4949225785
 30
0.0
 11
0.3788233315
 21
-0.4713516515
 31
0.0
  0
LINE
  5
314
330
1F
100
AcDbEntity
  8
0
  6
Continuous
 62
     7
370
    15
100
AcDbLine
 10
0.3788233315
 20
-0.4713516515
 30
0.0
 11
0.3975762009
 21
-0.4468136978
 31
0.0
  0
LINE
  5
315
330
1F
100
AcDbEntity
  8
0
  6
Continuous
 62
     7
370
    15
100
AcDbLine
 10
0.3975762009
 20
-0.4468136978
 30
0.0
 11
0.4150690305
 21
-0.4213599034
 31
0.0
  0
LINE
  5
316
330
1F
100
AcDbEntity
  8
0
  6
Continuous
 62
     7
370
    15
100
AcDbLine
 10
0.4150690305
 20
-0.4213599034
 30
0.0
 11
0.4312422359
 21
-0.3950456834
 31
0.0
  0
LINE
  5
317
330
1F
100
AcDbEntity
  8
0
  6
Continuous
 62
     7
370
    15
100
AcDbLine
 10
0.4312422359
 20
-0.3950456834
 30
0.0
 11
0.4460378378
 21
-0.3679307514
 31
0.0
  0
LINE
  5
318
330
1F
100
AcDbEntity
  8
0
  6
Continuous
 62
     7
370
    15
100
AcDbLine
 10
0.4460378378
 20
-0.3679307514
 30
0.0
 11
0.4593997442
 21
-0.3400791771
 31
0.0
  0
LINE
  5
319
330
1F
100
AcDbEntity
  8
0
  6
Continuous
 62
     7
370
    15
100
AcDbLine
 10
0.4593997442
 20
-0.3400791771
 30
0.0
 11
0.4712740468
 21
-0.3115594324
 31
0.0
  0
LINE
  5
31A
330
1F
100
AcDbEntity
  8
0
  6
Continuous
 62
     7
370
    15
100
AcDbLine
 10
0.4712740468
 20
-0.3115594324
 30
0.0
 11
0.4816093344
 21
-0.2824444223
 31
0.0
  0
LINE
  5
31B
330
1F
100
AcDbEntity
  8
0
  6
Continuous
 62
     7
370
    15
100
AcDbLine
 10
0.4816093344
 20
-0.2824444223
 30
0.0
 11
0.4903570224
 21
-0.2528115007
 31
0.0
  0
LINE
  5
31C
330
1F
100
AcDbEntity
  8
0
  6
Continuous
 62
     7
370
    15
100
AcDbLine
 10
0.4903570224
 20
-0.2528115007
 30
0.0
 11
0.4974716986
 21
-0.2227424684
 31
0.0
  0
LINE
  5
31D
330
1F
100
AcDbEntity
  8
0
  6
Continuous
 62
     7
370
    15
100
AcDbLine
 10
0.4974716986
 20
-0.2227424684
 30
0.0
 11
0.5029114855
 21
-0.1923235515
 31
0.0
  0
LINE
  5
31E
330
1F
100
AcDbEntity
  8
0
  6
Continuous
 62
     7
370
    15
100
AcDbLine
 10
0.5029114855
 20
-0.1923235515
 30
0.0
 11
0.5066384182
 21
-0.1616453573
 31
0.0
  0
LINE
  5
31F
330
1F
100
AcDbEntity
  8
0
  6
Continuous
 62
     7
370
    15
100
AcDbLine
 10
0.5066384182
 20
-0.1616453573
 30
0.0
 11
0.5086188387
 21
-0.1308028075
 31
0.0
  0
LINE
  5
320
330
1F
100
AcDbEntity
  8
0
  6
Continuous
 62
     7
370
    15
100
AcDbLine
 10
0.5086188387
 20
-0.1308028075
 30
0.0
 11
0.5088238061
 21
-0.0998950435
 31
0.0
  0
LINE
  5
321
330
1F
100
AcDbEntity
  8
0
  6
Continuous
 62
     7
370
    15
100
AcDbLine
 10
0.5088238061
 20
-0.0998950435
 30
0.0
 11
0.50722952
 21
-0.0690253037
 31
0.0
  0
LINE
  5
322
330
1F
100
AcDbEntity
  8
0
  6
Continuous
 62
     7
370
    15
100
AcDbLine
 10
0.50722952
 20
-0.0690253037
 30
0.0
 11
0.5038177602
 21
-0.0383007681
 31
0.0
  0
LINE
  5
323
330
1F
100
AcDbEntity
  8
0
  6
Continuous
 62
     7
370
    15
100
AcDbLine
 10
0.5038177602
 20
-0.0383007681
 30
0.0
 11
0.4985763372
 21
-0.0078323689
 31
0.0
  0
LINE
  5
324
330
1F
100
AcDbEntity
  8
0
  6
Continuous
 62
     7
370
    15
100
AcDbLine
 10
0.4985763372
 20
-0.0078323689
 30
0.0
 11
0.491499556
 21
0.0222654369
 31
0.0
  0
LINE
  5
325
330
1F
100
AcDbEntity
  8
0
  6
Continuous
 62
     7
370
    15
100
AcDbLine
 10
0.491499556
 20
0.0222654369
 30
0.0
 11
0.4825886888
 21
0.0518749367
 31
0.0
  0
LINE
  5
326
330
1F
100
AcDbEntity
  8
0
  6
Continuous
 62
     7
370
    15
100
AcDbLine
 10
0.4825886888
 20
0.0518749367
 30
0.0
 11
0.4718524564
 21
0.0808754747
 31
0.0
  0
LINE
  5
327
330
1F
100
AcDbEntity
  8
0
  6
Continuous
 62
     7
370
    15
100
AcDbLine
 10
0.4718524564
 20
0.0808754747
 30
0.0
 11
0.4593075156
 21
0.1091438134
 31
0.0
  0
LINE
  5
328
330
1F
100
AcDbEntity
  8
0
  6
Continuous
 62
     7
370
    15
100
AcDbLine
 10
0.4593075156
 20
0.1091438134
 30
0.0
 11
0.4449789482
 21
0.1365545458
 31
0.0
  0
LINE
  5
329
330
1F
100
AcDbEntity
  8
0
  6
Continuous
 62
     7
370
    15
100
AcDbLine
 10
0.4449789482
 20
0.1365545458
 30
0.0
 11
0.4289007517
 21
0.1629805644
 31
0.0
  0
LINE
  5
32A
330
1F
100
AcDbEntity
  8
0
  6
Continuous
 62
     7
370
    15
100
AcDbLine
 10
0.4289007517
 20
0.1629805644
 30
0.0
 11
0.4111163241
 21
0.188293588
 31
0.0
  0
LINE
  5
32B
330
1F
100
AcDbEntity
  8
0
  6
Continuous
 62
     7
370
    15
100
AcDbLine
 10
0.4111163241
 20
0.188293588
 30
0.0
 11
0.3916789415
 21
0.2123647533
 31
0.0
  0
LINE
  5
32C
330
1F
100
AcDbEntity
  8
0
  6
Continuous
 62
     7
370
    15
100
AcDbLine
 10
0.3916789415
 20
0.2123647533
 30
0.0
 11
0.3706522216
 21
0.235065273
 31
0.0
  0
LINE
  5
32D
330
1F
100
AcDbEntity
  8
0
  6
Continuous
 62
     7
370
    15
100
AcDbLine
 10
0.3706522216
 20
0.235065273
 30
0.0
 11
0.3481105678
 21
0.2562671658
 31
0.0
  0
LINE
  5
32E
330
1F
100
AcDbEntity
  8
0
  6
Continuous
 62
     7
370
    15
100
AcDbLine
 10
0.3481105678
 20
0.2562671658
 30
0.0
 11
0.324139588
 21
0.2758440618
 31
0.0
  0
LINE
  5
32F
330
1F
100
AcDbEntity
  8
0
  6
Continuous
 62
     7
370
    15
100
AcDbLine
 10
0.324139588
 20
0.2758440618
 30
0.0
 11
0.2988364792
 21
0.293672087
 31
0.0
  0
LINE
  5
330
330
1F
100
AcDbEntity
  8
0
  6
Continuous
 62
     7
370
    15
100
AcDbLine
 10
0.2988364792
 20
0.293672087
 30
0.0
 11
0.2723103709
 21
0.309630831
 31
0.0
  0
LINE
  5
331
330
1F
100
AcDbEntity
  8
0
  6
Continuous
 62
     7
370
    15
100
AcDbLine
 10
0.2723103709
 20
0.309630831
 30
0.0
 11
0.244682616
 21
0.3236044006
 31
0.0
  0
LINE
  5
332
330
1F
100
AcDbEntity
  8
0
  6
Continuous
 62
     7
370
    15
100
AcDbLine
 10
0.244682616
 20
0.3236044006
 30
0.0
 11
0.2160870207
 21
0.3354825629
 31
0.0
  0
LINE
  5
333
330
1F
100
AcDbEntity
  8
0
  6
Continuous
 62
     7
370
    15
100
AcDbLine
 10
0.2160870207
 20
0.3354825629
 30
0.0
 11
0.1866699986
 21
0.3451619803
 31
0.0
  0
LINE
  5
334
330
1F
100
AcDbEntity
  8
0
  6
Continuous
 62
     7
370
    15
100
AcDbLine
 10
0.1866699986
 20
0.3451619803
 30
0.0
 11
0.156590638
 21
0.3525475377
 31
0.0
  0
LINE
  5
335
330
1F
100
AcDbEntity
  8
0
  6
Continuous
 62
     7
370
    15
100
AcDbLine
 10
0.156590638
 20
0.3525475377
 30
0.0
 11
0.1260206659
 21
0.3575537644
 31
0.0
  0
LINE
  5
336
330
1F
100
AcDbEntity
  8
0
  6
Continuous
 62
     7
370
    15
100
AcDbLine
 10
0.1260206659
 20
0.3575537644
 30
0.0
 11
0.0951442927
 21
0.3601063495
 31
0.0
  0
LINE
  5
337
330
1F
100
AcDbEntity
  8
0
  6
Continuous
 62
     7
370
    15
100
AcDbLine
 10
0.0951442927
 20
0.3601063495
 30
0.0
 11
0.0641579192
 21
0.3601437479
 31
0.0
  0
LINE
  5
338
330
1F
100
AcDbEntity
  8
0
  6
Continuous
 62
     7
370
    15
100
AcDbLine
 10
0.0641579192
 20
0.3601437479
 30
0.0
 11
0.0332696861
 21
0.3576188751
 31
0.0
  0
LINE
  5
339
330
1F
100
AcDbEntity
  8
0
  6
Continuous
 62
     7
370
    15
100
AcDbLine
 10
0.0332696861
 20
0.3576188751
 30
0.0
 11
0.0026988436
 21
0.3525008827
 31
0.0
  0
LINE
  5
33A
330
1F
100
AcDbEntity
  8
0
  6
Continuous
 62
     7
370
    15
100
AcDbLine
 10
0.0026988436
 20
0.3525008827
 30
0.0
 11
-0.0273250825
 21
0.344777008
 31
0.0
  0
LINE
  5
33B
330
1F
100
AcDbEntity
  8
0
  6
Continuous
 62
     7
370
    15
100
AcDbLine
 10
-0.0273250825
 20
0.344777008
 30
0.0
 11
-0.0565633532
 21
0.3344544851
 31
0.0
  0
LINE
  5
33C
330
1F
100
AcDbEntity
  8
0
  6
Continuous
 62
     7
370
    15
100
AcDbLine
 10
-0.0565633532
 20
0.3344544851
 30
0.0
 11
-0.0847693362
 21
0.3215625013
 31
0.0
  0
LINE
  5
33D
330
1F
100
AcDbEntity
  8
0
  6
Continuous
 62
     7
370
    15
100
AcDbLine
 10
-0.0847693362
 20
0.3215625013
 30
0.0
 11
-0.1116901116
 21
0.3061541808
 31
0.0
  0
LINE
  5
33E
330
1F
100
AcDbEntity
  8
0
  6
Continuous
 62
     7
370
    15
100
AcDbLine
 10
-0.1116901116
 20
0.3061541808
 30
0.0
 11
-0.1370683943
 21
0.2883085691
 31
0.0
  0
LINE
  5
33F
330
1F
100
AcDbEntity
  8
0
  6
Continuous
 62
     7
370
    15
100
AcDbLine
 10
-0.1370683943
 20
0.2883085691
 30
0.0
 11
-0.1606448063
 21
0.2681325864
 31
0.0
  0
LINE
  5
340
330
1F
100
AcDbEntity
  8
0
  6
Continuous
 62
     7
370
    15
100
AcDbLine
 10
-0.1606448063
 20
0.2681325864
 30
0.0
 11
-0.1821605303
 21
0.2457629133
 31
0.0
  0
LINE
  5
341
330
1F
100
AcDbEntity
  8
0
  6
Continuous
 62
     7
370
    15
100
AcDbLine
 10
-0.1821605303
 20
0.2457629133
 30
0.0
 11
-0.2013603796
 21
0.2213677601
 31
0.0
  0
LINE
  5
342
330
1F
100
AcDbEntity
  8
0
  6
Continuous
 62
     7
370
    15
100
AcDbLine
 10
-0.2013603796
 20
0.2213677601
 30
0.0
 11
-0.2179963154
 21
0.1951484639
 31
0.0
  0
LINE
  5
343
330
1F
100
AcDbEntity
  8
0
  6
Continuous
 62
     7
370
    15
100
AcDbLine
 10
-0.2179963154
 20
0.1951484639
 30
0.0
 11
-0.2318314426
 21
0.1673408456
 31
0.0
  0
LINE
  5
344
330
1F
100
AcDbEntity
  8
0
  6
Continuous
 62
     7
370
    15
100
AcDbLine
 10
-0.2318314426
 20
0.1673408456
 30
0.0
 11
-0.2426445123
 21
0.138216247
 31
0.0
  0
LINE
  5
345
330
1F
100
AcDbEntity
  8
0
  6
Continuous
 62
     7
370
    15
100
AcDbLine
 10
-0.2426445123
 20
0.138216247
 30
0.0
 11
-0.2502349505
 21
0.108082152
 31
0.0
  0
LINE
  5
346
330
1F
100
AcDbEntity
  8
0
  6
Continuous
 62
     7
370
    15
100
AcDbLine
 10
-0.2502349505
 20
0.108082152
 30
0.0
 11
-0.2544284289
 21
0.077282282
 31
0.0
  0
LINE
  5
347
330
1F
100
AcDbEntity
  8
0
  6
Continuous
 62
     7
370
    15
100
AcDbLine
 10
-0.2544284289
 20
0.077282282
 30
0.0
 11
-0.2550829793
 21
0.0461960374
 31
0.0
  0
LINE
  5
348
330
1F
100
AcDbEntity
  8
0
  6
Continuous
 62
     7
370
    15
100
AcDbLine
 10
-0.2550829793
 20
0.0461960374
 30
0.0
 11
-0.2520956373
 21
0.0152371341
 31
0.0
  0
LINE
  5
349
330
1F
100
AcDbEntity
  8
0
  6
Continuous
 62
     7
370
    15
100
AcDbLine
 10
-0.2520956373
 20
0.0152371341
 30
0.0
 11
-0.2454095818
 21
-0.0151487312
 31
0.0
  0
LINE
  5
34A
330
1F
100
AcDbEntity
  8
0
  6
Continuous
 62
     7
370
    15
100
AcDbLine
 10
-0.2454095818
 20
-0.0151487312
 30
0.0
 11
-0.235021707
 21
-0.0444873809
 31
0.0
  0
LINE
  5
34B
330
1F
100
AcDbEntity
  8
0
  6
Continuous
 62
     7
370
    15
100
AcDbLine
 10
-0.235021707
 20
-0.0444873809
 30
0.0
 11
-0.2209905281
 21
-0.0722810361
 31
0.0
  0
LINE
  5
34C
330
1F
100
AcDbEntity
  8
0
  6
Continuous
 62
     7
370
    15
100
AcDbLine
 10
-0.2209905281
 20
-0.0722810361
 30
0.0
 11
-0.2034442766
 21
-0.0980148113
 31
0.0
  0
LINE
  5
34D
330
1F
100
AcDbEntity
  8
0
  6
Continuous
 62
     7
370
    15
100
AcDbLine
 10
-0.2034442766
 20
-0.0980148113
 30
0.0
 11
-0.1825889778
 21
-0.1211650813
 31
0.0
  0
LINE
  5
34E
330
1F
100
AcDbEntity
  8
0
  6
Continuous
 62
     7
370
    15
100
AcDbLine
 10
-0.1825889778
 20
-0.1211650813
 30
0.0
 11
-0.1587162344
 21
-0.1412099918
 31
0.0
  0
LINE
  5
34F
330
1F
100
AcDbEntity
  8
0
  6
Continuous
 62
     7
370
    15
100
AcDbLine
 10
-0.1587162344
 20
-0.1412099918
 30
0.0
 11
-0.132210341
 21
-0.1576423892
 31
0.0
  0
LINE
  5
350
330
1F
100
AcDbEntity
  8
0
  6
Continuous
 62
     7
370
    15
100
AcDbLine
 10
-0.132210341
 20
-0.1576423892
 30
0.0
 11
-0.1035542446
 21
-0.1699854428
 31
0.0
  0
LINE
  5
351
330
1F
100
AcDbEntity
  8
0
  6
Continuous
 62
     7
370
    15
100
AcDbLine
 10
-0.1035542446
 20
-0.1699854428
 30
0.0
 11
-0.0733337238
 21
-0.1778111977
 31
0.0
  0
LINE
  5
352
330
1F
100
AcDbEntity
  8
0
  6
Continuous
 62
     7
370
    15
100
AcDbLine
 10
-0.0733337238
 20
-0.1778111977
 30
0.0
 11
-0.042238991
 21
-0.1807622442
 31
0.0
  0
LINE
  5
353
330
1F
100
AcDbEntity
  8
0
  6
Continuous
 62
     7
370
    15
100
AcDbLine
 10
-0.042238991
 20
-0.1807622442
 30
0.0
 11
-0.0110627268
 21
-0.178576579
 31
0.0
  0
LINE
  5
354
330
1F
100
AcDbEntity
  8
0
  6
Continuous
 62
     7
370
    15
100
AcDbLine
 10
-0.0110627268
 20
-0.178576579
 30
0.0
 11
0.0193066786
 21
-0.1711155703
 31
0.0
  0
LINE
  5
355
330
1F
100
AcDbEntity
  8
0
  6
Continuous
 62
     7
370
    15
100
AcDbLine
 10
0.0193066786
 20
-0.1711155703
 30
0.0
 11
0.0478981529
 21
-0.1583946764
 31
0.0
  0
LINE
  5
356
330
1F
100
AcDbEntity
  8
0
  6
Continuous
 62
     7
370
    15
100
AcDbLine
 10
0.0478981529
 20
-0.1583946764
 30
0.0
 11
0.0736789947
 21
-0.1406161882
 31
0.0
  0
LINE
  5
357
330
1F
100
AcDbEntity
  8
0
  6
Continuous
 62
     7
370
    15
100
AcDbLine
 10
0.0736789947
 20
-0.1406161882
 30
0.0
 11
0.0955859728
 21
-0.1182027121
 31
0.0
  0
LINE
  5
358
330
1F
100
AcDbEntity
  8
0
  6
Continuous
 62
     7
370
    15
100
AcDbLine
 10
0.0955859728
 20
-0.1182027121
 30
0.0
 11
0.1125687223
 21
-0.0918293347
 31
0.0
  0
LINE
  5
359
330
1F
100
AcDbEntity
  8
0
  6
Continuous
 62
     7
370
    15
100
AcDbLine
 10
0.1125687223
 20
-0.0918293347
 30
0.0
 11
0.1236477982
 21
-0.0624513344
 31
0.0
  0
LINE
  5
35A
330
1F
100
AcDbEntity
  8
0
  6
Continuous
 62
     7
370
    15
100
AcDbLine
 10
0.1236477982
 20
-0.0624513344
 30
0.0
 11
0.1279896214
 21
-0.0313228511
 31
0.0
  0
LINE
  5
35B
330
1F
100
AcDbEntity
  8
0
  6
Continuous
 62
     7
370
    15
100
AcDbLine
 10
0.1279896214
 20
-0.0313228511
 30
0.0
 11
0.125
 21
0.0
 31
0.0
  0
LINE
  5
35C
330
1F
100
AcDbEntity
  8
0
  6
Continuous
 62
     7
370
    15
100
AcDbLine
 10
0.125
 20
0.0
 30
0.0
 11
0.1257785924
 21
-0.0307817468
 31
0.0
  0
LINE
  5
35D
330
1F
100
AcDbEntity
  8
0
  6
Continuous
 62
     7
370
    15
100
AcDbLine
 10
0.1257785924
 20
-0.0307817468
 30
0.0
 11
0.1193472114
 21
-0.0608799729
 31
0.0
  0
LINE
  5
35E
330
1F
100
AcDbEntity
  8
0
  6
Continuous
 62
     7
370
    15
100
AcDbLine
 10
0.1193472114
 20
-0.0608799729
 30
0.0
 11
0.1062912815
 21
-0.0887367712
 31
0.0
  0
LINE
  5
35F
330
1F
100
AcDbEntity
  8
0
  6
Continuous
 62
     7
370
    15
100
AcDbLine
 10
0.1062912815
 20
-0.0887367712
 30
0.0
 11
0.0874720479
 21
-0.1130582138
 31
0.0
  0
LINE
  5
360
330
1F
100
AcDbEntity
  8
0
  6
Continuous
 62
     7
370
    15
100
AcDbLine
 10
0.0874720479
 20
-0.1130582138
 30
0.0
 11
0.0639409067
 21
-0.1328385201
 31
0.0
  0
LINE
  5
361
330
1F
100
AcDbEntity
  8
0
  6
Continuous
 62
     7
370
    15
100
AcDbLine
 10
0.0639409067
 20
-0.1328385201
 30
0.0
 11
0.036861512
 21
-0.1473643144
 31
0.0
  0
LINE
  5
362
330
1F
100
AcDbEntity
  8
0
  6
Continuous
 62
     7
370
    15
100
AcDbLine
 10
0.036861512
 20
-0.1473643144
 30
0.0
 11
0.007441982
 21
-0.1562037751
 31
0.0
  0
LINE
  5
363
330
1F
100
AcDbEntity
  8
0
  6
Continuous
 62
     7
370
    15
100
AcDbLine
 10
0.007441982
 20
-0.1562037751
 30
0.0
 11
-0.0231217635
 21
-0.1591849572
 31
0.0
  0
LINE
  5
364
330
1F
100
AcDbEntity
  8
0
  6
Continuous
 62
     7
370
    15
100
AcDbLine
 10
-0.0231217635
 20
-0.1591849572
 30
0.0
 11
-0.0536914258
 21
-0.1563669406
 31
0.0
  0
LINE
  5
365
330
1F
100
AcDbEntity
  8
0
  6
Continuous
 62
     7
370
    15
100
AcDbLine
 10
-0.0536914258
 20
-0.1563669406
 30
0.0
 11
-0.0832210275
 21
-0.1480068136
 31
0.0
  0
LINE
  5
366
330
1F
100
AcDbEntity
  8
0
  6
Continuous
 62
     7
370
    15
100
AcDbLine
 10
-0.0832210275
 20
-0.1480068136
 30
0.0
 11
-0.1107818072
 21
-0.1345248864
 31
0.0
  0
LINE
  5
367
330
1F
100
AcDbEntity
  8
0
  6
Continuous
 62
     7
370
    15
100
AcDbLine
 10
-0.1107818072
 20
-0.1345248864
 30
0.0
 11
-0.135578445
 21
-0.116469972
 31
0.0
  0
LINE
  5
368
330
1F
100
AcDbEntity
  8
0
  6
Continuous
 62
     7
370
    15
100
AcDbLine
 10
-0.135578445
 20
-0.116469972
 30
0.0
 11
-0.1569578553
 21
-0.094486091
 31
0.0
  0
LINE
  5
369
330
1F
100
AcDbEntity
  8
0
  6
Continuous
 62
     7
370
    15
100
AcDbLine
 10
-0.1569578553
 20
-0.094486091
 30
0.0
 11
-0.1744117851
 21
-0.0692815505
 31
0.0
  0
LINE
  5
36A
330
1F
100
AcDbEntity
  8
0
  6
Continuous
 62
     7
370
    15
100
AcDbLine
 10
-0.1744117851
 20
-0.0692815505
 30
0.0
 11
-0.1875744033
 21
-0.0416010111
 31
0.0
  0
LINE
  5
36B
330
1F
100
AcDbEntity
  8
0
  6
Continuous
 62
     7
370
    15
100
AcDbLine
 10
-0.1875744033
 20
-0.0416010111
 30
0.0
 11
-0.1962159726
 21
-0.0122008923
 31
0.0
  0
LINE
  5
36C
330
1F
100
AcDbEntity
  8
0
  6
Continuous
 62
     7
370
    15
100
AcDbLine
 10
-0.1962159726
 20
-0.0122008923
 30
0.0
 11
-0.2002335838
 21
0.0181717427
 31
0.0
  0
LINE
  5
36D
330
1F
100
AcDbEntity
  8
0
  6
Continuous
 62
     7
370
    15
100
AcDbLine
 10
-0.2002335838
 20
0.0181717427
 30
0.0
 11
-0.1996398046
 21
0.0487968388
 31
0.0
  0
LINE
  5
36E
330
1F
100
AcDbEntity
  8
0
  6
Continuous
 62
     7
370
    15
100
AcDbLine
 10
-0.1996398046
 20
0.0487968388
 30
0.0
 11
-0.1945499769
 21
0.0789956658
 31
0.0
  0
LINE
  5
36F
330
1F
100
AcDbEntity
  8
0
  6
Continuous
 62
     7
370
    15
100
AcDbLine
 10
-0.1945499769
 20
0.0789956658
 30
0.0
 11
-0.1851687709
 21
0.1081420117
 31
0.0
  0
LINE
  5
370
330
1F
100
AcDbEntity
  8
0
  6
Continuous
 62
     7
370
    15
100
AcDbLine
 10
-0.1851687709
 20
0.1081420117
 30
0.0
 11
-0.1717764995
 21
0.1356705121
 31
0.0
  0
LINE
  5
371
330
1F
100
AcDbEntity
  8
0
  6
Continuous
 62
     7
370
    15
100
AcDbLine
 10
-0.1717764995
 20
0.1356705121
 30
0.0
 11
-0.1547155913
 21
0.1610824076
 31
0.0
  0
LINE
  5
372
330
1F
100
AcDbEntity
  8
0
  6
Continuous
 62
     7
370
    15
100
AcDbLine
 10
-0.1547155913
 20
0.1610824076
 30
0.0
 11
-0.1343775354
 21
0.1839490322
 31
0.0
  0
LINE
  5
373
330
1F
100
AcDbEntity
  8
0
  6
Continuous
 62
     7
370
    15
100
AcDbLine
 10
-0.1343775354
 20
0.1839490322
 30
0.0
 11
-0.1111905299
 21
0.2039133364
 31
0.0
  0
LINE
  5
374
330
1F
100
AcDbEntity
  8
0
  6
Continuous
 62
     7
370
    15
100
AcDbLine
 10
-0.1111905299
 20
0.2039133364
 30
0.0
 11
-0.0856080052
 21
0.2206897399
 31
0.0
  0
LINE
  5
375
330
1F
100
AcDbEntity
  8
0
  6
Continuous
 62
     7
370
    15
100
AcDbLine
 10
-0.0856080052
 20
0.2206897399
 30
0.0
 11
-0.0580981307
 21
0.2340625902
 31
0.0
  0
LINE
  5
376
330
1F
100
AcDbEntity
  8
0
  6
Continuous
 62
     7
370
    15
100
AcDbLine
 10
-0.0580981307
 20
0.2340625902
 30
0.0
 11
-0.029134374
 21
0.2438834874
 31
0.0
  0
LINE
  5
377
330
1F
100
AcDbEntity
  8
0
  6
Continuous
 62
     7
370
    15
100
AcDbLine
 10
-0.029134374
 20
0.2438834874
 30
0.0
 11
0.0008128615
 21
0.2500677098
 31
0.0
  0
LINE
  5
378
330
1F
100
AcDbEntity
  8
0
  6
Continuous
 62
     7
370
    15
100
AcDbLine
 10
0.0008128615
 20
0.2500677098
 30
0.0
 11
0.0312835199
 21
0.2525899507
 31
0.0
  0
LINE
  5
379
330
1F
100
AcDbEntity
  8
0
  6
Continuous
 62
     7
370
    15
100
AcDbLine
 10
0.0312835199
 20
0.2525899507
 30
0.0
 11
0.0618341242
 21
0.2514795559
 31
0.0
  0
LINE
  5
37A
330
1F
100
AcDbEntity
  8
0
  6
Continuous
 62
     7
370
    15
100
AcDbLine
 10
0.0618341242
 20
0.2514795559
 30
0.0
 11
0.0920429975
 21
0.246815424
 31
0.0
  0
LINE
  5
37B
330
1F
100
AcDbEntity
  8
0
  6
Continuous
 62
     7
370
    15
100
AcDbLine
 10
0.0920429975
 20
0.246815424
 30
0.0
 11
0.1215145297
 21
0.2387207114
 31
0.0
  0
LINE
  5
37C
330
1F
100
AcDbEntity
  8
0
  6
Continuous
 62
     7
370
    15
100
AcDbLine
 10
0.1215145297
 20
0.2387207114
 30
0.0
 11
0.1498825563
 21
0.2273574634
 31
0.0
  0
LINE
  5
37D
330
1F
100
AcDbEntity
  8
0
  6
Continuous
 62
     7
370
    15
100
AcDbLine
 10
0.1498825563
 20
0.2273574634
 30
0.0
 11
0.1768129184
 21
0.2129212698
 31
0.0
  0
LINE
  5
37E
330
1F
100
AcDbEntity
  8
0
  6
Continuous
 62
     7
370
    15
100
AcDbLine
 10
0.1768129184
 20
0.2129212698
 30
0.0
 11
0.2020052787
 21
0.1956360306
 31
0.0
  0
LINE
  5
37F
330
1F
100
AcDbEntity
  8
0
  6
Continuous
 62
     7
370
    15
100
AcDbLine
 10
0.2020052787
 20
0.1956360306
 30
0.0
 11
0.2251942684
 21
0.1757488976
 31
0.0
  0
LINE
  5
380
330
1F
100
AcDbEntity
  8
0
  6
Continuous
 62
     7
370
    15
100
AcDbLine
 10
0.2251942684
 20
0.1757488976
 30
0.0
 11
0.246150039
 21
0.1535254444
 31
0.0
  0
LINE
  5
381
330
1F
100
AcDbEntity
  8
0
  6
Continuous
 62
     7
370
    15
100
AcDbLine
 10
0.246150039
 20
0.1535254444
 30
0.0
 11
0.2646782908
 21
0.1292451068
 31
0.0
  0
LINE
  5
382
330
1F
100
AcDbEntity
  8
0
  6
Continuous
 62
     7
370
    15
100
AcDbLine
 10
0.2646782908
 20
0.1292451068
 30
0.0
 11
0.2806198477
 21
0.1031969212
 31
0.0
  0
LINE
  5
383
330
1F
100
AcDbEntity
  8
0
  6
Continuous
 62
     7
370
    15
100
AcDbLine
 10
0.2806198477
 20
0.1031969212
 30
0.0
 11
0.2938498431
 21
0.0756755828
 31
0.0
  0
LINE
  5
384
330
1F
100
AcDbEntity
  8
0
  6
Continuous
 62
     7
370
    15
100
AcDbLine
 10
0.2938498431
 20
0.0756755828
 30
0.0
 11
0.3042765784
 21
0.0469778337
 31
0.0
  0
LINE
  5
385
330
1F
100
AcDbEntity
  8
0
  6
Continuous
 62
     7
370
    15
100
AcDbLine
 10
0.3042765784
 20
0.0469778337
 30
0.0
 11
0.3118401101
 21
0.0173991881
 31
0.0
  0
LINE
  5
386
330
1F
100
AcDbEntity
  8
0
  6
Continuous
 62
     7
370
    15
100
AcDbLine
 10
0.3118401101
 20
0.0173991881
 30
0.0
 11
0.3165106185
 21
-0.0127690075
 31
0.0
  0
LINE
  5
387
330
1F
100
AcDbEntity
  8
0
  6
Continuous
 62
     7
370
    15
100
AcDbLine
 10
0.3165106185
 20
-0.0127690075
 30
0.0
 11
0.3182866039
 21
-0.0432421837
 31
0.0
  0
LINE
  5
388
330
1F
100
AcDbEntity
  8
0
  6
Continuous
 62
     7
370
    15
100
AcDbLine
 10
0.3182866039
 20
-0.0432421837
 30
0.0
 11
0.3171929539
 21
-0.0737448357
 31
0.0
  0
LINE
  5
389
330
1F
100
AcDbEntity
  8
0
  6
Continuous
 62
     7
370
    15
100
AcDbLine
 10
0.3171929539
 20
-0.0737448357
 30
0.0
 11
0.3132789192
 21
-0.104012502
 31
0.0
  0
LINE
  5
38A
330
1F
100
AcDbEntity
  8
0
  6
Continuous
 62
     7
370
    15
100
AcDbLine
 10
0.3132789192
 20
-0.104012502
 30
0.0
 11
0.3066160331
 21
-0.133793447
 31
0.0
  0
LINE
  5
38B
330
1F
100
AcDbEntity
  8
0
  6
Continuous
 62
     7
370
    15
100
AcDbLine
 10
0.3066160331
 20
-0.133793447
 30
0.0
 11
0.2972960019
 21
-0.1628500654
 31
0.0
  0
LINE
  5
38C
330
1F
100
AcDbEntity
  8
0
  6
Continuous
 62
     7
370
    15
100
AcDbLine
 10
0.2972960019
 20
-0.1628500654
 30
0.0
 11
0.285428595
 21
-0.1909600236
 31
0.0
  0
LINE
  5
38D
330
1F
100
AcDbEntity
  8
0
  6
Continuous
 62
     7
370
    15
100
AcDbLine
 10
0.285428595
 20
-0.1909600236
 30
0.0
 11
0.271139555
 21
-0.2179171571
 31
0.0
  0
LINE
  5
38E
330
1F
100
AcDbEntity
  8
0
  6
Continuous
 62
     7
370
    15
100
AcDbLine
 10
0.271139555
 20
-0.2179171571
 30
0.0
 11
0.2545685476
 21
-0.2435321427
 31
0.0
  0
LINE
  5
38F
330
1F
100
AcDbEntity
  8
0
  6
Continuous
 62
     7
370
    15
100
AcDbLine
 10
0.2545685476
 20
-0.2435321427
 30
0.0
 11
0.2358671669
 21
-0.2676329629
 31
0.0
  0
LINE
  5
390
330
1F
100
AcDbEntity
  8
0
  6
Continuous
 62
     7
370
    15
100
AcDbLine
 10
0.2358671669
 20
-0.2676329629
 30
0.0
 11
0.2151970106
 21
-0.290065181
 31
0.0
  0
LINE
  5
391
330
1F
100
AcDbEntity
  8
0
  6
Continuous
 62
     7
370
    15
100
AcDbLine
 10
0.2151970106
 20
-0.290065181
 30
0.0
 11
0.1927278333
 21
-0.3106920455
 31
0.0
  0
LINE
  5
392
330
1F
100
AcDbEntity
  8
0
  6
Continuous
 62
     7
370
    15
100
AcDbLine
 10
0.1927278333
 20
-0.3106920455
 30
0.0
 11
0.1686357899
 21
-0.3293944408
 31
0.0
  0
LINE
  5
393
330
1F
100
AcDbEntity
  8
0
  6
Continuous
 62
     7
370
    15
100
AcDbLine
 10
0.1686357899
 20
-0.3293944408
 30
0.0
 11
0.1431017721
 21
-0.3460707007
 31
0.0
  0
LINE
  5
394
330
1F
100
AcDbEntity
  8
0
  6
Continuous
 62
     7
370
    15
100
AcDbLine
 10
0.1431017721
 20
-0.3460707007
 30
0.0
 11
0.116309845
 21
-0.3606363006
 31
0.0
  0
LINE
  5
395
330
1F
100
AcDbEntity
  8
0
  6
Continuous
 62
     7
370
    15
100
AcDbLine
 10
0.116309845
 20
-0.3606363006
 30
0.0
 11
0.0884457865
 21
-0.3730234448
 31
0.0
  0
LINE
  5
396
330
1F
100
AcDbEntity
  8
0
  6
Continuous
 62
     7
370
    15
100
AcDbLine
 10
0.0884457865
 20
-0.3730234448
 30
0.0
 11
0.0596957306
 21
-0.3831805615
 31
0.0
  0
LINE
  5
397
330
1F
100
AcDbEntity
  8
0
  6
Continuous
 62
     7
370
    15
100
AcDbLine
 10
0.0596957306
 20
-0.3831805615
 30
0.0
 11
0.0302449156
 21
-0.3910717201
 31
0.0
  0
LINE
  5
398
330
1F
100
AcDbEntity
  8
0
  6
Continuous
 62
     7
370
    15
100
AcDbLine
 10
0.0302449156
 20
-0.3910717201
 30
0.0
 11
0.0002765369
 21
-0.3966759824
 31
0.0
  0
LINE
  5
399
330
1F
100
AcDbEntity
  8
0
  6
Continuous
 62
     7
370
    15
100
AcDbLine
 10
0.0002765369
 20
-0.3966759824
 30
0.0
 11
-0.0300292969
 21
-0.3999867009
 31
0.0
  0
LINE
  5
39A
330
1F
100
AcDbEntity
  8
0
  6
Continuous
 62
     7
370
    15
100
AcDbLine
 10
-0.0300292969
 20
-0.3999867009
 30
0.0
 11
-0.0604965074
 21
-0.4010107725
 31
0.0
  0
LINE
  5
39B
330
1F
100
AcDbEntity
  8
0
  6
Continuous
 62
     7
370
    15
100
AcDbLine
 10
-0.0604965074
 20
-0.4010107725
 30
0.0
 11
-0.0909538914
 21
-0.3997678591
 31
0.0
  0
LINE
  5
39C
330
1F
100
AcDbEntity
  8
0
  6
Continuous
 62
     7
370
    15
100
AcDbLine
 10
-0.0909538914
 20
-0.3997678591
 30
0.0
 11
-0.1212358702
 21
-0.3962895841
 31
0.0
  0
LINE
  5
39D
330
1F
100
AcDbEntity
  8
0
  6
Continuous
 62
     7
370
    15
100
AcDbLine
 10
-0.1212358702
 20
-0.3962895841
 30
0.0
 11
-0.1511831486
 21
-0.3906187117
 31
0.0
  0
LINE
  5
39E
330
1F
100
AcDbEntity
  8
0
  6
Continuous
 62
     7
370
    15
100
AcDbLine
 10
-0.1511831486
 20
-0.3906187117
 30
0.0
 11
-0.1806432854
 21
-0.3828083172
 31
0.0
  0
LINE
  5
39F
330
1F
100
AcDbEntity
  8
0
  6
Continuous
 62
     7
370
    15
100
AcDbLine
 10
-0.1806432854
 20
-0.3828083172
 30
0.0
 11
-0.2094711814
 21
-0.3729209549
 31
0.0
  0
LINE
  5
3A0
330
1F
100
AcDbEntity
  8
0
  6
Continuous
 62
     7
370
    15
100
AcDbLine
 10
-0.2094711814
 20
-0.3729209549
 30
0.0
 11
-0.2375294878
 21
-0.3610278286
 31
0.0
  0
LINE
  5
3A1
330
1F
100
AcDbEntity
  8
0
  6
Continuous
 62
     7
370
    15
100
AcDbLine
 10
-0.2375294878
 20
-0.3610278286
 30
0.0
 11
-0.2646889406
 21
-0.3472079715
 31
0.0
  0
LINE
  5
3A2
330
1F
100
AcDbEntity
  8
0
  6
Continuous
 62
     7
370
    15
100
AcDbLine
 10
-0.2646889406
 20
-0.3472079715
 30
0.0
 11
-0.2908286252
 21
-0.3315474379
 31
0.0
  0
LINE
  5
3A3
330
1F
100
AcDbEntity
  8
0
  6
Continuous
 62
     7
370
    15
100
AcDbLine
 10
-0.2908286252
 20
-0.3315474379
 30
0.0
 11
-0.3158361755
 21
-0.3141385126
 31
0.0
  0
LINE
  5
3A4
330
1F
100
AcDbEntity
  8
0
  6
Continuous
 62
     7
370
    15
100
AcDbLine
 10
-0.3158361755
 20
-0.3141385126
 30
0.0
 11
-0.3396079121
 21
-0.2950789404
 31
0.0
  0
LINE
  5
3A5
330
1F
100
AcDbEntity
  8
0
  6
Continuous
 62
     7
370
    15
100
AcDbLine
 10
-0.3396079121
 20
-0.2950789404
 30
0.0
 11
-0.3620489243
 21
-0.2744711783
 31
0.0
  0
LINE
  5
3A6
330
1F
100
AcDbEntity
  8
0
  6
Continuous
 62
     7
370
    15
100
AcDbLine
 10
-0.3620489243
 20
-0.2744711783
 30
0.0
 11
-0.3830731003
 21
-0.2524216744
 31
0.0
  0
LINE
  5
3A7
330
1F
100
AcDbEntity
  8
0
  6
Continuous
 62
     7
370
    15
100
AcDbLine
 10
-0.3830731003
 20
-0.2524216744
 30
0.0
 11
-0.4026031097
 21
-0.2290401733
 31
0.0
  0
LINE
  5
3A8
330
1F
100
AcDbEntity
  8
0
  6
Continuous
 62
     7
370
    15
100
AcDbLine
 10
-0.4026031097
 20
-0.2290401733
 30
0.0
 11
-0.4205703421
 21
-0.204439052
 31
0.0
  0
LINE
  5
3A9
330
1F
100
AcDbEntity
  8
0
  6
Continuous
 62
     7
370
    15
100
AcDbLine
 10
-0.4205703421
 20
-0.204439052
 30
0.0
 11
-0.4369148069
 21
-0.1787326854
 31
0.0
  0
LINE
  5
3AA
330
1F
100
AcDbEntity
  8
0
  6
Continuous
 62
     7
370
    15
100
AcDbLine
 10
-0.4369148069
 20
-0.1787326854
 30
0.0
 11
-0.4515849968
 21
-0.1520368436
 31
0.0
  0
LINE
  5
3AB
330
1F
100
AcDbEntity
  8
0
  6
Continuous
 62
     7
370
    15
100
AcDbLine
 10
-0.4515849968
 20
-0.1520368436
 30
0.0
 11
-0.4645377197
 21
-0.1244681221
 31
0.0
  0
LINE
  5
3AC
330
1F
100
AcDbEntity
  8
0
  6
Continuous
 62
     7
370
    15
100
AcDbLine
 10
-0.4645377197
 20
-0.1244681221
 30
0.0
 11
-0.4757379022
 21
-0.0961434035
 31
0.0
  0
LINE
  5
3AD
330
1F
100
AcDbEntity
  8
0
  6
Continuous
 62
     7
370
    15
100
AcDbLine
 10
-0.4757379022
 20
-0.0961434035
 30
0.0
 11
-0.4851583676
 21
-0.0671793525
 31
0.0
  0
LINE
  5
3AE
330
1F
100
AcDbEntity
  8
0
  6
Continuous
 62
     7
370
    15
100
AcDbLine
 10
-0.4851583676
 20
-0.0671793525
 30
0.0
 11
-0.4927795921
 21
-0.0376919438
 31
0.0
  0
LINE
  5
3AF
330
1F
100
AcDbEntity
  8
0
  6
Continuous
 62
     7
370
    15
100
AcDbLine
 10
-0.4927795921
 20
-0.0376919438
 30
0.0
 11
-0.4985894424
 21
-0.0077960223
 31
0.0
  0
LINE
  5
3B0
330
1F
100
AcDbEntity
  8
0
  6
Continuous
 62
     7
370
    15
100
AcDbLine
 10
-0.4985894424
 20
-0.0077960223
 30
0.0
 11
-0.5025828965
 21
0.0223951049
 31
0.0
  0
LINE
  5
3B1
330
1F
100
AcDbEntity
  8
0
  6
Continuous
 62
     7
370
    15
100
AcDbLine
 10
-0.5025828965
 20
0.0223951049
 30
0.0
 11
-0.5047617512
 21
0.0527700446
 31
0.0
  0
LINE
  5
3B2
330
1F
100
AcDbEntity
  8
0
  6
Continuous
 62
     7
370
    15
100
AcDbLine
 10
-0.5047617512
 20
0.0527700446
 30
0.0
 11
-0.5051343187
 21
0.0832196625
 31
0.0
  0
LINE
  5
3B3
330
1F
100
AcDbEntity
  8
0
  6
Continuous
 62
     7
370
    15
100
AcDbLine
 10
-0.5051343187
 20
0.0832196625
 30
0.0
 11
-0.5037151136
 21
0.1136373989
 31
0.0
  0
LINE
  5
3B4
330
1F
100
AcDbEntity
  8
0
  6
Continuous
 62
     7
370
    15
100
AcDbLine
 10
-0.5037151136
 20
0.1136373989
 30
0.0
 11
-0.5005245346
 21
0.1439195539
 31
0.0
  0
LINE
  5
3B5
330
1F
100
AcDbEntity
  8
0
  6
Continuous
 62
     7
370
    15
100
AcDbLine
 10
-0.5005245346
 20
0.1439195539
 30
0.0
 11
-0.4955885396
 21
0.1739655453
 31
0.0
  0
LINE
  5
3B6
330
1F
100
AcDbEntity
  8
0
  6
Continuous
 62
     7
370
    15
100
AcDbLine
 10
-0.4955885396
 20
0.1739655453
 30
0.0
 11
-0.4889383193
 21
0.2036781383
 31
0.0
  0
LINE
  5
3B7
330
1F
100
AcDbEntity
  8
0
  6
Continuous
 62
     7
370
    15
100
AcDbLine
 10
-0.4889383193
 20
0.2036781383
 30
0.0
 11
-0.4806099688
 21
0.2329636496
 31
0.0
  0
LINE
  5
3B8
330
1F
100
AcDbEntity
  8
0
  6
Continuous
 62
     7
370
    15
100
AcDbLine
 10
-0.4806099688
 20
0.2329636496
 30
0.0
 11
-0.4706441594
 21
0.2617321255
 31
0.0
  0
LINE
  5
3B9
330
1F
100
AcDbEntity
  8
0
  6
Continuous
 62
     7
370
    15
100
AcDbLine
 10
-0.4706441594
 20
0.2617321255
 30
0.0
 11
-0.4590858121
 21
0.289897496
 31
0.0
  0
LINE
  5
3BA
330
1F
100
AcDbEntity
  8
0
  6
Continuous
 62
     7
370
    15
100
AcDbLine
 10
-0.4590858121
 20
0.289897496
 30
0.0
 11
-0.4459837743
 21
0.3173777062
 31
0.0
  0
LINE
  5
3BB
330
1F
100
AcDbEntity
  8
0
  6
Continuous
 62
     7
370
    15
100
AcDbLine
 10
-0.4459837743
 20
0.3173777062
 30
0.0
 11
-0.4313904994
 21
0.3440948254
 31
0.0
  0
LINE
  5
3BC
330
1F
100
AcDbEntity
  8
0
  6
Continuous
 62
     7
370
    15
100
AcDbLine
 10
-0.4313904994
 20
0.3440948254
 30
0.0
 11
-0.4153617322
 21
0.3699751351
 31
0.0
  0
LINE
  5
3BD
330
1F
100
AcDbEntity
  8
0
  6
Continuous
 62
     7
370
    15
100
AcDbLine
 10
-0.4153617322
 20
0.3699751351
 30
0.0
 11
-0.3979562003
 21
0.3949491978
 31
0.0
  0
LINE
  5
3BE
330
1F
100
AcDbEntity
  8
0
  6
Continuous
 62
     7
370
    15
100
AcDbLine
 10
-0.3979562003
 20
0.3949491978
 30
0.0
 11
-0.379235311
 21
0.4189519072
 31
0.0
  0
LINE
  5
3BF
330
1F
100
AcDbEntity
  8
0
  6
Continuous
 62
     7
370
    15
100
AcDbLine
 10
-0.379235311
 20
0.4189519072
 30
0.0
 11
-0.3592628569
 21
0.4419225204
 31
0.0
  0
LINE
  5
3C0
330
1F
100
AcDbEntity
  8
0
  6
Continuous
 62
     7
370
    15
100
AcDbLine
 10
-0.3592628569
 20
0.4419225204
 30
0.0
 11
-0.3381047287
 21
0.4638046741
 31
0.0
  0
LINE
  5
3C1
330
1F
100
AcDbEntity
  8
0
  6
Continuous
 62
     7
370
    15
100
AcDbLine
 10
-0.3381047287
 20
0.4638046741
 30
0.0
 11
-0.3158286361
 21
0.4845463854
 31
0.0
  0
LINE
  5
3C2
330
1F
100
AcDbEntity
  8
0
  6
Continuous
 62
     7
370
    15
100
AcDbLine
 10
-0.3158286361
 20
0.4845463854
 30
0.0
 11
-0.2925038389
 21
0.5041000384
 31
0.0
  0
LINE
  5
3C3
330
1F
100
AcDbEntity
  8
0
  6
Continuous
 62
     7
370
    15
100
AcDbLine
 10
-0.2925038389
 20
0.5041000384
 30
0.0
 11
-0.2682008858
 21
0.5224223573
 31
0.0
  0
LINE
  5
3C4
330
1F
100
AcDbEntity
  8
0
  6
Continuous
 62
     7
370
    15
100
AcDbLine
 10
-0.2682008858
 20
0.5224223573
 30
0.0
 11
-0.2429913642
 21
0.5394743675
 31
0.0
  0
LINE
  5
3C5
330
1F
100
AcDbEntity
  8
0
  6
Continuous
 62
     7
370
    15
100
AcDbLine
 10
-0.2429913642
 20
0.5394743675
 30
0.0
 11
-0.2169476587
 21
0.5552213448
 31
0.0
  0
LINE
  5
3C6
330
1F
100
AcDbEntity
  8
0
  6
Continuous
 62
     7
370
    15
100
AcDbLine
 10
-0.2169476587
 20
0.5552213448
 30
0.0
 11
-0.1901427204
 21
0.5696327551
 31
0.0
  0
LINE
  5
3C7
330
1F
100
AcDbEntity
  8
0
  6
Continuous
 62
     7
370
    15
100
AcDbLine
 10
-0.1901427204
 20
0.5696327551
 30
0.0
 11
-0.1626498459
 21
0.5826821836
 31
0.0
  0
LINE
  5
3C8
330
1F
100
AcDbEntity
  8
0
  6
Continuous
 62
     7
370
    15
100
AcDbLine
 10
-0.1626498459
 20
0.5826821836
 30
0.0
 11
-0.1345424668
 21
0.5943472563
 31
0.0
  0
LINE
  5
3C9
330
1F
100
AcDbEntity
  8
0
  6
Continuous
 62
     7
370
    15
100
AcDbLine
 10
-0.1345424668
 20
0.5943472563
 30
0.0
 11
-0.1058939489
 21
0.6046095527
 31
0.0
  0
LINE
  5
3CA
330
1F
100
AcDbEntity
  8
0
  6
Continuous
 62
     7
370
    15
100
AcDbLine
 10
-0.1058939489
 20
0.6046095527
 30
0.0
 11
-0.0767774027
 21
0.6134545121
 31
0.0
  0
LINE
  5
3CB
330
1F
100
AcDbEntity
  8
0
  6
Continuous
 62
     7
370
    15
100
AcDbLine
 10
-0.0767774027
 20
0.6134545121
 30
0.0
 11
-0.0472655026
 21
0.6208713336
 31
0.0
  0
LINE
  5
3CC
330
1F
100
AcDbEntity
  8
0
  6
Continuous
 62
     7
370
    15
100
AcDbLine
 10
-0.0472655026
 20
0.6208713336
 30
0.0
 11
-0.0174303178
 21
0.6268528698
 31
0.0
  0
LINE
  5
3CD
330
1F
100
AcDbEntity
  8
0
  6
Continuous
 62
     7
370
    15
100
AcDbLine
 10
-0.0174303178
 20
0.6268528698
 30
0.0
 11
0.0126568478
 21
0.6313955168
 31
0.0
  0
LINE
  5
3CE
330
1F
100
AcDbEntity
  8
0
  6
Continuous
 62
     7
370
    15
100
AcDbLine
 10
0.0126568478
 20
0.6313955168
 30
0.0
 11
0.0429256058
 21
0.6344990986
 31
0.0
  0
LINE
  5
3CF
330
1F
100
AcDbEntity
  8
0
  6
Continuous
 62
     7
370
    15
100
AcDbLine
 10
0.0429256058
 20
0.6344990986
 30
0.0
 11
0.0733066231
 21
0.6361667489
 31
0.0
  0
LINE
  5
3D0
330
1F
100
AcDbEntity
  8
0
  6
Continuous
 62
     7
370
    15
100
AcDbLine
 10
0.0733066231
 20
0.6361667489
 30
0.0
 11
0.1037317529
 21
0.6364047893
 31
0.0
  0
LINE
  5
3D1
330
1F
100
AcDbEntity
  8
0
  6
Continuous
 62
     7
370
    15
100
AcDbLine
 10
0.1037317529
 20
0.6364047893
 30
0.0
 11
0.1341341559
 21
0.6352226052
 31
0.0
  0
LINE
  5
3D2
330
1F
100
AcDbEntity
  8
0
  6
Continuous
 62
     7
370
    15
100
AcDbLine
 10
0.1341341559
 20
0.6352226052
 30
0.0
 11
0.1644484127
 21
0.6326325194
 31
0.0
  0
LINE
  5
3D3
330
1F
100
AcDbEntity
  8
0
  6
Continuous
 62
     7
370
    15
100
AcDbLine
 10
0.1644484127
 20
0.6326325194
 30
0.0
 11
0.1946106267
 21
0.6286496645
 31
0.0
  0
LINE
  5
3D4
330
1F
100
AcDbEntity
  8
0
  6
Continuous
 62
     7
370
    15
100
AcDbLine
 10
0.1946106267
 20
0.6286496645
 30
0.0
 11
0.2245585192
 21
0.6232918544
 31
0.0
  0
LINE
  5
3D5
330
1F
100
AcDbEntity
  8
0
  6
Continuous
 62
     7
370
    15
100
AcDbLine
 10
0.2245585192
 20
0.6232918544
 30
0.0
 11
0.2542315156
 21
0.6165794541
 31
0.0
  0
LINE
  5
3D6
330
1F
100
AcDbEntity
  8
0
  6
Continuous
 62
     7
370
    15
100
AcDbLine
 10
0.2542315156
 20
0.6165794541
 30
0.0
 11
0.2835708231
 21
0.6085352509
 31
0.0
  0
LINE
  5
3D7
330
1F
100
AcDbEntity
  8
0
  6
Continuous
 62
     7
370
    15
100
AcDbLine
 10
0.2835708231
 20
0.6085352509
 30
0.0
 11
0.3125195016
 21
0.599184324
 31
0.0
  0
LINE
  5
3D8
330
1F
100
AcDbEntity
  8
0
  6
Continuous
 62
     7
370
    15
100
AcDbLine
 10
0.3125195016
 20
0.599184324
 30
0.0
 11
0.3410225257
 21
0.588553916
 31
0.0
  0
LINE
  5
3D9
330
1F
100
AcDbEntity
  8
0
  6
Continuous
 62
     7
370
    15
100
AcDbLine
 10
0.3410225257
 20
0.588553916
 30
0.0
 11
0.3690268404
 21
0.5766733043
 31
0.0
  0
LINE
  5
3DA
330
1F
100
AcDbEntity
  8
0
  6
Continuous
 62
     7
370
    15
100
AcDbLine
 10
0.3690268404
 20
0.5766733043
 30
0.0
 11
0.396481409
 21
0.5635736735
 31
0.0
  0
LINE
  5
3DB
330
1F
100
AcDbEntity
  8
0
  6
Continuous
 62
     7
370
    15
100
AcDbLine
 10
0.396481409
 20
0.5635736735
 30
0.0
 11
0.4233372551
 21
0.5492879899
 31
0.0
  0
LINE
  5
3DC
330
1F
100
AcDbEntity
  8
0
  6
Continuous
 62
     7
370
    15
100
AcDbLine
 10
0.4233372551
 20
0.5492879899
 30
0.0
 11
0.449547497
 21
0.5338508769
 31
0.0
  0
LINE
  5
3DD
330
1F
100
AcDbEntity
  8
0
  6
Continuous
 62
     7
370
    15
100
AcDbLine
 10
0.449547497
 20
0.5338508769
 30
0.0
 11
0.4750673768
 21
0.5172984923
 31
0.0
  0
LINE
  5
3DE
330
1F
100
AcDbEntity
  8
0
  6
Continuous
 62
     7
370
    15
100
AcDbLine
 10
0.4750673768
 20
0.5172984923
 30
0.0
 11
0.4998542829
 21
0.4996684079
 31
0.0
  0
LINE
  5
3DF
330
1F
100
AcDbEntity
  8
0
  6
Continuous
 62
     7
370
    15
100
AcDbLine
 10
0.4998542829
 20
0.4996684079
 30
0.0
 11
0.5238677678
 21
0.4809994906
 31
0.0
  0
LINE
  5
3E0
330
1F
100
AcDbEntity
  8
0
  6
Continuous
 62
     7
370
    15
100
AcDbLine
 10
0.5238677678
 20
0.4809994906
 30
0.0
 11
0.547069559
 21
0.4613317872
 31
0.0
  0
LINE
  5
3E1
330
1F
100
AcDbEntity
  8
0
  6
Continuous
 62
     7
370
    15
100
AcDbLine
 10
0.547069559
 20
0.4613317872
 30
0.0
 11
0.5694235666
 21
0.4407064098
 31
0.0
  0
LINE
  5
3E2
330
1F
100
AcDbEntity
  8
0
  6
Continuous
 62
     7
370
    15
100
AcDbLine
 10
0.5694235666
 20
0.4407064098
 30
0.0
 11
0.5908958841
 21
0.4191654256
 31
0.0
  0
LINE
  5
3E3
330
1F
100
AcDbEntity
  8
0
  6
Continuous
 62
     7
370
    15
100
AcDbLine
 10
0.5908958841
 20
0.4191654256
 30
0.0
 11
0.6114547865
 21
0.3967517484
 31
0.0
  0
LINE
  5
3E4
330
1F
100
AcDbEntity
  8
0
  6
Continuous
 62
     7
370
    15
100
AcDbLine
 10
0.6114547865
 20
0.3967517484
 30
0.0
 11
0.6310707226
 21
0.3735090332
 31
0.0
  0
LINE
  5
3E5
330
1F
100
AcDbEntity
  8
0
  6
Continuous
 62
     7
370
    15
100
AcDbLine
 10
0.6310707226
 20
0.3735090332
 30
0.0
 11
0.6497163041
 21
0.3494815737
 31
0.0
  0
LINE
  5
3E6
330
1F
100
AcDbEntity
  8
0
  6
Continuous
 62
     7
370
    15
100
AcDbLine
 10
0.6497163041
 20
0.3494815737
 30
0.0
 11
0.6673662903
 21
0.3247142033
 31
0.0
  0
LINE
  5
3E7
330
1F
100
AcDbEntity
  8
0
  6
Continuous
 62
     7
370
    15
100
AcDbLine
 10
0.6673662903
 20
0.3247142033
 30
0.0
 11
0.6839975696
 21
0.2992521982
 31
0.0
  0
LINE
  5
3E8
330
1F
100
AcDbEntity
  8
0
  6
Continuous
 62
     7
370
    15
100
AcDbLine
 10
0.6839975696
 20
0.2992521982
 30
0.0
 11
0.6995891375
 21
0.2731411844
 31
0.0
  0
LINE
  5
3E9
330
1F
100
AcDbEntity
  8
0
  6
Continuous
 62
     7
370
    15
100
AcDbLine
 10
0.6995891375
 20
0.2731411844
 30
0.0
 11
0.7141220709
 21
0.2464270475
 31
0.0
  0
LINE
  5
3EA
330
1F
100
AcDbEntity
  8
0
  6
Continuous
 62
     7
370
    15
100
AcDbLine
 10
0.7141220709
 20
0.2464270475
 30
0.0
 11
0.7275795009
 21
0.2191558461
 31
0.0
  0
LINE
  5
3EB
330
1F
100
AcDbEntity
  8
0
  6
Continuous
 62
     7
370
    15
100
AcDbLine
 10
0.7275795009
 20
0.2191558461
 30
0.0
 11
0.7399465811
 21
0.1913737275
 31
0.0
  0
LINE
  5
3EC
330
1F
100
AcDbEntity
  8
0
  6
Continuous
 62
     7
370
    15
100
AcDbLine
 10
0.7399465811
 20
0.1913737275
 30
0.0
 11
0.7512104545
 21
0.1631268478
 31
0.0
  0
LINE
  5
3ED
330
1F
100
AcDbEntity
  8
0
  6
Continuous
 62
     7
370
    15
100
AcDbLine
 10
0.7512104545
 20
0.1631268478
 30
0.0
 11
0.7613602182
 21
0.1344612942
 31
0.0
  0
LINE
  5
3EE
330
1F
100
AcDbEntity
  8
0
  6
Continuous
 62
     7
370
    15
100
AcDbLine
 10
0.7613602182
 20
0.1344612942
 30
0.0
 11
0.7703868851
 21
0.1054230109
 31
0.0
  0
LINE
  5
3EF
330
1F
100
AcDbEntity
  8
0
  6
Continuous
 62
     7
370
    15
100
AcDbLine
 10
0.7703868851
 20
0.1054230109
 30
0.0
 11
0.7782833443
 21
0.0760577285
 31
0.0
  0
LINE
  5
3F0
330
1F
100
AcDbEntity
  8
0
  6
Continuous
 62
     7
370
    15
100
AcDbLine
 10
0.7782833443
 20
0.0760577285
 30
0.0
 11
0.7850443199
 21
0.0464108961
 31
0.0
  0
LINE
  5
3F1
330
1F
100
AcDbEntity
  8
0
  6
Continuous
 62
     7
370
    15
100
AcDbLine
 10
0.7850443199
 20
0.0464108961
 30
0.0
 11
0.7906663273
 21
0.0165276166
 31
0.0
  0
LINE
  5
3F2
330
1F
100
AcDbEntity
  8
0
  6
Continuous
 62
     7
370
    15
100
AcDbLine
 10
0.7906663273
 20
0.0165276166
 30
0.0
 11
0.7951476294
 21
-0.0135474146
 31
0.0
  0
LINE
  5
3F3
330
1F
100
AcDbEntity
  8
0
  6
Continuous
 62
     7
370
    15
100
AcDbLine
 10
0.7951476294
 20
-0.0135474146
 30
0.0
 11
0.7984881901
 21
-0.0437699681
 31
0.0
  0
LINE
  5
3F4
330
1F
100
AcDbEntity
  8
0
  6
Continuous
 62
     7
370
    15
100
AcDbLine
 10
0.7984881901
 20
-0.0437699681
 30
0.0
 11
0.8006896281
 21
-0.0740963355
 31
0.0
  0
LINE
  5
3F5
330
1F
100
AcDbEntity
  8
0
  6
Continuous
 62
     7
370
    15
100
AcDbLine
 10
0.8006896281
 20
-0.0740963355
 30
0.0
 11
0.8017551684
 21
-0.1044833825
 31
0.0
  0
LINE
  5
3F6
330
1F
100
AcDbEntity
  8
0
  6
Continuous
 62
     7
370
    15
100
AcDbLine
 10
0.8017551684
 20
-0.1044833825
 30
0.0
 11
0.8016895939
 21
-0.1348885973
 31
0.0
  0
LINE
  5
3F7
330
1F
100
AcDbEntity
  8
0
  6
Continuous
 62
     7
370
    15
100
AcDbLine
 10
0.8016895939
 20
-0.1348885973
 30
0.0
 11
0.8004991957
 21
-0.1652701381
 31
0.0
  0
LINE
  5
3F8
330
1F
100
AcDbEntity
  8
0
  6
Continuous
 62
     7
370
    15
100
AcDbLine
 10
0.8004991957
 20
-0.1652701381
 30
0.0
 11
0.7981917234
 21
-0.1955868761
 31
0.0
  0
LINE
  5
3F9
330
1F
100
AcDbEntity
  8
0
  6
Continuous
 62
     7
370
    15
100
AcDbLine
 10
0.7981917234
 20
-0.1955868761
 30
0.0
 11
0.7947763345
 21
-0.2257984364
 31
0.0
  0
LINE
  5
3FA
330
1F
100
AcDbEntity
  8
0
  6
Continuous
 62
     7
370
    15
100
AcDbLine
 10
0.7947763345
 20
-0.2257984364
 30
0.0
 11
0.7902635434
 21
-0.2558652368
 31
0.0
  0
LINE
  5
3FB
330
1F
100
AcDbEntity
  8
0
  6
Continuous
 62
     7
370
    15
100
AcDbLine
 10
0.7902635434
 20
-0.2558652368
 30
0.0
 11
0.7846651704
 21
-0.2857485224
 31
0.0
  0
LINE
  5
3FC
330
1F
100
AcDbEntity
  8
0
  6
Continuous
 62
     7
370
    15
100
AcDbLine
 10
0.7846651704
 20
-0.2857485224
 30
0.0
 11
0.7779942906
 21
-0.3154103992
 31
0.0
  0
LINE
  5
3FD
330
1F
100
AcDbEntity
  8
0
  6
Continuous
 62
     7
370
    15
100
AcDbLine
 10
0.7779942906
 20
-0.3154103992
 30
0.0
 11
0.7702651824
 21
-0.3448138642
 31
0.0
  0
LINE
  5
3FE
330
1F
100
AcDbEntity
  8
0
  6
Continuous
 62
     7
370
    15
100
AcDbLine
 10
0.7702651824
 20
-0.3448138642
 30
0.0
 11
0.7614932765
 21
-0.3739228332
 31
0.0
  0
LINE
  5
3FF
330
1F
100
AcDbEntity
  8
0
  6
Continuous
 62
     7
370
    15
100
AcDbLine
 10
0.7614932765
 20
-0.3739228332
 30
0.0
 11
0.7516951043
 21
-0.4027021667
 31
0.0
  0
LINE
  5
400
330
1F
100
AcDbEntity
  8
0
  6
Continuous
 62
     7
370
    15
100
AcDbLine
 10
0.7516951043
 20
-0.4027021667
 30
0.0
 11
0.7408882478
 21
-0.4311176926
 31
0.0
  0
LINE
  5
401
330
1F
100
AcDbEntity
  8
0
  6
Continuous
 62
     7
370
    15
100
AcDbLine
 10
0.7408882478
 20
-0.4311176926
 30
0.0
 11
0.7290912882
 21
-0.4591362273
 31
0.0
  0
LINE
  5
402
330
1F
100
AcDbEntity
  8
0
  6
Continuous
 62
     7
370
    15
100
AcDbLine
 10
0.7290912882
 20
-0.4591362273
 30
0.0
 11
0.7163237559
 21
-0.4867255948
 31
0.0
  0
LINE
  5
403
330
1F
100
AcDbEntity
  8
0
  6
Continuous
 62
     7
370
    15
100
AcDbLine
 10
0.7163237559
 20
-0.4867255948
 30
0.0
 11
0.7026060808
 21
-0.5138546425
 31
0.0
  0
LINE
  5
404
330
1F
100
AcDbEntity
  8
0
  6
Continuous
 62
     7
370
    15
100
AcDbLine
 10
0.7026060808
 20
-0.5138546425
 30
0.0
 11
0.6879595428
 21
-0.5404932566
 31
0.0
  0
LINE
  5
405
330
1F
100
AcDbEntity
  8
0
  6
Continuous
 62
     7
370
    15
100
AcDbLine
 10
0.6879595428
 20
-0.5404932566
 30
0.0
 11
0.6724062228
 21
-0.5666123741
 31
0.0
  0
LINE
  5
406
330
1F
100
AcDbEntity
  8
0
  6
Continuous
 62
     7
370
    15
100
AcDbLine
 10
0.6724062228
 20
-0.5666123741
 30
0.0
 11
0.6559689547
 21
-0.5921839937
 31
0.0
  0
LINE
  5
407
330
1F
100
AcDbEntity
  8
0
  6
Continuous
 62
     7
370
    15
100
AcDbLine
 10
0.6559689547
 20
-0.5921839937
 30
0.0
 11
0.6386712776
 21
-0.6171811845
 31
0.0
  0
LINE
  5
408
330
1F
100
AcDbEntity
  8
0
  6
Continuous
 62
     7
370
    15
100
AcDbLine
 10
0.6386712776
 20
-0.6171811845
 30
0.0
 11
0.6205373889
 21
-0.6415780933
 31
0.0
  0
LINE
  5
409
330
1F
100
AcDbEntity
  8
0
  6
Continuous
 62
     7
370
    15
100
AcDbLine
 10
0.6205373889
 20
-0.6415780933
 30
0.0
 11
0.6015920981
 21
-0.6653499494
 31
0.0
  0
LINE
  5
40A
330
1F
100
AcDbEntity
  8
0
  6
Continuous
 62
     7
370
    15
100
AcDbLine
 10
0.6015920981
 20
-0.6653499494
 30
0.0
 11
0.5818607816
 21
-0.6884730688
 31
0.0
  0
LINE
  5
40B
330
1F
100
AcDbEntity
  8
0
  6
Continuous
 62
     7
370
    15
100
AcDbLine
 10
0.5818607816
 20
-0.6884730688
 30
0.0
 11
0.5613693376
 21
-0.7109248561
 31
0.0
  0
LINE
  5
40C
330
1F
100
AcDbEntity
  8
0
  6
Continuous
 62
     7
370
    15
100
AcDbLine
 10
0.5613693376
 20
-0.7109248561
 30
0.0
 11
0.5401441425
 21
-0.7326838051
 31
0.0
  0
LINE
  5
40D
330
1F
100
AcDbEntity
  8
0
  6
Continuous
 62
     7
370
    15
100
AcDbLine
 10
0.5401441425
 20
-0.7326838051
 30
0.0
 11
0.518212008
 21
-0.7537294979
 31
0.0
  0
LINE
  5
40E
330
1F
100
AcDbEntity
  8
0
  6
Continuous
 62
     7
370
    15
100
AcDbLine
 10
0.518212008
 20
-0.7537294979
 30
0.0
 11
0.4956001391
 21
-0.7740426028
 31
0.0
  0
LINE
  5
40F
330
1F
100
AcDbEntity
  8
0
  6
Continuous
 62
     7
370
    15
100
AcDbLine
 10
0.4956001391
 20
-0.7740426028
 30
0.0
 11
0.4723360925
 21
-0.7936048706
 31
0.0
  0
LINE
  5
410
330
1F
100
AcDbEntity
  8
0
  6
Continuous
 62
     7
370
    15
100
AcDbLine
 10
0.4723360925
 20
-0.7936048706
 30
0.0
 11
0.4484477371
 21
-0.8123991301
 31
0.0
  0
LINE
  5
411
330
1F
100
AcDbEntity
  8
0
  6
Continuous
 62
     7
370
    15
100
AcDbLine
 10
0.4484477371
 20
-0.8123991301
 30
0.0
 11
0.4239632139
 21
-0.8304092817
 31
0.0
  0
LINE
  5
412
330
1F
100
AcDbEntity
  8
0
  6
Continuous
 62
     7
370
    15
100
AcDbLine
 10
0.4239632139
 20
-0.8304092817
 30
0.0
 11
0.3989108981
 21
-0.8476202907
 31
0.0
  0
LINE
  5
413
330
1F
100
AcDbEntity
  8
0
  6
Continuous
 62
     7
370
    15
100
AcDbLine
 10
0.3989108981
 20
-0.8476202907
 30
0.0
 11
0.3733193617
 21
-0.8640181784
 31
0.0
  0
LINE
  5
414
330
1F
100
AcDbEntity
  8
0
  6
Continuous
 62
     7
370
    15
100
AcDbLine
 10
0.3733193617
 20
-0.8640181784
 30
0.0
 11
0.3472173373
 21
-0.8795900139
 31
0.0
  0
LINE
  5
415
330
1F
100
AcDbEntity
  8
0
  6
Continuous
 62
     7
370
    15
100
AcDbLine
 10
0.3472173373
 20
-0.8795900139
 30
0.0
 11
0.3206336821
 21
-0.8943239028
 31
0.0
  0
LINE
  5
416
330
1F
100
AcDbEntity
  8
0
  6
Continuous
 62
     7
370
    15
100
AcDbLine
 10
0.3206336821
 20
-0.8943239028
 30
0.0
 11
0.2935973442
 21
-0.908208977
 31
0.0
  0
LINE
  5
417
330
1F
100
AcDbEntity
  8
0
  6
Continuous
 62
     7
370
    15
100
AcDbLine
 10
0.2935973442
 20
-0.908208977
 30
0.0
 11
0.2661373288
 21
-0.921235382
 31
0.0
  0
LINE
  5
418
330
1F
100
AcDbEntity
  8
0
  6
Continuous
 62
     7
370
    15
100
AcDbLine
 10
0.2661373288
 20
-0.921235382
 30
0.0
 11
0.238282666
 21
-0.9333942646
 31
0.0
  0
LINE
  5
419
330
1F
100
AcDbEntity
  8
0
  6
Continuous
 62
     7
370
    15
100
AcDbLine
 10
0.238282666
 20
-0.9333942646
 30
0.0
 11
0.2100623791
 21
-0.9446777592
 31
0.0
  0
LINE
  5
41A
330
1F
100
AcDbEntity
  8
0
  6
Continuous
 62
     7
370
    15
100
AcDbLine
 10
0.2100623791
 20
-0.9446777592
 30
0.0
 11
0.1815054549
 21
-0.9550789734
 31
0.0
  0
LINE
  5
41B
330
1F
100
AcDbEntity
  8
0
  6
Continuous
 62
     7
370
    15
100
AcDbLine
 10
0.1815054549
 20
-0.9550789734
 30
0.0
 11
0.1526408137
 21
-0.9645919733
 31
0.0
  0
LINE
  5
41C
330
1F
100
AcDbEntity
  8
0
  6
Continuous
 62
     7
370
    15
100
AcDbLine
 10
0.1526408137
 20
-0.9645919733
 30
0.0
 11
0.1234972811
 21
-0.9732117679
 31
0.0
  0
LINE
  5
41D
330
1F
100
AcDbEntity
  8
0
  6
Continuous
 62
     7
370
    15
100
AcDbLine
 10
0.1234972811
 20
-0.9732117679
 30
0.0
 11
0.0941035608
 21
-0.9809342929
 31
0.0
  0
LINE
  5
41E
330
1F
100
AcDbEntity
  8
0
  6
Continuous
 62
     7
370
    15
100
AcDbLine
 10
0.0941035608
 20
-0.9809342929
 30
0.0
 11
0.0644882081
 21
-0.9877563941
 31
0.0
  0
LINE
  5
41F
330
1F
100
AcDbEntity
  8
0
  6
Continuous
 62
     7
370
    15
100
AcDbLine
 10
0.0644882081
 20
-0.9877563941
 30
0.0
 11
0.0346796046
 21
-0.9936758104
 31
0.0
  0
LINE
  5
420
330
1F
100
AcDbEntity
  8
0
  6
Continuous
 62
     7
370
    15
100
AcDbLine
 10
0.0346796046
 20
-0.9936758104
 30
0.0
 11
0.0047059336
 21
-0.998691156
 31
0.0
  0
LINE
  5
421
330
1F
100
AcDbEntity
  8
0
  6
Continuous
 62
     7
370
    15
100
AcDbLine
 10
0.0047059336
 20
-0.998691156
 30
0.0
 11
-0.025404843
 21
-1.0028019025
 31
0.0
  0
LINE
  5
422
330
1F
100
AcDbEntity
  8
0
  6
Continuous
 62
     7
370
    15
100
AcDbLine
 10
-0.025404843
 20
-1.0028019025
 30
0.0
 11
-0.0556250075
 21
-1.0060083609
 31
0.0
  0
LINE
  5
423
330
1F
100
AcDbEntity
  8
0
  6
Continuous
 62
     7
370
    15
100
AcDbLine
 10
-0.0556250075
 20
-1.0060083609
 30
0.0
 11
-0.0859271079
 21
-1.0083116623
 31
0.0
  0
LINE
  5
424
330
1F
100
AcDbEntity
  8
0
  6
Continuous
 62
     7
370
    15
100
AcDbLine
 10
-0.0859271079
 20
-1.0083116623
 30
0.0
 11
-0.1162839784
 21
-1.0097137392
 31
0.0
  0
LINE
  5
425
330
1F
100
AcDbEntity
  8
0
  6
Continuous
 62
     7
370
    15
100
AcDbLine
 10
-0.1162839784
 20
-1.0097137392
 30
0.0
 11
-0.1466687588
 21
-1.0102173065
 31
0.0
  0
LINE
  5
426
330
1F
100
AcDbEntity
  8
0
  6
Continuous
 62
     7
370
    15
100
AcDbLine
 10
-0.1466687588
 20
-1.0102173065
 30
0.0
 11
-0.177054914
 21
-1.0098258416
 31
0.0
  0
LINE
  5
427
330
1F
100
AcDbEntity
  8
0
  6
Continuous
 62
     7
370
    15
100
AcDbLine
 10
-0.177054914
 20
-1.0098258416
 30
0.0
 11
-0.207416251
 21
-1.0085435651
 31
0.0
  0
LINE
  5
428
330
1F
100
AcDbEntity
  8
0
  6
Continuous
 62
     7
370
    15
100
AcDbLine
 10
-0.207416251
 20
-1.0085435651
 30
0.0
 11
-0.2377269366
 21
-1.0063754206
 31
0.0
  0
LINE
  5
429
330
1F
100
AcDbEntity
  8
0
  6
Continuous
 62
     7
370
    15
100
AcDbLine
 10
-0.2377269366
 20
-1.0063754206
 30
0.0
 11
-0.2679615129
 21
-1.0033270549
 31
0.0
  0
LINE
  5
42A
330
1F
100
AcDbEntity
  8
0
  6
Continuous
 62
     7
370
    15
100
AcDbLine
 10
-0.2679615129
 20
-1.0033270549
 30
0.0
 11
-0.2980949131
 21
-0.999404798
 31
0.0
  0
LINE
  5
42B
330
1F
100
AcDbEntity
  8
0
  6
Continuous
 62
     7
370
    15
100
AcDbLine
 10
-0.2980949131
 20
-0.999404798
 30
0.0
 11
-0.3281024754
 21
-0.9946156427
 31
0.0
  0
LINE
  5
42C
330
1F
100
AcDbEntity
  8
0
  6
Continuous
 62
     7
370
    15
100
AcDbLine
 10
-0.3281024754
 20
-0.9946156427
 30
0.0
 11
-0.3579599572
 21
-0.9889672245
 31
0.0
  0
LINE
  5
42D
330
1F
100
AcDbEntity
  8
0
  6
Continuous
 62
     7
370
    15
100
AcDbLine
 10
-0.3579599572
 20
-0.9889672245
 30
0.0
 11
-0.3876435471
 21
-0.9824678012
 31
0.0
  0
LINE
  5
42E
330
1F
100
AcDbEntity
  8
0
  6
Continuous
 62
     7
370
    15
100
AcDbLine
 10
-0.3876435471
 20
-0.9824678012
 30
0.0
 11
-0.4171298776
 21
-0.9751262327
 31
0.0
  0
LINE
  5
42F
330
1F
100
AcDbEntity
  8
0
  6
Continuous
 62
     7
370
    15
100
AcDbLine
 10
-0.4171298776
 20
-0.9751262327
 30
0.0
 11
-0.446396036
 21
-0.9669519607
 31
0.0
  0
LINE
  5
430
330
1F
100
AcDbEntity
  8
0
  6
Continuous
 62
     7
370
    15
100
AcDbLine
 10
-0.446396036
 20
-0.9669519607
 30
0.0
 11
-0.4754195746
 21
-0.9579549886
 31
0.0
  0
LINE
  5
431
330
1F
100
AcDbEntity
  8
0
  6
Continuous
 62
     7
370
    15
100
AcDbLine
 10
-0.4754195746
 20
-0.9579549886
 30
0.0
 11
-0.5041785209
 21
-0.9481458608
 31
0.0
  0
LINE
  5
432
330
1F
100
AcDbEntity
  8
0
  6
Continuous
 62
     7
370
    15
100
AcDbLine
 10
-0.5041785209
 20
-0.9481458608
 30
0.0
 11
-0.5326513865
 21
-0.9375356433
 31
0.0
  0
LINE
  5
433
330
1F
100
AcDbEntity
  8
0
  6
Continuous
 62
     7
370
    15
100
AcDbLine
 10
-0.5326513865
 20
-0.9375356433
 30
0.0
 11
-0.560817175
 21
-0.9261359029
 31
0.0
  0
LINE
  5
434
330
1F
100
AcDbEntity
  8
0
  6
Continuous
 62
     7
370
    15
100
AcDbLine
 10
-0.560817175
 20
-0.9261359029
 30
0.0
 11
-0.58865539
 21
-0.9139586881
 31
0.0
  0
LINE
  5
435
330
1F
100
AcDbEntity
  8
0
  6
Continuous
 62
     7
370
    15
100
AcDbLine
 10
-0.58865539
 20
-0.9139586881
 30
0.0
 11
-0.6161460417
 21
-0.9010165085
 31
0.0
  0
LINE
  5
436
330
1F
100
AcDbEntity
  8
0
  6
Continuous
 62
     7
370
    15
100
AcDbLine
 10
-0.6161460417
 20
-0.9010165085
 30
0.0
 11
-0.6271035926
 21
-0.8955967458
 31
0.0
  0
LINE
  5
437
330
1F
100
AcDbEntity
  8
0
  6
Continuous
 62
     7
370
    15
100
AcDbLine
 10
-1.6179313175
 20
-2.6926898956
 30
0.0
 11
-1.6148084311
 21
-2.6937397853
 31
0.0
  0
LINE
  5
438
330
1F
100
AcDbEntity
  8
0
  6
Continuous
 62
     7
370
    15
100
AcDbLine
 10
-1.6148084311
 20
-2.6937397853
 30
0.0
 11
-1.5856110243
 21
-2.7033838905
 31
0.0
  0
LINE
  5
439
330
1F
100
AcDbEntity
  8
0
  6
Continuous
 62
     7
370
    15
100
AcDbLine
 10
-1.5856110243
 20
-2.7033838905
 30
0.0
 11
-1.5563224778
 21
-2.7127477858
 31
0.0
  0
LINE
  5
43A
330
1F
100
AcDbEntity
  8
0
  6
Continuous
 62
     7
370
    15
100
AcDbLine
 10
-1.5563224778
 20
-2.7127477858
 30
0.0
 11
-1.5269452966
 21
-2.7218300159
 31
0.0
  0
LINE
  5
43B
330
1F
100
AcDbEntity
  8
0
  6
Continuous
 62
     7
370
    15
100
AcDbLine
 10
-1.5269452966
 20
-2.7218300159
 30
0.0
 11
-1.4974820104
 21
-2.7306291432
 31
0.0
  0
LINE
  5
43C
330
1F
100
AcDbEntity
  8
0
  6
Continuous
 62
     7
370
    15
100
AcDbLine
 10
-1.4974820104
 20
-2.7306291432
 30
0.0
 11
-1.4679351733
 21
-2.7391437488
 31
0.0
  0
LINE
  5
43D
330
1F
100
AcDbEntity
  8
0
  6
Continuous
 62
     7
370
    15
100
AcDbLine
 10
-1.4679351733
 20
-2.7391437488
 30
0.0
 11
-1.4383073639
 21
-2.7473724325
 31
0.0
  0
LINE
  5
43E
330
1F
100
AcDbEntity
  8
0
  6
Continuous
 62
     7
370
    15
100
AcDbLine
 10
-1.4383073639
 20
-2.7473724325
 30
0.0
 11
-1.4086011852
 21
-2.7553138132
 31
0.0
  0
LINE
  5
43F
330
1F
100
AcDbEntity
  8
0
  6
Continuous
 62
     7
370
    15
100
AcDbLine
 10
-1.4086011852
 20
-2.7553138132
 30
0.0
 11
-1.3788192647
 21
-2.7629665293
 31
0.0
  0
LINE
  5
440
330
1F
100
AcDbEntity
  8
0
  6
Continuous
 62
     7
370
    15
100
AcDbLine
 10
-1.3788192647
 20
-2.7629665293
 30
0.0
 11
-1.3489642542
 21
-2.770329239
 31
0.0
  0
LINE
  5
441
330
1F
100
AcDbEntity
  8
0
  6
Continuous
 62
     7
370
    15
100
AcDbLine
 10
-1.3489642542
 20
-2.770329239
 30
0.0
 11
-1.3190388301
 21
-2.7774006206
 31
0.0
  0
LINE
  5
442
330
1F
100
AcDbEntity
  8
0
  6
Continuous
 62
     7
370
    15
100
AcDbLine
 10
-1.3190388301
 20
-2.7774006206
 30
0.0
 11
-1.2890456927
 21
-2.7841793733
 31
0.0
  0
LINE
  5
443
330
1F
100
AcDbEntity
  8
0
  6
Continuous
 62
     7
370
    15
100
AcDbLine
 10
-1.2890456927
 20
-2.7841793733
 30
0.0
 11
-1.2589875669
 21
-2.790664217
 31
0.0
  0
LINE
  5
444
330
1F
100
AcDbEntity
  8
0
  6
Continuous
 62
     7
370
    15
100
AcDbLine
 10
-1.2589875669
 20
-2.790664217
 30
0.0
 11
-1.2288672018
 21
-2.7968538929
 31
0.0
  0
LINE
  5
445
330
1F
100
AcDbEntity
  8
0
  6
Continuous
 62
     7
370
    15
100
AcDbLine
 10
-1.2288672018
 20
-2.7968538929
 30
0.0
 11
-1.1986873703
 21
-2.802747164
 31
0.0
  0
LINE
  5
446
330
1F
100
AcDbEntity
  8
0
  6
Continuous
 62
     7
370
    15
100
AcDbLine
 10
-1.1986873703
 20
-2.802747164
 30
0.0
 11
-1.1684508699
 21
-2.8083428153
 31
0.0
  0
LINE
  5
447
330
1F
100
AcDbEntity
  8
0
  6
Continuous
 62
     7
370
    15
100
AcDbLine
 10
-1.1684508699
 20
-2.8083428153
 30
0.0
 11
-1.1381605218
 21
-2.8136396544
 31
0.0
  0
LINE
  5
448
330
1F
100
AcDbEntity
  8
0
  6
Continuous
 62
     7
370
    15
100
AcDbLine
 10
-1.1381605218
 20
-2.8136396544
 30
0.0
 11
-1.1078191713
 21
-2.8186365116
 31
0.0
  0
LINE
  5
449
330
1F
100
AcDbEntity
  8
0
  6
Continuous
 62
     7
370
    15
100
AcDbLine
 10
-1.1078191713
 20
-2.8186365116
 30
0.0
 11
-1.0774296876
 21
-2.8233322405
 31
0.0
  0
LINE
  5
44A
330
1F
100
AcDbEntity
  8
0
  6
Continuous
 62
     7
370
    15
100
AcDbLine
 10
-1.0774296876
 20
-2.8233322405
 30
0.0
 11
-1.0469949636
 21
-2.8277257181
 31
0.0
  0
LINE
  5
44B
330
1F
100
AcDbEntity
  8
0
  6
Continuous
 62
     7
370
    15
100
AcDbLine
 10
-1.0469949636
 20
-2.8277257181
 30
0.0
 11
-1.0165179161
 21
-2.8318158458
 31
0.0
  0
LINE
  5
44C
330
1F
100
AcDbEntity
  8
0
  6
Continuous
 62
     7
370
    15
100
AcDbLine
 10
-1.0165179161
 20
-2.8318158458
 30
0.0
 11
-0.9860014855
 21
-2.8356015491
 31
0.0
  0
LINE
  5
44D
330
1F
100
AcDbEntity
  8
0
  6
Continuous
 62
     7
370
    15
100
AcDbLine
 10
-0.9860014855
 20
-2.8356015491
 30
0.0
 11
-0.9554486357
 21
-2.8390817784
 31
0.0
  0
LINE
  5
44E
330
1F
100
AcDbEntity
  8
0
  6
Continuous
 62
     7
370
    15
100
AcDbLine
 10
-0.9554486357
 20
-2.8390817784
 30
0.0
 11
-0.9248623542
 21
-2.8422555093
 31
0.0
  0
LINE
  5
44F
330
1F
100
AcDbEntity
  8
0
  6
Continuous
 62
     7
370
    15
100
AcDbLine
 10
-0.9248623542
 20
-2.8422555093
 30
0.0
 11
-0.8942456518
 21
-2.845121743
 31
0.0
  0
LINE
  5
450
330
1F
100
AcDbEntity
  8
0
  6
Continuous
 62
     7
370
    15
100
AcDbLine
 10
-0.8942456518
 20
-2.845121743
 30
0.0
 11
-0.8636015625
 21
-2.8476795067
 31
0.0
  0
LINE
  5
451
330
1F
100
AcDbEntity
  8
0
  6
Continuous
 62
     7
370
    15
100
AcDbLine
 10
-0.8636015625
 20
-2.8476795067
 30
0.0
 11
-0.8329331437
 21
-2.8499278541
 31
0.0
  0
LINE
  5
452
330
1F
100
AcDbEntity
  8
0
  6
Continuous
 62
     7
370
    15
100
AcDbLine
 10
-0.8329331437
 20
-2.8499278541
 30
0.0
 11
-0.8022434756
 21
-2.8518658654
 31
0.0
  0
LINE
  5
453
330
1F
100
AcDbEntity
  8
0
  6
Continuous
 62
     7
370
    15
100
AcDbLine
 10
-0.8022434756
 20
-2.8518658654
 30
0.0
 11
-0.7715356613
 21
-2.8534926486
 31
0.0
  0
LINE
  5
454
330
1F
100
AcDbEntity
  8
0
  6
Continuous
 62
     7
370
    15
100
AcDbLine
 10
-0.7715356613
 20
-2.8534926486
 30
0.0
 11
-0.740812827
 21
-2.8548073388
 31
0.0
  0
LINE
  5
455
330
1F
100
AcDbEntity
  8
0
  6
Continuous
 62
     7
370
    15
100
AcDbLine
 10
-0.740812827
 20
-2.8548073388
 30
0.0
 11
-0.7100781212
 21
-2.8558090995
 31
0.0
  0
LINE
  5
456
330
1F
100
AcDbEntity
  8
0
  6
Continuous
 62
     7
370
    15
100
AcDbLine
 10
-0.7100781212
 20
-2.8558090995
 30
0.0
 11
-0.6793347153
 21
-2.8564971225
 31
0.0
  0
LINE
  5
457
330
1F
100
AcDbEntity
  8
0
  6
Continuous
 62
     7
370
    15
100
AcDbLine
 10
-0.6793347153
 20
-2.8564971225
 30
0.0
 11
-0.6485858027
 21
-2.8568706288
 31
0.0
  0
LINE
  5
458
330
1F
100
AcDbEntity
  8
0
  6
Continuous
 62
     7
370
    15
100
AcDbLine
 10
-0.6485858027
 20
-2.8568706288
 30
0.0
 11
-0.6178345995
 21
-2.8569288684
 31
0.0
  0
LINE
  5
459
330
1F
100
AcDbEntity
  8
0
  6
Continuous
 62
     7
370
    15
100
AcDbLine
 10
-0.6178345995
 20
-2.8569288684
 30
0.0
 11
-0.5870843434
 21
-2.8566711212
 31
0.0
  0
LINE
  5
45A
330
1F
100
AcDbEntity
  8
0
  6
Continuous
 62
     7
370
    15
100
AcDbLine
 10
-0.5870843434
 20
-2.8566711212
 30
0.0
 11
-0.5563382944
 21
-2.8560966973
 31
0.0
  0
LINE
  5
45B
330
1F
100
AcDbEntity
  8
0
  6
Continuous
 62
     7
370
    15
100
AcDbLine
 10
-0.5563382944
 20
-2.8560966973
 30
0.0
 11
-0.5255997342
 21
-2.8552049375
 31
0.0
  0
LINE
  5
45C
330
1F
100
AcDbEntity
  8
0
  6
Continuous
 62
     7
370
    15
100
AcDbLine
 10
-0.5255997342
 20
-2.8552049375
 30
0.0
 11
-0.4948719659
 21
-2.8539952135
 31
0.0
  0
LINE
  5
45D
330
1F
100
AcDbEntity
  8
0
  6
Continuous
 62
     7
370
    15
100
AcDbLine
 10
-0.4948719659
 20
-2.8539952135
 30
0.0
 11
-0.4641583143
 21
-2.8524669286
 31
0.0
  0
LINE
  5
45E
330
1F
100
AcDbEntity
  8
0
  6
Continuous
 62
     7
370
    15
100
AcDbLine
 10
-0.4641583143
 20
-2.8524669286
 30
0.0
 11
-0.4334621253
 21
-2.8506195179
 31
0.0
  0
LINE
  5
45F
330
1F
100
AcDbEntity
  8
0
  6
Continuous
 62
     7
370
    15
100
AcDbLine
 10
-0.4334621253
 20
-2.8506195179
 30
0.0
 11
-0.4027867659
 21
-2.8484524491
 31
0.0
  0
LINE
  5
460
330
1F
100
AcDbEntity
  8
0
  6
Continuous
 62
     7
370
    15
100
AcDbLine
 10
-0.4027867659
 20
-2.8484524491
 30
0.0
 11
-0.3721356238
 21
-2.8459652225
 31
0.0
  0
LINE
  5
461
330
1F
100
AcDbEntity
  8
0
  6
Continuous
 62
     7
370
    15
100
AcDbLine
 10
-0.3721356238
 20
-2.8459652225
 30
0.0
 11
-0.3415121076
 21
-2.8431573718
 31
0.0
  0
LINE
  5
462
330
1F
100
AcDbEntity
  8
0
  6
Continuous
 62
     7
370
    15
100
AcDbLine
 10
-0.3415121076
 20
-2.8431573718
 30
0.0
 11
-0.3109196462
 21
-2.8400284643
 31
0.0
  0
LINE
  5
463
330
1F
100
AcDbEntity
  8
0
  6
Continuous
 62
     7
370
    15
100
AcDbLine
 10
-0.3109196462
 20
-2.8400284643
 30
0.0
 11
-0.2803616887
 21
-2.8365781014
 31
0.0
  0
LINE
  5
464
330
1F
100
AcDbEntity
  8
0
  6
Continuous
 62
     7
370
    15
100
AcDbLine
 10
-0.2803616887
 20
-2.8365781014
 30
0.0
 11
-0.2498417043
 21
-2.8328059192
 31
0.0
  0
LINE
  5
465
330
1F
100
AcDbEntity
  8
0
  6
Continuous
 62
     7
370
    15
100
AcDbLine
 10
-0.2498417043
 20
-2.8328059192
 30
0.0
 11
-0.2193631821
 21
-2.828711589
 31
0.0
  0
LINE
  5
466
330
1F
100
AcDbEntity
  8
0
  6
Continuous
 62
     7
370
    15
100
AcDbLine
 10
-0.2193631821
 20
-2.828711589
 30
0.0
 11
-0.1889296304
 21
-2.8242948172
 31
0.0
  0
LINE
  5
467
330
1F
100
AcDbEntity
  8
0
  6
Continuous
 62
     7
370
    15
100
AcDbLine
 10
-0.1889296304
 20
-2.8242948172
 30
0.0
 11
-0.1585445771
 21
-2.8195553464
 31
0.0
  0
LINE
  5
468
330
1F
100
AcDbEntity
  8
0
  6
Continuous
 62
     7
370
    15
100
AcDbLine
 10
-0.1585445771
 20
-2.8195553464
 30
0.0
 11
-0.1282115691
 21
-2.8144929558
 31
0.0
  0
LINE
  5
469
330
1F
100
AcDbEntity
  8
0
  6
Continuous
 62
     7
370
    15
100
AcDbLine
 10
-0.1282115691
 20
-2.8144929558
 30
0.0
 11
-0.0979341721
 21
-2.8091074611
 31
0.0
  0
LINE
  5
46A
330
1F
100
AcDbEntity
  8
0
  6
Continuous
 62
     7
370
    15
100
AcDbLine
 10
-0.0979341721
 20
-2.8091074611
 30
0.0
 11
-0.0677159702
 21
-2.8033987155
 31
0.0
  0
LINE
  5
46B
330
1F
100
AcDbEntity
  8
0
  6
Continuous
 62
     7
370
    15
100
AcDbLine
 10
-0.0677159702
 20
-2.8033987155
 30
0.0
 11
-0.0375605659
 21
-2.79736661
 31
0.0
  0
LINE
  5
46C
330
1F
100
AcDbEntity
  8
0
  6
Continuous
 62
     7
370
    15
100
AcDbLine
 10
-0.0375605659
 20
-2.79736661
 30
0.0
 11
-0.0074715797
 21
-2.791011074
 31
0.0
  0
LINE
  5
46D
330
1F
100
AcDbEntity
  8
0
  6
Continuous
 62
     7
370
    15
100
AcDbLine
 10
-0.0074715797
 20
-2.791011074
 30
0.0
 11
0.0225473502
 21
-2.7843320752
 31
0.0
  0
LINE
  5
46E
330
1F
100
AcDbEntity
  8
0
  6
Continuous
 62
     7
370
    15
100
AcDbLine
 10
0.0225473502
 20
-2.7843320752
 30
0.0
 11
0.0524925683
 21
-2.7773296209
 31
0.0
  0
LINE
  5
46F
330
1F
100
AcDbEntity
  8
0
  6
Continuous
 62
     7
370
    15
100
AcDbLine
 10
0.0524925683
 20
-2.7773296209
 30
0.0
 11
0.0823604019
 21
-2.7700037579
 31
0.0
  0
LINE
  5
470
330
1F
100
AcDbEntity
  8
0
  6
Continuous
 62
     7
370
    15
100
AcDbLine
 10
0.0823604019
 20
-2.7700037579
 30
0.0
 11
0.1121471615
 21
-2.7623545731
 31
0.0
  0
LINE
  5
471
330
1F
100
AcDbEntity
  8
0
  6
Continuous
 62
     7
370
    15
100
AcDbLine
 10
0.1121471615
 20
-2.7623545731
 30
0.0
 11
0.1418491412
 21
-2.7543821939
 31
0.0
  0
LINE
  5
472
330
1F
100
AcDbEntity
  8
0
  6
Continuous
 62
     7
370
    15
100
AcDbLine
 10
0.1418491412
 20
-2.7543821939
 30
0.0
 11
0.1714626189
 21
-2.7460867889
 31
0.0
  0
LINE
  5
473
330
1F
100
AcDbEntity
  8
0
  6
Continuous
 62
     7
370
    15
100
AcDbLine
 10
0.1714626189
 20
-2.7460867889
 30
0.0
 11
0.2009838567
 21
-2.7374685683
 31
0.0
  0
LINE
  5
474
330
1F
100
AcDbEntity
  8
0
  6
Continuous
 62
     7
370
    15
100
AcDbLine
 10
0.2009838567
 20
-2.7374685683
 30
0.0
 11
0.2304091011
 21
-2.7285277839
 31
0.0
  0
LINE
  5
475
330
1F
100
AcDbEntity
  8
0
  6
Continuous
 62
     7
370
    15
100
AcDbLine
 10
0.2304091011
 20
-2.7285277839
 30
0.0
 11
0.2597345837
 21
-2.7192647305
 31
0.0
  0
LINE
  5
476
330
1F
100
AcDbEntity
  8
0
  6
Continuous
 62
     7
370
    15
100
AcDbLine
 10
0.2597345837
 20
-2.7192647305
 30
0.0
 11
0.2889565212
 21
-2.7096797454
 31
0.0
  0
LINE
  5
477
330
1F
100
AcDbEntity
  8
0
  6
Continuous
 62
     7
370
    15
100
AcDbLine
 10
0.2889565212
 20
-2.7096797454
 30
0.0
 11
0.3180711159
 21
-2.6997732095
 31
0.0
  0
LINE
  5
478
330
1F
100
AcDbEntity
  8
0
  6
Continuous
 62
     7
370
    15
100
AcDbLine
 10
0.3180711159
 20
-2.6997732095
 30
0.0
 11
0.3470745561
 21
-2.6895455477
 31
0.0
  0
LINE
  5
479
330
1F
100
AcDbEntity
  8
0
  6
Continuous
 62
     7
370
    15
100
AcDbLine
 10
0.3470745561
 20
-2.6895455477
 30
0.0
 11
0.3759630164
 21
-2.678997229
 31
0.0
  0
LINE
  5
47A
330
1F
100
AcDbEntity
  8
0
  6
Continuous
 62
     7
370
    15
100
AcDbLine
 10
0.3759630164
 20
-2.678997229
 30
0.0
 11
0.4047326584
 21
-2.6681287674
 31
0.0
  0
LINE
  5
47B
330
1F
100
AcDbEntity
  8
0
  6
Continuous
 62
     7
370
    15
100
AcDbLine
 10
0.4047326584
 20
-2.6681287674
 30
0.0
 11
0.4333796307
 21
-2.6569407221
 31
0.0
  0
LINE
  5
47C
330
1F
100
AcDbEntity
  8
0
  6
Continuous
 62
     7
370
    15
100
AcDbLine
 10
0.4333796307
 20
-2.6569407221
 30
0.0
 11
0.4619000693
 21
-2.6454336983
 31
0.0
  0
LINE
  5
47D
330
1F
100
AcDbEntity
  8
0
  6
Continuous
 62
     7
370
    15
100
AcDbLine
 10
0.4619000693
 20
-2.6454336983
 30
0.0
 11
0.4902900985
 21
-2.6336083473
 31
0.0
  0
LINE
  5
47E
330
1F
100
AcDbEntity
  8
0
  6
Continuous
 62
     7
370
    15
100
AcDbLine
 10
0.4902900985
 20
-2.6336083473
 30
0.0
 11
0.518545831
 21
-2.621465367
 31
0.0
  0
LINE
  5
47F
330
1F
100
AcDbEntity
  8
0
  6
Continuous
 62
     7
370
    15
100
AcDbLine
 10
0.518545831
 20
-2.621465367
 30
0.0
 11
0.5466633681
 21
-2.6090055029
 31
0.0
  0
LINE
  5
480
330
1F
100
AcDbEntity
  8
0
  6
Continuous
 62
     7
370
    15
100
AcDbLine
 10
0.5466633681
 20
-2.6090055029
 30
0.0
 11
0.5746388008
 21
-2.5962295476
 31
0.0
  0
LINE
  5
481
330
1F
100
AcDbEntity
  8
0
  6
Continuous
 62
     7
370
    15
100
AcDbLine
 10
0.5746388008
 20
-2.5962295476
 30
0.0
 11
0.6024682097
 21
-2.5831383425
 31
0.0
  0
LINE
  5
482
330
1F
100
AcDbEntity
  8
0
  6
Continuous
 62
     7
370
    15
100
AcDbLine
 10
0.6024682097
 20
-2.5831383425
 30
0.0
 11
0.6301476656
 21
-2.5697327772
 31
0.0
  0
LINE
  5
483
330
1F
100
AcDbEntity
  8
0
  6
Continuous
 62
     7
370
    15
100
AcDbLine
 10
0.6301476656
 20
-2.5697327772
 30
0.0
 11
0.6576732302
 21
-2.5560137905
 31
0.0
  0
LINE
  5
484
330
1F
100
AcDbEntity
  8
0
  6
Continuous
 62
     7
370
    15
100
AcDbLine
 10
0.6576732302
 20
-2.5560137905
 30
0.0
 11
0.6850409564
 21
-2.5419823707
 31
0.0
  0
LINE
  5
485
330
1F
100
AcDbEntity
  8
0
  6
Continuous
 62
     7
370
    15
100
AcDbLine
 10
0.6850409564
 20
-2.5419823707
 30
0.0
 11
0.7122468886
 21
-2.5276395564
 31
0.0
  0
LINE
  5
486
330
1F
100
AcDbEntity
  8
0
  6
Continuous
 62
     7
370
    15
100
AcDbLine
 10
0.7122468886
 20
-2.5276395564
 30
0.0
 11
0.7392870639
 21
-2.5129864365
 31
0.0
  0
LINE
  5
487
330
1F
100
AcDbEntity
  8
0
  6
Continuous
 62
     7
370
    15
100
AcDbLine
 10
0.7392870639
 20
-2.5129864365
 30
0.0
 11
0.7661575118
 21
-2.4980241508
 31
0.0
  0
LINE
  5
488
330
1F
100
AcDbEntity
  8
0
  6
Continuous
 62
     7
370
    15
100
AcDbLine
 10
0.7661575118
 20
-2.4980241508
 30
0.0
 11
0.7928542552
 21
-2.4827538908
 31
0.0
  0
LINE
  5
489
330
1F
100
AcDbEntity
  8
0
  6
Continuous
 62
     7
370
    15
100
AcDbLine
 10
0.7928542552
 20
-2.4827538908
 30
0.0
 11
0.819373311
 21
-2.4671768996
 31
0.0
  0
LINE
  5
48A
330
1F
100
AcDbEntity
  8
0
  6
Continuous
 62
     7
370
    15
100
AcDbLine
 10
0.819373311
 20
-2.4671768996
 30
0.0
 11
0.8457106903
 21
-2.451294473
 31
0.0
  0
LINE
  5
48B
330
1F
100
AcDbEntity
  8
0
  6
Continuous
 62
     7
370
    15
100
AcDbLine
 10
0.8457106903
 20
-2.451294473
 30
0.0
 11
0.8718623993
 21
-2.4351079595
 31
0.0
  0
LINE
  5
48C
330
1F
100
AcDbEntity
  8
0
  6
Continuous
 62
     7
370
    15
100
AcDbLine
 10
0.8718623993
 20
-2.4351079595
 30
0.0
 11
0.8978244397
 21
-2.4186187608
 31
0.0
  0
LINE
  5
48D
330
1F
100
AcDbEntity
  8
0
  6
Continuous
 62
     7
370
    15
100
AcDbLine
 10
0.8978244397
 20
-2.4186187608
 30
0.0
 11
0.9235928093
 21
-2.4018283324
 31
0.0
  0
LINE
  5
48E
330
1F
100
AcDbEntity
  8
0
  6
Continuous
 62
     7
370
    15
100
AcDbLine
 10
0.9235928093
 20
-2.4018283324
 30
0.0
 11
0.9491635028
 21
-2.3847381841
 31
0.0
  0
LINE
  5
48F
330
1F
100
AcDbEntity
  8
0
  6
Continuous
 62
     7
370
    15
100
AcDbLine
 10
0.9491635028
 20
-2.3847381841
 30
0.0
 11
0.9745325121
 21
-2.3673498804
 31
0.0
  0
LINE
  5
490
330
1F
100
AcDbEntity
  8
0
  6
Continuous
 62
     7
370
    15
100
AcDbLine
 10
0.9745325121
 20
-2.3673498804
 30
0.0
 11
0.9996958271
 21
-2.3496650406
 31
0.0
  0
LINE
  5
491
330
1F
100
AcDbEntity
  8
0
  6
Continuous
 62
     7
370
    15
100
AcDbLine
 10
0.9996958271
 20
-2.3496650406
 30
0.0
 11
1.0246494364
 21
-2.33168534
 31
0.0
  0
LINE
  5
492
330
1F
100
AcDbEntity
  8
0
  6
Continuous
 62
     7
370
    15
100
AcDbLine
 10
1.0246494364
 20
-2.33168534
 30
0.0
 11
1.0493893278
 21
-2.3134125096
 31
0.0
  0
LINE
  5
493
330
1F
100
AcDbEntity
  8
0
  6
Continuous
 62
     7
370
    15
100
AcDbLine
 10
1.0493893278
 20
-2.3134125096
 30
0.0
 11
1.0739114889
 21
-2.294848337
 31
0.0
  0
LINE
  5
494
330
1F
100
AcDbEntity
  8
0
  6
Continuous
 62
     7
370
    15
100
AcDbLine
 10
1.0739114889
 20
-2.294848337
 30
0.0
 11
1.098211908
 21
-2.2759946666
 31
0.0
  0
LINE
  5
495
330
1F
100
AcDbEntity
  8
0
  6
Continuous
 62
     7
370
    15
100
AcDbLine
 10
1.098211908
 20
-2.2759946666
 30
0.0
 11
1.1222865748
 21
-2.2568534001
 31
0.0
  0
LINE
  5
496
330
1F
100
AcDbEntity
  8
0
  6
Continuous
 62
     7
370
    15
100
AcDbLine
 10
1.1222865748
 20
-2.2568534001
 30
0.0
 11
1.1461314807
 21
-2.2374264971
 31
0.0
  0
LINE
  5
497
330
1F
100
AcDbEntity
  8
0
  6
Continuous
 62
     7
370
    15
100
AcDbLine
 10
1.1461314807
 20
-2.2374264971
 30
0.0
 11
1.1697426199
 21
-2.2177159752
 31
0.0
  0
LINE
  5
498
330
1F
100
AcDbEntity
  8
0
  6
Continuous
 62
     7
370
    15
100
AcDbLine
 10
1.1697426199
 20
-2.2177159752
 30
0.0
 11
1.1931159901
 21
-2.1977239109
 31
0.0
  0
LINE
  5
499
330
1F
100
AcDbEntity
  8
0
  6
Continuous
 62
     7
370
    15
100
AcDbLine
 10
1.1931159901
 20
-2.1977239109
 30
0.0
 11
1.216247593
 21
-2.1774524394
 31
0.0
  0
LINE
  5
49A
330
1F
100
AcDbEntity
  8
0
  6
Continuous
 62
     7
370
    15
100
AcDbLine
 10
1.216247593
 20
-2.1774524394
 30
0.0
 11
1.2391334352
 21
-2.1569037554
 31
0.0
  0
LINE
  5
49B
330
1F
100
AcDbEntity
  8
0
  6
Continuous
 62
     7
370
    15
100
AcDbLine
 10
1.2391334352
 20
-2.1569037554
 30
0.0
 11
1.2617695289
 21
-2.1360801137
 31
0.0
  0
LINE
  5
49C
330
1F
100
AcDbEntity
  8
0
  6
Continuous
 62
     7
370
    15
100
AcDbLine
 10
1.2617695289
 20
-2.1360801137
 30
0.0
 11
1.2841518927
 21
-2.1149838292
 31
0.0
  0
LINE
  5
49D
330
1F
100
AcDbEntity
  8
0
  6
Continuous
 62
     7
370
    15
100
AcDbLine
 10
1.2841518927
 20
-2.1149838292
 30
0.0
 11
1.3062765525
 21
-2.0936172773
 31
0.0
  0
LINE
  5
49E
330
1F
100
AcDbEntity
  8
0
  6
Continuous
 62
     7
370
    15
100
AcDbLine
 10
1.3062765525
 20
-2.0936172773
 30
0.0
 11
1.3281395422
 21
-2.0719828947
 31
0.0
  0
LINE
  5
49F
330
1F
100
AcDbEntity
  8
0
  6
Continuous
 62
     7
370
    15
100
AcDbLine
 10
1.3281395422
 20
-2.0719828947
 30
0.0
 11
1.3497369042
 21
-2.0500831794
 31
0.0
  0
LINE
  5
4A0
330
1F
100
AcDbEntity
  8
0
  6
Continuous
 62
     7
370
    15
100
AcDbLine
 10
1.3497369042
 20
-2.0500831794
 30
0.0
 11
1.3710646909
 21
-2.0279206913
 31
0.0
  0
LINE
  5
4A1
330
1F
100
AcDbEntity
  8
0
  6
Continuous
 62
     7
370
    15
100
AcDbLine
 10
1.3710646909
 20
-2.0279206913
 30
0.0
 11
1.392118965
 21
-2.0054980526
 31
0.0
  0
LINE
  5
4A2
330
1F
100
AcDbEntity
  8
0
  6
Continuous
 62
     7
370
    15
100
AcDbLine
 10
1.392118965
 20
-2.0054980526
 30
0.0
 11
1.4128958004
 21
-1.9828179478
 31
0.0
  0
LINE
  5
4A3
330
1F
100
AcDbEntity
  8
0
  6
Continuous
 62
     7
370
    15
100
AcDbLine
 10
1.4128958004
 20
-1.9828179478
 30
0.0
 11
1.4333912835
 21
-1.9598831245
 31
0.0
  0
LINE
  5
4A4
330
1F
100
AcDbEntity
  8
0
  6
Continuous
 62
     7
370
    15
100
AcDbLine
 10
1.4333912835
 20
-1.9598831245
 30
0.0
 11
1.4536015134
 21
-1.9366963938
 31
0.0
  0
LINE
  5
4A5
330
1F
100
AcDbEntity
  8
0
  6
Continuous
 62
     7
370
    15
100
AcDbLine
 10
1.4536015134
 20
-1.9366963938
 30
0.0
 11
1.4735226034
 21
-1.91326063
 31
0.0
  0
LINE
  5
4A6
330
1F
100
AcDbEntity
  8
0
  6
Continuous
 62
     7
370
    15
100
AcDbLine
 10
1.4735226034
 20
-1.91326063
 30
0.0
 11
1.4931506817
 21
-1.8895787719
 31
0.0
  0
LINE
  5
4A7
330
1F
100
AcDbEntity
  8
0
  6
Continuous
 62
     7
370
    15
100
AcDbLine
 10
1.4931506817
 20
-1.8895787719
 30
0.0
 11
1.512481892
 21
-1.8656538222
 31
0.0
  0
LINE
  5
4A8
330
1F
100
AcDbEntity
  8
0
  6
Continuous
 62
     7
370
    15
100
AcDbLine
 10
1.512481892
 20
-1.8656538222
 30
0.0
 11
1.531512395
 21
-1.8414888486
 31
0.0
  0
LINE
  5
4A9
330
1F
100
AcDbEntity
  8
0
  6
Continuous
 62
     7
370
    15
100
AcDbLine
 10
1.531512395
 20
-1.8414888486
 30
0.0
 11
1.5502383689
 21
-1.8170869834
 31
0.0
  0
LINE
  5
4AA
330
1F
100
AcDbEntity
  8
0
  6
Continuous
 62
     7
370
    15
100
AcDbLine
 10
1.5502383689
 20
-1.8170869834
 30
0.0
 11
1.5686560108
 21
-1.7924514246
 31
0.0
  0
LINE
  5
4AB
330
1F
100
AcDbEntity
  8
0
  6
Continuous
 62
     7
370
    15
100
AcDbLine
 10
1.5686560108
 20
-1.7924514246
 30
0.0
 11
1.5867615371
 21
-1.7675854355
 31
0.0
  0
LINE
  5
4AC
330
1F
100
AcDbEntity
  8
0
  6
Continuous
 62
     7
370
    15
100
AcDbLine
 10
1.5867615371
 20
-1.7675854355
 30
0.0
 11
1.604551185
 21
-1.7424923455
 31
0.0
  0
LINE
  5
4AD
330
1F
100
AcDbEntity
  8
0
  6
Continuous
 62
     7
370
    15
100
AcDbLine
 10
1.604551185
 20
-1.7424923455
 30
0.0
 11
1.6220212133
 21
-1.7171755499
 31
0.0
  0
LINE
  5
4AE
330
1F
100
AcDbEntity
  8
0
  6
Continuous
 62
     7
370
    15
100
AcDbLine
 10
1.6220212133
 20
-1.7171755499
 30
0.0
 11
1.6391679035
 21
-1.6916385107
 31
0.0
  0
LINE
  5
4AF
330
1F
100
AcDbEntity
  8
0
  6
Continuous
 62
     7
370
    15
100
AcDbLine
 10
1.6391679035
 20
-1.6916385107
 30
0.0
 11
1.6559875606
 21
-1.6658847565
 31
0.0
  0
LINE
  5
4B0
330
1F
100
AcDbEntity
  8
0
  6
Continuous
 62
     7
370
    15
100
AcDbLine
 10
1.6559875606
 20
-1.6658847565
 30
0.0
 11
1.6724765147
 21
-1.6399178829
 31
0.0
  0
LINE
  5
4B1
330
1F
100
AcDbEntity
  8
0
  6
Continuous
 62
     7
370
    15
100
AcDbLine
 10
1.6724765147
 20
-1.6399178829
 30
0.0
 11
1.6886311213
 21
-1.6137415526
 31
0.0
  0
LINE
  5
4B2
330
1F
100
AcDbEntity
  8
0
  6
Continuous
 62
     7
370
    15
100
AcDbLine
 10
1.6886311213
 20
-1.6137415526
 30
0.0
 11
1.704447763
 21
-1.5873594958
 31
0.0
  0
LINE
  5
4B3
330
1F
100
AcDbEntity
  8
0
  6
Continuous
 62
     7
370
    15
100
AcDbLine
 10
1.704447763
 20
-1.5873594958
 30
0.0
 11
1.7199228506
 21
-1.5607755105
 31
0.0
  0
LINE
  5
4B4
330
1F
100
AcDbEntity
  8
0
  6
Continuous
 62
     7
370
    15
100
AcDbLine
 10
1.7199228506
 20
-1.5607755105
 30
0.0
 11
1.7350528237
 21
-1.5339934623
 31
0.0
  0
LINE
  5
4B5
330
1F
100
AcDbEntity
  8
0
  6
Continuous
 62
     7
370
    15
100
AcDbLine
 10
1.7350528237
 20
-1.5339934623
 30
0.0
 11
1.7498341522
 21
-1.507017285
 31
0.0
  0
LINE
  5
4B6
330
1F
100
AcDbEntity
  8
0
  6
Continuous
 62
     7
370
    15
100
AcDbLine
 10
1.7498341522
 20
-1.507017285
 30
0.0
 11
1.7642633376
 21
-1.4798509807
 31
0.0
  0
LINE
  5
4B7
330
1F
100
AcDbEntity
  8
0
  6
Continuous
 62
     7
370
    15
100
AcDbLine
 10
1.7642633376
 20
-1.4798509807
 30
0.0
 11
1.7783369136
 21
-1.4524986199
 31
0.0
  0
LINE
  5
4B8
330
1F
100
AcDbEntity
  8
0
  6
Continuous
 62
     7
370
    15
100
AcDbLine
 10
1.7783369136
 20
-1.4524986199
 30
0.0
 11
1.7920514481
 21
-1.4249643415
 31
0.0
  0
LINE
  5
4B9
330
1F
100
AcDbEntity
  8
0
  6
Continuous
 62
     7
370
    15
100
AcDbLine
 10
1.7920514481
 20
-1.4249643415
 30
0.0
 11
1.8054035435
 21
-1.3972523534
 31
0.0
  0
LINE
  5
4BA
330
1F
100
AcDbEntity
  8
0
  6
Continuous
 62
     7
370
    15
100
AcDbLine
 10
1.8054035435
 20
-1.3972523534
 30
0.0
 11
1.8183898386
 21
-1.369366932
 31
0.0
  0
LINE
  5
4BB
330
1F
100
AcDbEntity
  8
0
  6
Continuous
 62
     7
370
    15
100
AcDbLine
 10
1.8183898386
 20
-1.369366932
 30
0.0
 11
1.8310070094
 21
-1.3413124231
 31
0.0
  0
LINE
  5
4BC
330
1F
100
AcDbEntity
  8
0
  6
Continuous
 62
     7
370
    15
100
AcDbLine
 10
1.8310070094
 20
-1.3413124231
 30
0.0
 11
1.8432517706
 21
-1.3130932411
 31
0.0
  0
LINE
  5
4BD
330
1F
100
AcDbEntity
  8
0
  6
Continuous
 62
     7
370
    15
100
AcDbLine
 10
1.8432517706
 20
-1.3130932411
 30
0.0
 11
1.8551208766
 21
-1.2847138699
 31
0.0
  0
LINE
  5
4BE
330
1F
100
AcDbEntity
  8
0
  6
Continuous
 62
     7
370
    15
100
AcDbLine
 10
1.8551208766
 20
-1.2847138699
 30
0.0
 11
1.8666111232
 21
-1.2561788625
 31
0.0
  0
LINE
  5
4BF
330
1F
100
AcDbEntity
  8
0
  6
Continuous
 62
     7
370
    15
100
AcDbLine
 10
1.8666111232
 20
-1.2561788625
 30
0.0
 11
1.8777193484
 21
-1.2274928411
 31
0.0
  0
LINE
  5
4C0
330
1F
100
AcDbEntity
  8
0
  6
Continuous
 62
     7
370
    15
100
AcDbLine
 10
1.8777193484
 20
-1.2274928411
 30
0.0
 11
1.8884424338
 21
-1.1986604972
 31
0.0
  0
LINE
  5
4C1
330
1F
100
AcDbEntity
  8
0
  6
Continuous
 62
     7
370
    15
100
AcDbLine
 10
1.8884424338
 20
-1.1986604972
 30
0.0
 11
1.8987773064
 21
-1.1696865919
 31
0.0
  0
LINE
  5
4C2
330
1F
100
AcDbEntity
  8
0
  6
Continuous
 62
     7
370
    15
100
AcDbLine
 10
1.8987773064
 20
-1.1696865919
 30
0.0
 11
1.9087209393
 21
-1.1405759552
 31
0.0
  0
LINE
  5
4C3
330
1F
100
AcDbEntity
  8
0
  6
Continuous
 62
     7
370
    15
100
AcDbLine
 10
1.9087209393
 20
-1.1405759552
 30
0.0
 11
1.9182703533
 21
-1.1113334867
 31
0.0
  0
LINE
  5
4C4
330
1F
100
AcDbEntity
  8
0
  6
Continuous
 62
     7
370
    15
100
AcDbLine
 10
1.9182703533
 20
-1.1113334867
 30
0.0
 11
1.9274226183
 21
-1.0819641552
 31
0.0
  0
LINE
  5
4C5
330
1F
100
AcDbEntity
  8
0
  6
Continuous
 62
     7
370
    15
100
AcDbLine
 10
1.9274226183
 20
-1.0819641552
 30
0.0
 11
1.9361748549
 21
-1.0524729988
 31
0.0
  0
LINE
  5
4C6
330
1F
100
AcDbEntity
  8
0
  6
Continuous
 62
     7
370
    15
100
AcDbLine
 10
1.9361748549
 20
-1.0524729988
 30
0.0
 11
1.9445242353
 21
-1.0228651246
 31
0.0
  0
LINE
  5
4C7
330
1F
100
AcDbEntity
  8
0
  6
Continuous
 62
     7
370
    15
100
AcDbLine
 10
1.9445242353
 20
-1.0228651246
 30
0.0
 11
1.952467985
 21
-0.9931457087
 31
0.0
  0
LINE
  5
4C8
330
1F
100
AcDbEntity
  8
0
  6
Continuous
 62
     7
370
    15
100
AcDbLine
 10
1.952467985
 20
-0.9931457087
 30
0.0
 11
1.9600033844
 21
-0.9633199965
 31
0.0
  0
LINE
  5
4C9
330
1F
100
AcDbEntity
  8
0
  6
Continuous
 62
     7
370
    15
100
AcDbLine
 10
1.9600033844
 20
-0.9633199965
 30
0.0
 11
1.9671277697
 21
-0.9333933017
 31
0.0
  0
LINE
  5
4CA
330
1F
100
AcDbEntity
  8
0
  6
Continuous
 62
     7
370
    15
100
AcDbLine
 10
1.9671277697
 20
-0.9333933017
 30
0.0
 11
1.973838535
 21
-0.9033710071
 31
0.0
  0
LINE
  5
4CB
330
1F
100
AcDbEntity
  8
0
  6
Continuous
 62
     7
370
    15
100
AcDbLine
 10
1.973838535
 20
-0.9033710071
 30
0.0
 11
1.9801331333
 21
-0.8732585636
 31
0.0
  0
LINE
  5
4CC
330
1F
100
AcDbEntity
  8
0
  6
Continuous
 62
     7
370
    15
100
AcDbLine
 10
1.9801331333
 20
-0.8732585636
 30
0.0
 11
1.9860090785
 21
-0.8430614906
 31
0.0
  0
LINE
  5
4CD
330
1F
100
AcDbEntity
  8
0
  6
Continuous
 62
     7
370
    15
100
AcDbLine
 10
1.9860090785
 20
-0.8430614906
 30
0.0
 11
1.991463946
 21
-0.8127853755
 31
0.0
  0
LINE
  5
4CE
330
1F
100
AcDbEntity
  8
0
  6
Continuous
 62
     7
370
    15
100
AcDbLine
 10
1.991463946
 20
-0.8127853755
 30
0.0
 11
1.9964953754
 21
-0.7824358733
 31
0.0
  0
LINE
  5
4CF
330
1F
100
AcDbEntity
  8
0
  6
Continuous
 62
     7
370
    15
100
AcDbLine
 10
1.9964953754
 20
-0.7824358733
 30
0.0
 11
2.0011010711
 21
-0.7520187068
 31
0.0
  0
LINE
  5
4D0
330
1F
100
AcDbEntity
  8
0
  6
Continuous
 62
     7
370
    15
100
AcDbLine
 10
2.0011010711
 20
-0.7520187068
 30
0.0
 11
2.0052788042
 21
-0.7215396658
 31
0.0
  0
LINE
  5
4D1
330
1F
100
AcDbEntity
  8
0
  6
Continuous
 62
     7
370
    15
100
AcDbLine
 10
2.0052788042
 20
-0.7215396658
 30
0.0
 11
2.009026414
 21
-0.691004607
 31
0.0
  0
LINE
  5
4D2
330
1F
100
AcDbEntity
  8
0
  6
Continuous
 62
     7
370
    15
100
AcDbLine
 10
2.009026414
 20
-0.691004607
 30
0.0
 11
2.01234181
 21
-0.6604194537
 31
0.0
  0
LINE
  5
4D3
330
1F
100
AcDbEntity
  8
0
  6
Continuous
 62
     7
370
    15
100
AcDbLine
 10
2.01234181
 20
-0.6604194537
 30
0.0
 11
2.0152229726
 21
-0.6297901955
 31
0.0
  0
LINE
  5
4D4
330
1F
100
AcDbEntity
  8
0
  6
Continuous
 62
     7
370
    15
100
AcDbLine
 10
2.0152229726
 20
-0.6297901955
 30
0.0
 11
2.0176679557
 21
-0.5991228873
 31
0.0
  0
LINE
  5
4D5
330
1F
100
AcDbEntity
  8
0
  6
Continuous
 62
     7
370
    15
100
AcDbLine
 10
2.0176679557
 20
-0.5991228873
 30
0.0
 11
2.0196748875
 21
-0.5684236499
 31
0.0
  0
LINE
  5
4D6
330
1F
100
AcDbEntity
  8
0
  6
Continuous
 62
     7
370
    15
100
AcDbLine
 10
2.0196748875
 20
-0.5684236499
 30
0.0
 11
2.0212419727
 21
-0.5376986685
 31
0.0
  0
LINE
  5
4D7
330
1F
100
AcDbEntity
  8
0
  6
Continuous
 62
     7
370
    15
100
AcDbLine
 10
2.0212419727
 20
-0.5376986685
 30
0.0
 11
2.022367494
 21
-0.5069541928
 31
0.0
  0
LINE
  5
4D8
330
1F
100
AcDbEntity
  8
0
  6
Continuous
 62
     7
370
    15
100
AcDbLine
 10
2.022367494
 20
-0.5069541928
 30
0.0
 11
2.0230498135
 21
-0.4761965365
 31
0.0
  0
LINE
  5
4D9
330
1F
100
AcDbEntity
  8
0
  6
Continuous
 62
     7
370
    15
100
AcDbLine
 10
2.0230498135
 20
-0.4761965365
 30
0.0
 11
2.0232873748
 21
-0.4454320763
 31
0.0
  0
LINE
  5
4DA
330
1F
100
AcDbEntity
  8
0
  6
Continuous
 62
     7
370
    15
100
AcDbLine
 10
2.0232873748
 20
-0.4454320763
 30
0.0
 11
2.0230787043
 21
-0.4146672518
 31
0.0
  0
LINE
  5
4DB
330
1F
100
AcDbEntity
  8
0
  6
Continuous
 62
     7
370
    15
100
AcDbLine
 10
2.0230787043
 20
-0.4146672518
 30
0.0
 11
2.0224224133
 21
-0.3839085648
 31
0.0
  0
LINE
  5
4DC
330
1F
100
AcDbEntity
  8
0
  6
Continuous
 62
     7
370
    15
100
AcDbLine
 10
2.0224224133
 20
-0.3839085648
 30
0.0
 11
2.0213171993
 21
-0.3531625781
 31
0.0
  0
LINE
  5
4DD
330
1F
100
AcDbEntity
  8
0
  6
Continuous
 62
     7
370
    15
100
AcDbLine
 10
2.0213171993
 20
-0.3531625781
 30
0.0
 11
2.0197618481
 21
-0.3224359157
 31
0.0
  0
LINE
  5
4DE
330
1F
100
AcDbEntity
  8
0
  6
Continuous
 62
     7
370
    15
100
AcDbLine
 10
2.0197618481
 20
-0.3224359157
 30
0.0
 11
2.0177552353
 21
-0.2917352614
 31
0.0
  0
LINE
  5
4DF
330
1F
100
AcDbEntity
  8
0
  6
Continuous
 62
     7
370
    15
100
AcDbLine
 10
2.0177552353
 20
-0.2917352614
 30
0.0
 11
2.0152963281
 21
-0.2610673583
 31
0.0
  0
LINE
  5
4E0
330
1F
100
AcDbEntity
  8
0
  6
Continuous
 62
     7
370
    15
100
AcDbLine
 10
2.0152963281
 20
-0.2610673583
 30
0.0
 11
2.0123841873
 21
-0.2304390082
 31
0.0
  0
LINE
  5
4E1
330
1F
100
AcDbEntity
  8
0
  6
Continuous
 62
     7
370
    15
100
AcDbLine
 10
2.0123841873
 20
-0.2304390082
 30
0.0
 11
2.0090179686
 21
-0.1998570702
 31
0.0
  0
LINE
  5
4E2
330
1F
100
AcDbEntity
  8
0
  6
Continuous
 62
     7
370
    15
100
AcDbLine
 10
2.0090179686
 20
-0.1998570702
 30
0.0
 11
2.0051969249
 21
-0.1693284606
 31
0.0
  0
LINE
  5
4E3
330
1F
100
AcDbEntity
  8
0
  6
Continuous
 62
     7
370
    15
100
AcDbLine
 10
2.0051969249
 20
-0.1693284606
 30
0.0
 11
2.0009204076
 21
-0.1388601512
 31
0.0
  0
LINE
  5
4E4
330
1F
100
AcDbEntity
  8
0
  6
Continuous
 62
     7
370
    15
100
AcDbLine
 10
2.0009204076
 20
-0.1388601512
 30
0.0
 11
1.996187869
 21
-0.1084591691
 31
0.0
  0
LINE
  5
4E5
330
1F
100
AcDbEntity
  8
0
  6
Continuous
 62
     7
370
    15
100
AcDbLine
 10
1.996187869
 20
-0.1084591691
 30
0.0
 11
1.9909988636
 21
-0.0781325953
 31
0.0
  0
LINE
  5
4E6
330
1F
100
AcDbEntity
  8
0
  6
Continuous
 62
     7
370
    15
100
AcDbLine
 10
1.9909988636
 20
-0.0781325953
 30
0.0
 11
1.98535305
 21
-0.0478875636
 31
0.0
  0
LINE
  5
4E7
330
1F
100
AcDbEntity
  8
0
  6
Continuous
 62
     7
370
    15
100
AcDbLine
 10
1.98535305
 20
-0.0478875636
 30
0.0
 11
1.979250193
 21
-0.01773126
 31
0.0
  0
LINE
  5
4E8
330
1F
100
AcDbEntity
  8
0
  6
Continuous
 62
     7
370
    15
100
AcDbLine
 10
1.979250193
 20
-0.01773126
 30
0.0
 11
1.9726901654
 21
0.012329079
 31
0.0
  0
LINE
  5
4E9
330
1F
100
AcDbEntity
  8
0
  6
Continuous
 62
     7
370
    15
100
AcDbLine
 10
1.9726901654
 20
0.012329079
 30
0.0
 11
1.9656729494
 21
0.042286167
 31
0.0
  0
LINE
  5
4EA
330
1F
100
AcDbEntity
  8
0
  6
Continuous
 62
     7
370
    15
100
AcDbLine
 10
1.9656729494
 20
0.042286167
 30
0.0
 11
1.9581986392
 21
0.0721326694
 31
0.0
  0
LINE
  5
4EB
330
1F
100
AcDbEntity
  8
0
  6
Continuous
 62
     7
370
    15
100
AcDbLine
 10
1.9581986392
 20
0.0721326694
 30
0.0
 11
1.9502674421
 21
0.1018612039
 31
0.0
  0
LINE
  5
4EC
330
1F
100
AcDbEntity
  8
0
  6
Continuous
 62
     7
370
    15
100
AcDbLine
 10
1.9502674421
 20
0.1018612039
 30
0.0
 11
1.9418796811
 21
0.1314643429
 31
0.0
  0
LINE
  5
4ED
330
1F
100
AcDbEntity
  8
0
  6
Continuous
 62
     7
370
    15
100
AcDbLine
 10
1.9418796811
 20
0.1314643429
 30
0.0
 11
1.9330357959
 21
0.1609346135
 31
0.0
  0
LINE
  5
4EE
330
1F
100
AcDbEntity
  8
0
  6
Continuous
 62
     7
370
    15
100
AcDbLine
 10
1.9330357959
 20
0.1609346135
 30
0.0
 11
1.9237363459
 21
0.1902645001
 31
0.0
  0
LINE
  5
4EF
330
1F
100
AcDbEntity
  8
0
  6
Continuous
 62
     7
370
    15
100
AcDbLine
 10
1.9237363459
 20
0.1902645001
 30
0.0
 11
1.9139820109
 21
0.2194464448
 31
0.0
  0
LINE
  5
4F0
330
1F
100
AcDbEntity
  8
0
  6
Continuous
 62
     7
370
    15
100
AcDbLine
 10
1.9139820109
 20
0.2194464448
 30
0.0
 11
1.9037735941
 21
0.2484728498
 31
0.0
  0
LINE
  5
4F1
330
1F
100
AcDbEntity
  8
0
  6
Continuous
 62
     7
370
    15
100
AcDbLine
 10
1.9037735941
 20
0.2484728498
 30
0.0
 11
1.8931120229
 21
0.277336078
 31
0.0
  0
LINE
  5
4F2
330
1F
100
AcDbEntity
  8
0
  6
Continuous
 62
     7
370
    15
100
AcDbLine
 10
1.8931120229
 20
0.277336078
 30
0.0
 11
1.8819983517
 21
0.3060284554
 31
0.0
  0
LINE
  5
4F3
330
1F
100
AcDbEntity
  8
0
  6
Continuous
 62
     7
370
    15
100
AcDbLine
 10
1.8819983517
 20
0.3060284554
 30
0.0
 11
1.8704337634
 21
0.3345422721
 31
0.0
  0
LINE
  5
4F4
330
1F
100
AcDbEntity
  8
0
  6
Continuous
 62
     7
370
    15
100
AcDbLine
 10
1.8704337634
 20
0.3345422721
 30
0.0
 11
1.8584195712
 21
0.3628697843
 31
0.0
  0
LINE
  5
4F5
330
1F
100
AcDbEntity
  8
0
  6
Continuous
 62
     7
370
    15
100
AcDbLine
 10
1.8584195712
 20
0.3628697843
 30
0.0
 11
1.8459572208
 21
0.391003216
 31
0.0
  0
LINE
  5
4F6
330
1F
100
AcDbEntity
  8
0
  6
Continuous
 62
     7
370
    15
100
AcDbLine
 10
1.8459572208
 20
0.391003216
 30
0.0
 11
1.8330482919
 21
0.4189347607
 31
0.0
  0
LINE
  5
4F7
330
1F
100
AcDbEntity
  8
0
  6
Continuous
 62
     7
370
    15
100
AcDbLine
 10
1.8330482919
 20
0.4189347607
 30
0.0
 11
1.8196945004
 21
0.4466565831
 31
0.0
  0
LINE
  5
4F8
330
1F
100
AcDbEntity
  8
0
  6
Continuous
 62
     7
370
    15
100
AcDbLine
 10
1.8196945004
 20
0.4466565831
 30
0.0
 11
1.8058977002
 21
0.4741608216
 31
0.0
  0
LINE
  5
4F9
330
1F
100
AcDbEntity
  8
0
  6
Continuous
 62
     7
370
    15
100
AcDbLine
 10
1.8058977002
 20
0.4741608216
 30
0.0
 11
1.7916598851
 21
0.5014395893
 31
0.0
  0
LINE
  5
4FA
330
1F
100
AcDbEntity
  8
0
  6
Continuous
 62
     7
370
    15
100
AcDbLine
 10
1.7916598851
 20
0.5014395893
 30
0.0
 11
1.7769831906
 21
0.5284849768
 31
0.0
  0
LINE
  5
4FB
330
1F
100
AcDbEntity
  8
0
  6
Continuous
 62
     7
370
    15
100
AcDbLine
 10
1.7769831906
 20
0.5284849768
 30
0.0
 11
1.7618698957
 21
0.5552890541
 31
0.0
  0
LINE
  5
4FC
330
1F
100
AcDbEntity
  8
0
  6
Continuous
 62
     7
370
    15
100
AcDbLine
 10
1.7618698957
 20
0.5552890541
 30
0.0
 11
1.7463224252
 21
0.5818438723
 31
0.0
  0
LINE
  5
4FD
330
1F
100
AcDbEntity
  8
0
  6
Continuous
 62
     7
370
    15
100
AcDbLine
 10
1.7463224252
 20
0.5818438723
 30
0.0
 11
1.7303433508
 21
0.6081414663
 31
0.0
  0
LINE
  5
4FE
330
1F
100
AcDbEntity
  8
0
  6
Continuous
 62
     7
370
    15
100
AcDbLine
 10
1.7303433508
 20
0.6081414663
 30
0.0
 11
1.7139353938
 21
0.6341738568
 31
0.0
  0
LINE
  5
4FF
330
1F
100
AcDbEntity
  8
0
  6
Continuous
 62
     7
370
    15
100
AcDbLine
 10
1.7139353938
 20
0.6341738568
 30
0.0
 11
1.6971014262
 21
0.6599330529
 31
0.0
  0
LINE
  5
500
330
1F
100
AcDbEntity
  8
0
  6
Continuous
 62
     7
370
    15
100
AcDbLine
 10
1.6971014262
 20
0.6599330529
 30
0.0
 11
1.679844473
 21
0.6854110538
 31
0.0
  0
LINE
  5
501
330
1F
100
AcDbEntity
  8
0
  6
Continuous
 62
     7
370
    15
100
AcDbLine
 10
1.679844473
 20
0.6854110538
 30
0.0
 11
1.6621677138
 21
0.7105998522
 31
0.0
  0
LINE
  5
502
330
1F
100
AcDbEntity
  8
0
  6
Continuous
 62
     7
370
    15
100
AcDbLine
 10
1.6621677138
 20
0.7105998522
 30
0.0
 11
1.6440744846
 21
0.7354914358
 31
0.0
  0
LINE
  5
503
330
1F
100
AcDbEntity
  8
0
  6
Continuous
 62
     7
370
    15
100
AcDbLine
 10
1.6440744846
 20
0.7354914358
 30
0.0
 11
1.6255682797
 21
0.7600777909
 31
0.0
  0
LINE
  5
504
330
1F
100
AcDbEntity
  8
0
  6
Continuous
 62
     7
370
    15
100
AcDbLine
 10
1.6255682797
 20
0.7600777909
 30
0.0
 11
1.6066527533
 21
0.784350904
 31
0.0
  0
LINE
  5
505
330
1F
100
AcDbEntity
  8
0
  6
Continuous
 62
     7
370
    15
100
AcDbLine
 10
1.6066527533
 20
0.784350904
 30
0.0
 11
1.5873317214
 21
0.8083027653
 31
0.0
  0
LINE
  5
506
330
1F
100
AcDbEntity
  8
0
  6
Continuous
 62
     7
370
    15
100
AcDbLine
 10
1.5873317214
 20
0.8083027653
 30
0.0
 11
1.5676091633
 21
0.8319253714
 31
0.0
  0
LINE
  5
507
330
1F
100
AcDbEntity
  8
0
  6
Continuous
 62
     7
370
    15
100
AcDbLine
 10
1.5676091633
 20
0.8319253714
 30
0.0
 11
1.5474892235
 21
0.8552107275
 31
0.0
  0
LINE
  5
508
330
1F
100
AcDbEntity
  8
0
  6
Continuous
 62
     7
370
    15
100
AcDbLine
 10
1.5474892235
 20
0.8552107275
 30
0.0
 11
1.5269762135
 21
0.8781508511
 31
0.0
  0
LINE
  5
509
330
1F
100
AcDbEntity
  8
0
  6
Continuous
 62
     7
370
    15
100
AcDbLine
 10
1.5269762135
 20
0.8781508511
 30
0.0
 11
1.506074613
 21
0.9007377746
 31
0.0
  0
LINE
  5
50A
330
1F
100
AcDbEntity
  8
0
  6
Continuous
 62
     7
370
    15
100
AcDbLine
 10
1.506074613
 20
0.9007377746
 30
0.0
 11
1.4847890719
 21
0.9229635484
 31
0.0
  0
LINE
  5
50B
330
1F
100
AcDbEntity
  8
0
  6
Continuous
 62
     7
370
    15
100
AcDbLine
 10
1.4847890719
 20
0.9229635484
 30
0.0
 11
1.4631244119
 21
0.9448202442
 31
0.0
  0
LINE
  5
50C
330
1F
100
AcDbEntity
  8
0
  6
Continuous
 62
     7
370
    15
100
AcDbLine
 10
1.4631244119
 20
0.9448202442
 30
0.0
 11
1.4410856277
 21
0.966299958
 31
0.0
  0
LINE
  5
50D
330
1F
100
AcDbEntity
  8
0
  6
Continuous
 62
     7
370
    15
100
AcDbLine
 10
1.4410856277
 20
0.966299958
 30
0.0
 11
1.418677889
 21
0.9873948135
 31
0.0
  0
LINE
  5
50E
330
1F
100
AcDbEntity
  8
0
  6
Continuous
 62
     7
370
    15
100
AcDbLine
 10
1.418677889
 20
0.9873948135
 30
0.0
 11
1.3959065417
 21
1.0080969655
 31
0.0
  0
LINE
  5
50F
330
1F
100
AcDbEntity
  8
0
  6
Continuous
 62
     7
370
    15
100
AcDbLine
 10
1.3959065417
 20
1.0080969655
 30
0.0
 11
1.3727771095
 21
1.0283986032
 31
0.0
  0
LINE
  5
510
330
1F
100
AcDbEntity
  8
0
  6
Continuous
 62
     7
370
    15
100
AcDbLine
 10
1.3727771095
 20
1.0283986032
 30
0.0
 11
1.3492952951
 21
1.048291954
 31
0.0
  0
LINE
  5
511
330
1F
100
AcDbEntity
  8
0
  6
Continuous
 62
     7
370
    15
100
AcDbLine
 10
1.3492952951
 20
1.048291954
 30
0.0
 11
1.3254669819
 21
1.0677692868
 31
0.0
  0
LINE
  5
512
330
1F
100
AcDbEntity
  8
0
  6
Continuous
 62
     7
370
    15
100
AcDbLine
 10
1.3254669819
 20
1.0677692868
 30
0.0
 11
1.3012982352
 21
1.086822916
 31
0.0
  0
LINE
  5
513
330
1F
100
AcDbEntity
  8
0
  6
Continuous
 62
     7
370
    15
100
AcDbLine
 10
1.3012982352
 20
1.086822916
 30
0.0
 11
1.2767953033
 21
1.1054452049
 31
0.0
  0
LINE
  5
514
330
1F
100
AcDbEntity
  8
0
  6
Continuous
 62
     7
370
    15
100
AcDbLine
 10
1.2767953033
 20
1.1054452049
 30
0.0
 11
1.2519646193
 21
1.1236285699
 31
0.0
  0
LINE
  5
515
330
1F
100
AcDbEntity
  8
0
  6
Continuous
 62
     7
370
    15
100
AcDbLine
 10
1.2519646193
 20
1.1236285699
 30
0.0
 11
1.2268128014
 21
1.1413654841
 31
0.0
  0
LINE
  5
516
330
1F
100
AcDbEntity
  8
0
  6
Continuous
 62
     7
370
    15
100
AcDbLine
 10
1.2268128014
 20
1.1413654841
 30
0.0
 11
1.2013466551
 21
1.1586484815
 31
0.0
  0
LINE
  5
517
330
1F
100
AcDbEntity
  8
0
  6
Continuous
 62
     7
370
    15
100
AcDbLine
 10
1.2013466551
 20
1.1586484815
 30
0.0
 11
1.1755731733
 21
1.1754701613
 31
0.0
  0
LINE
  5
518
330
1F
100
AcDbEntity
  8
0
  6
Continuous
 62
     7
370
    15
100
AcDbLine
 10
1.1755731733
 20
1.1754701613
 30
0.0
 11
1.1494995382
 21
1.1918231916
 31
0.0
  0
LINE
  5
519
330
1F
100
AcDbEntity
  8
0
  6
Continuous
 62
     7
370
    15
100
AcDbLine
 10
1.1494995382
 20
1.1918231916
 30
0.0
 11
1.1231331215
 21
1.207700314
 31
0.0
  0
LINE
  5
51A
330
1F
100
AcDbEntity
  8
0
  6
Continuous
 62
     7
370
    15
100
AcDbLine
 10
1.1231331215
 20
1.207700314
 30
0.0
 11
1.0964814859
 21
1.223094348
 31
0.0
  0
LINE
  5
51B
330
1F
100
AcDbEntity
  8
0
  6
Continuous
 62
     7
370
    15
100
AcDbLine
 10
1.0964814859
 20
1.223094348
 30
0.0
 11
1.0695523857
 21
1.2379981951
 31
0.0
  0
LINE
  5
51C
330
1F
100
AcDbEntity
  8
0
  6
Continuous
 62
     7
370
    15
100
AcDbLine
 10
1.0695523857
 20
1.2379981951
 30
0.0
 11
1.0423537675
 21
1.2524048437
 31
0.0
  0
LINE
  5
51D
330
1F
100
AcDbEntity
  8
0
  6
Continuous
 62
     7
370
    15
100
AcDbLine
 10
1.0423537675
 20
1.2524048437
 30
0.0
 11
1.0148937711
 21
1.2663073735
 31
0.0
  0
LINE
  5
51E
330
1F
100
AcDbEntity
  8
0
  6
Continuous
 62
     7
370
    15
100
AcDbLine
 10
1.0148937711
 20
1.2663073735
 30
0.0
 11
0.9871807299
 21
1.2796989603
 31
0.0
  0
LINE
  5
51F
330
1F
100
AcDbEntity
  8
0
  6
Continuous
 62
     7
370
    15
100
AcDbLine
 10
0.9871807299
 20
1.2796989603
 30
0.0
 11
0.9592231718
 21
1.2925728805
 31
0.0
  0
LINE
  5
520
330
1F
100
AcDbEntity
  8
0
  6
Continuous
 62
     7
370
    15
100
AcDbLine
 10
0.9592231718
 20
1.2925728805
 30
0.0
 11
0.9310298193
 21
1.3049225166
 31
0.0
  0
LINE
  5
521
330
1F
100
AcDbEntity
  8
0
  6
Continuous
 62
     7
370
    15
100
AcDbLine
 10
0.9310298193
 20
1.3049225166
 30
0.0
 11
0.9026095899
 21
1.3167413615
 31
0.0
  0
LINE
  5
522
330
1F
100
AcDbEntity
  8
0
  6
Continuous
 62
     7
370
    15
100
AcDbLine
 10
0.9026095899
 20
1.3167413615
 30
0.0
 11
0.8739715967
 21
1.3280230238
 31
0.0
  0
LINE
  5
523
330
1F
100
AcDbEntity
  8
0
  6
Continuous
 62
     7
370
    15
100
AcDbLine
 10
0.8739715967
 20
1.3280230238
 30
0.0
 11
0.8451251485
 21
1.3387612332
 31
0.0
  0
LINE
  5
524
330
1F
100
AcDbEntity
  8
0
  6
Continuous
 62
     7
370
    15
100
AcDbLine
 10
0.8451251485
 20
1.3387612332
 30
0.0
 11
0.8160797498
 21
1.3489498452
 31
0.0
  0
LINE
  5
525
330
1F
100
AcDbEntity
  8
0
  6
Continuous
 62
     7
370
    15
100
AcDbLine
 10
0.8160797498
 20
1.3489498452
 30
0.0
 11
0.7868451007
 21
1.3585828472
 31
0.0
  0
LINE
  5
526
330
1F
100
AcDbEntity
  8
0
  6
Continuous
 62
     7
370
    15
100
AcDbLine
 10
0.7868451007
 20
1.3585828472
 30
0.0
 11
0.7574310972
 21
1.3676543628
 31
0.0
  0
LINE
  5
527
330
1F
100
AcDbEntity
  8
0
  6
Continuous
 62
     7
370
    15
100
AcDbLine
 10
0.7574310972
 20
1.3676543628
 30
0.0
 11
0.7278478306
 21
1.3761586585
 31
0.0
  0
LINE
  5
528
330
1F
100
AcDbEntity
  8
0
  6
Continuous
 62
     7
370
    15
100
AcDbLine
 10
0.7278478306
 20
1.3761586585
 30
0.0
 11
0.6981055876
 21
1.3840901483
 31
0.0
  0
LINE
  5
529
330
1F
100
AcDbEntity
  8
0
  6
Continuous
 62
     7
370
    15
100
AcDbLine
 10
0.6981055876
 20
1.3840901483
 30
0.0
 11
0.6682148493
 21
1.3914434001
 31
0.0
  0
LINE
  5
52A
330
1F
100
AcDbEntity
  8
0
  6
Continuous
 62
     7
370
    15
100
AcDbLine
 10
0.6682148493
 20
1.3914434001
 30
0.0
 11
0.6381862914
 21
1.3982131409
 31
0.0
  0
LINE
  5
52B
330
1F
100
AcDbEntity
  8
0
  6
Continuous
 62
     7
370
    15
100
AcDbLine
 10
0.6381862914
 20
1.3982131409
 30
0.0
 11
0.6080307828
 21
1.4043942631
 31
0.0
  0
LINE
  5
52C
330
1F
100
AcDbEntity
  8
0
  6
Continuous
 62
     7
370
    15
100
AcDbLine
 10
0.6080307828
 20
1.4043942631
 30
0.0
 11
0.5777593855
 21
1.4099818303
 31
0.0
  0
LINE
  5
52D
330
1F
100
AcDbEntity
  8
0
  6
Continuous
 62
     7
370
    15
100
AcDbLine
 10
0.5777593855
 20
1.4099818303
 30
0.0
 11
0.5473833532
 21
1.4149710828
 31
0.0
  0
LINE
  5
52E
330
1F
100
AcDbEntity
  8
0
  6
Continuous
 62
     7
370
    15
100
AcDbLine
 10
0.5473833532
 20
1.4149710828
 30
0.0
 11
0.5169141301
 21
1.4193574449
 31
0.0
  0
LINE
  5
52F
330
1F
100
AcDbEntity
  8
0
  6
Continuous
 62
     7
370
    15
100
AcDbLine
 10
0.5169141301
 20
1.4193574449
 30
0.0
 11
0.4863633505
 21
1.4231365298
 31
0.0
  0
LINE
  5
530
330
1F
100
AcDbEntity
  8
0
  6
Continuous
 62
     7
370
    15
100
AcDbLine
 10
0.4863633505
 20
1.4231365298
 30
0.0
 11
0.4557428367
 21
1.4263041466
 31
0.0
  0
LINE
  5
531
330
1F
100
AcDbEntity
  8
0
  6
Continuous
 62
     7
370
    15
100
AcDbLine
 10
0.4557428367
 20
1.4263041466
 30
0.0
 11
0.4250645975
 21
1.4288563067
 31
0.0
  0
LINE
  5
532
330
1F
100
AcDbEntity
  8
0
  6
Continuous
 62
     7
370
    15
100
AcDbLine
 10
0.4250645975
 20
1.4288563067
 30
0.0
 11
0.3943408273
 21
1.4307892299
 31
0.0
  0
LINE
  5
533
330
1F
100
AcDbEntity
  8
0
  6
Continuous
 62
     7
370
    15
100
AcDbLine
 10
0.3943408273
 20
1.4307892299
 30
0.0
 11
0.3635839035
 21
1.432099351
 31
0.0
  0
LINE
  5
534
330
1F
100
AcDbEntity
  8
0
  6
Continuous
 62
     7
370
    15
100
AcDbLine
 10
0.3635839035
 20
1.432099351
 30
0.0
 11
0.3328063847
 21
1.4327833266
 31
0.0
  0
LINE
  5
535
330
1F
100
AcDbEntity
  8
0
  6
Continuous
 62
     7
370
    15
100
AcDbLine
 10
0.3328063847
 20
1.4327833266
 30
0.0
 11
0.302021009
 21
1.4328380418
 31
0.0
  0
LINE
  5
536
330
1F
100
AcDbEntity
  8
0
  6
Continuous
 62
     7
370
    15
100
AcDbLine
 10
0.302021009
 20
1.4328380418
 30
0.0
 11
0.2712406911
 21
1.4322606165
 31
0.0
  0
LINE
  5
537
330
1F
100
AcDbEntity
  8
0
  6
Continuous
 62
     7
370
    15
100
AcDbLine
 10
0.2712406911
 20
1.4322606165
 30
0.0
 11
0.2404785202
 21
1.4310484127
 31
0.0
  0
LINE
  5
538
330
1F
100
AcDbEntity
  8
0
  6
Continuous
 62
     7
370
    15
100
AcDbLine
 10
0.2404785202
 20
1.4310484127
 30
0.0
 11
0.2097477569
 21
1.4291990413
 31
0.0
  0
LINE
  5
539
330
1F
100
AcDbEntity
  8
0
  6
Continuous
 62
     7
370
    15
100
AcDbLine
 10
0.2097477569
 20
1.4291990413
 30
0.0
 11
0.1790618308
 21
1.4267103689
 31
0.0
  0
LINE
  5
53A
330
1F
100
AcDbEntity
  8
0
  6
Continuous
 62
     7
370
    15
100
AcDbLine
 10
0.1790618308
 20
1.4267103689
 30
0.0
 11
0.1484343371
 21
1.4235805249
 31
0.0
  0
LINE
  5
53B
330
1F
100
AcDbEntity
  8
0
  6
Continuous
 62
     7
370
    15
100
AcDbLine
 10
0.1484343371
 20
1.4235805249
 30
0.0
 11
0.1178790333
 21
1.4198079087
 31
0.0
  0
LINE
  5
53C
330
1F
100
AcDbEntity
  8
0
  6
Continuous
 62
     7
370
    15
100
AcDbLine
 10
0.1178790333
 20
1.4198079087
 30
0.0
 11
0.087409836
 21
1.4153911969
 31
0.0
  0
LINE
  5
53D
330
1F
100
AcDbEntity
  8
0
  6
Continuous
 62
     7
370
    15
100
AcDbLine
 10
0.087409836
 20
1.4153911969
 30
0.0
 11
0.0570408167
 21
1.4103293502
 31
0.0
  0
LINE
  5
53E
330
1F
100
AcDbEntity
  8
0
  6
Continuous
 62
     7
370
    15
100
AcDbLine
 10
0.0570408167
 20
1.4103293502
 30
0.0
 11
0.0267861982
 21
1.4046216208
 31
0.0
  0
LINE
  5
53F
330
1F
100
AcDbEntity
  8
0
  6
Continuous
 62
     7
370
    15
100
AcDbLine
 10
0.0267861982
 20
1.4046216208
 30
0.0
 11
-0.0033396497
 21
1.39826756
 31
0.0
  0
LINE
  5
540
330
1F
100
AcDbEntity
  8
0
  6
Continuous
 62
     7
370
    15
100
AcDbLine
 10
-0.0033396497
 20
1.39826756
 30
0.0
 11
-0.0333222144
 21
1.3912670253
 31
0.0
  0
LINE
  5
541
330
1F
100
AcDbEntity
  8
0
  6
Continuous
 62
     7
370
    15
100
AcDbLine
 10
-0.0333222144
 20
1.3912670253
 30
0.0
 11
-0.0631468455
 21
1.3836201877
 31
0.0
  0
LINE
  5
542
330
1F
100
AcDbEntity
  8
0
  6
Continuous
 62
     7
370
    15
100
AcDbLine
 10
-0.0631468455
 20
1.3836201877
 30
0.0
 11
-0.0927987595
 21
1.3753275394
 31
0.0
  0
LINE
  5
543
330
1F
100
AcDbEntity
  8
0
  6
Continuous
 62
     7
370
    15
100
AcDbLine
 10
-0.0927987595
 20
1.3753275394
 30
0.0
 11
-0.1222630451
 21
1.3663899012
 31
0.0
  0
LINE
  5
544
330
1F
100
AcDbEntity
  8
0
  6
Continuous
 62
     7
370
    15
100
AcDbLine
 10
-0.1222630451
 20
1.3663899012
 30
0.0
 11
-0.1515246683
 21
1.3568084298
 31
0.0
  0
LINE
  5
545
330
1F
100
AcDbEntity
  8
0
  6
Continuous
 62
     7
370
    15
100
AcDbLine
 10
-0.1515246683
 20
1.3568084298
 30
0.0
 11
-0.1805684785
 21
1.3465846257
 31
0.0
  0
LINE
  5
546
330
1F
100
AcDbEntity
  8
0
  6
Continuous
 62
     7
370
    15
100
AcDbLine
 10
-0.1805684785
 20
1.3465846257
 30
0.0
 11
-0.2093792143
 21
1.3357203404
 31
0.0
  0
LINE
  5
547
330
1F
100
AcDbEntity
  8
0
  6
Continuous
 62
     7
370
    15
100
AcDbLine
 10
-0.2093792143
 20
1.3357203404
 30
0.0
 11
-0.2379415097
 21
1.3242177842
 31
0.0
  0
LINE
  5
548
330
1F
100
AcDbEntity
  8
0
  6
Continuous
 62
     7
370
    15
100
AcDbLine
 10
-0.2379415097
 20
1.3242177842
 30
0.0
 11
-0.2662399008
 21
1.3120795336
 31
0.0
  0
LINE
  5
549
330
1F
100
AcDbEntity
  8
0
  6
Continuous
 62
     7
370
    15
100
AcDbLine
 10
-0.2662399008
 20
1.3120795336
 30
0.0
 11
-0.2942588323
 21
1.299308539
 31
0.0
  0
LINE
  5
54A
330
1F
100
AcDbEntity
  8
0
  6
Continuous
 62
     7
370
    15
100
AcDbLine
 10
-0.2942588323
 20
1.299308539
 30
0.0
 11
-0.3219826654
 21
1.2859081321
 31
0.0
  0
LINE
  5
54B
330
1F
100
AcDbEntity
  8
0
  6
Continuous
 62
     7
370
    15
100
AcDbLine
 10
-0.3219826654
 20
1.2859081321
 30
0.0
 11
-0.3493956843
 21
1.2718820336
 31
0.0
  0
LINE
  5
54C
330
1F
100
AcDbEntity
  8
0
  6
Continuous
 62
     7
370
    15
100
AcDbLine
 10
-0.3493956843
 20
1.2718820336
 30
0.0
 11
-0.3764821048
 21
1.2572343606
 31
0.0
  0
LINE
  5
54D
330
1F
100
AcDbEntity
  8
0
  6
Continuous
 62
     7
370
    15
100
AcDbLine
 10
-0.3764821048
 20
1.2572343606
 30
0.0
 11
-0.4032260821
 21
1.2419696342
 31
0.0
  0
LINE
  5
54E
330
1F
100
AcDbEntity
  8
0
  6
Continuous
 62
     7
370
    15
100
AcDbLine
 10
-0.4032260821
 20
1.2419696342
 30
0.0
 11
-0.4296117191
 21
1.2260927869
 31
0.0
  0
LINE
  5
54F
330
1F
100
AcDbEntity
  8
0
  6
Continuous
 62
     7
370
    15
100
AcDbLine
 10
-0.4296117191
 20
1.2260927869
 30
0.0
 11
-0.4556230756
 21
1.2096091699
 31
0.0
  0
LINE
  5
550
330
1F
100
AcDbEntity
  8
0
  6
Continuous
 62
     7
370
    15
100
AcDbLine
 10
-0.4556230756
 20
1.2096091699
 30
0.0
 11
-0.4812441771
 21
1.1925245606
 31
0.0
  0
LINE
  5
551
330
1F
100
AcDbEntity
  8
0
  6
Continuous
 62
     7
370
    15
100
AcDbLine
 10
-0.4812441771
 20
1.1925245606
 30
0.0
 11
-0.5064590246
 21
1.1748451698
 31
0.0
  0
LINE
  5
552
330
1F
100
AcDbEntity
  8
0
  6
Continuous
 62
     7
370
    15
100
AcDbLine
 10
-0.5064590246
 20
1.1748451698
 30
0.0
 11
-0.5312516041
 21
1.1565776489
 31
0.0
  0
LINE
  5
553
330
1F
100
AcDbEntity
  8
0
  6
Continuous
 62
     7
370
    15
100
AcDbLine
 10
-0.5312516041
 20
1.1565776489
 30
0.0
 11
-0.5556058973
 21
1.137729097
 31
0.0
  0
LINE
  5
554
330
1F
100
AcDbEntity
  8
0
  6
Continuous
 62
     7
370
    15
100
AcDbLine
 10
-0.5556058973
 20
1.137729097
 30
0.0
 11
-0.5795058921
 21
1.1183070682
 31
0.0
  0
LINE
  5
555
330
1F
100
AcDbEntity
  8
0
  6
Continuous
 62
     7
370
    15
100
AcDbLine
 10
-0.5795058921
 20
1.1183070682
 30
0.0
 11
-0.6029355934
 21
1.0983195778
 31
0.0
  0
LINE
  5
556
330
1F
100
AcDbEntity
  8
0
  6
Continuous
 62
     7
370
    15
100
AcDbLine
 10
-0.6029355934
 20
1.0983195778
 30
0.0
 11
-0.6258790348
 21
1.07777511
 31
0.0
  0
LINE
  5
557
330
1F
100
AcDbEntity
  8
0
  6
Continuous
 62
     7
370
    15
100
AcDbLine
 10
-0.6258790348
 20
1.07777511
 30
0.0
 11
-0.6483202904
 21
1.0566826239
 31
0.0
  0
LINE
  5
558
330
1F
100
AcDbEntity
  8
0
  6
Continuous
 62
     7
370
    15
100
AcDbLine
 10
-0.6483202904
 20
1.0566826239
 30
0.0
 11
-0.6702434869
 21
1.03505156
 31
0.0
  0
LINE
  5
559
330
1F
100
AcDbEntity
  8
0
  6
Continuous
 62
     7
370
    15
100
AcDbLine
 10
-0.6702434869
 20
1.03505156
 30
0.0
 11
-0.6916328163
 21
1.0128918469
 31
0.0
  0
LINE
  5
55A
330
1F
100
AcDbEntity
  8
0
  6
Continuous
 62
     7
370
    15
100
AcDbLine
 10
-0.6916328163
 20
1.0128918469
 30
0.0
 11
-0.7124725493
 21
0.9902139074
 31
0.0
  0
LINE
  5
55B
330
1F
100
AcDbEntity
  8
0
  6
Continuous
 62
     7
370
    15
100
AcDbLine
 10
-0.7124725493
 20
0.9902139074
 30
0.0
 11
-0.7327470483
 21
0.967028664
 31
0.0
  0
LINE
  5
55C
330
1F
100
AcDbEntity
  8
0
  6
Continuous
 62
     7
370
    15
100
AcDbLine
 10
-0.7327470483
 20
0.967028664
 30
0.0
 11
-0.752440782
 21
0.9433475451
 31
0.0
  0
LINE
  5
55D
330
1F
100
AcDbEntity
  8
0
  6
Continuous
 62
     7
370
    15
100
AcDbLine
 10
-0.752440782
 20
0.9433475451
 30
0.0
 11
-0.771538339
 21
0.9191824905
 31
0.0
  0
LINE
  5
55E
330
1F
100
AcDbEntity
  8
0
  6
Continuous
 62
     7
370
    15
100
AcDbLine
 10
-0.771538339
 20
0.9191824905
 30
0.0
 11
-0.7900244436
 21
0.8945459565
 31
0.0
  0
LINE
  5
55F
330
1F
100
AcDbEntity
  8
0
  6
Continuous
 62
     7
370
    15
100
AcDbLine
 10
-0.7900244436
 20
0.8945459565
 30
0.0
 11
-0.8078839703
 21
0.8694509209
 31
0.0
  0
LINE
  5
560
330
1F
100
AcDbEntity
  8
0
  6
Continuous
 62
     7
370
    15
100
AcDbLine
 10
-0.8078839703
 20
0.8694509209
 30
0.0
 11
-0.8251019604
 21
0.843910888
 31
0.0
  0
LINE
  5
561
330
1F
100
AcDbEntity
  8
0
  6
Continuous
 62
     7
370
    15
100
AcDbLine
 10
-0.8251019604
 20
0.843910888
 30
0.0
 11
-0.8416636374
 21
0.8179398927
 31
0.0
  0
LINE
  5
562
330
1F
100
AcDbEntity
  8
0
  6
Continuous
 62
     7
370
    15
100
AcDbLine
 10
-0.8416636374
 20
0.8179398927
 30
0.0
 11
-0.8575544243
 21
0.7915525048
 31
0.0
  0
LINE
  5
563
330
1F
100
AcDbEntity
  8
0
  6
Continuous
 62
     7
370
    15
100
AcDbLine
 10
-0.8575544243
 20
0.7915525048
 30
0.0
 11
-0.872759961
 21
0.7647638328
 31
0.0
  0
LINE
  5
564
330
1F
100
AcDbEntity
  8
0
  6
Continuous
 62
     7
370
    15
100
AcDbLine
 10
-0.872759961
 20
0.7647638328
 30
0.0
 11
-0.8872661215
 21
0.737589527
 31
0.0
  0
LINE
  5
565
330
1F
100
AcDbEntity
  8
0
  6
Continuous
 62
     7
370
    15
100
AcDbLine
 10
-0.8872661215
 20
0.737589527
 30
0.0
 11
-0.9010590321
 21
0.7100457831
 31
0.0
  0
LINE
  5
566
330
1F
100
AcDbEntity
  8
0
  6
Continuous
 62
     7
370
    15
100
AcDbLine
 10
-0.9010590321
 20
0.7100457831
 30
0.0
 11
-0.9141250909
 21
0.6821493441
 31
0.0
  0
LINE
  5
567
330
1F
100
AcDbEntity
  8
0
  6
Continuous
 62
     7
370
    15
100
AcDbLine
 10
-0.9141250909
 20
0.6821493441
 30
0.0
 11
-0.9264509859
 21
0.6539175029
 31
0.0
  0
LINE
  5
568
330
1F
100
AcDbEntity
  8
0
  6
Continuous
 62
     7
370
    15
100
AcDbLine
 10
-0.9264509859
 20
0.6539175029
 30
0.0
 11
-0.9380237156
 21
0.6253681039
 31
0.0
  0
LINE
  5
569
330
1F
100
AcDbEntity
  8
0
  6
Continuous
 62
     7
370
    15
100
AcDbLine
 10
-0.9380237156
 20
0.6253681039
 30
0.0
 11
-0.9488306087
 21
0.5965195441
 31
0.0
  0
LINE
  5
56A
330
1F
100
AcDbEntity
  8
0
  6
Continuous
 62
     7
370
    15
100
AcDbLine
 10
-0.9488306087
 20
0.5965195441
 30
0.0
 11
-0.9588593448
 21
0.567390774
 31
0.0
  0
LINE
  5
56B
330
1F
100
AcDbEntity
  8
0
  6
Continuous
 62
     7
370
    15
100
AcDbLine
 10
-0.9588593448
 20
0.567390774
 30
0.0
 11
-0.968097976
 21
0.5380012973
 31
0.0
  0
LINE
  5
56C
330
1F
100
AcDbEntity
  8
0
  6
Continuous
 62
     7
370
    15
100
AcDbLine
 10
-0.968097976
 20
0.5380012973
 30
0.0
 11
-0.9765349481
 21
0.5083711709
 31
0.0
  0
LINE
  5
56D
330
1F
100
AcDbEntity
  8
0
  6
Continuous
 62
     7
370
    15
100
AcDbLine
 10
-0.9765349481
 20
0.5083711709
 30
0.0
 11
-0.9841591235
 21
0.4785210039
 31
0.0
  0
LINE
  5
56E
330
1F
100
AcDbEntity
  8
0
  6
Continuous
 62
     7
370
    15
100
AcDbLine
 10
-0.9841591235
 20
0.4785210039
 30
0.0
 11
-0.990959803
 21
0.4484719552
 31
0.0
  0
LINE
  5
56F
330
1F
100
AcDbEntity
  8
0
  6
Continuous
 62
     7
370
    15
100
AcDbLine
 10
-0.990959803
 20
0.4484719552
 30
0.0
 11
-0.9969267497
 21
0.4182457319
 31
0.0
  0
LINE
  5
570
330
1F
100
AcDbEntity
  8
0
  6
Continuous
 62
     7
370
    15
100
AcDbLine
 10
-0.9969267497
 20
0.4182457319
 30
0.0
 11
-1.0020502128
 21
0.3878645859
 31
0.0
  0
LINE
  5
571
330
1F
100
AcDbEntity
  8
0
  6
Continuous
 62
     7
370
    15
100
AcDbLine
 10
-1.0020502128
 20
0.3878645859
 30
0.0
 11
-1.006320951
 21
0.3573513099
 31
0.0
  0
LINE
  5
572
330
1F
100
AcDbEntity
  8
0
  6
Continuous
 62
     7
370
    15
100
AcDbLine
 10
-1.006320951
 20
0.3573513099
 30
0.0
 11
-1.0097302582
 21
0.3267292331
 31
0.0
  0
LINE
  5
573
330
1F
100
AcDbEntity
  8
0
  6
Continuous
 62
     7
370
    15
100
AcDbLine
 10
-1.0097302582
 20
0.3267292331
 30
0.0
 11
-1.0122699878
 21
0.2960222155
 31
0.0
  0
LINE
  5
574
330
1F
100
AcDbEntity
  8
0
  6
Continuous
 62
     7
370
    15
100
AcDbLine
 10
-1.0122699878
 20
0.2960222155
 30
0.0
 11
-1.0139325788
 21
0.2652546418
 31
0.0
  0
LINE
  5
575
330
1F
100
AcDbEntity
  8
0
  6
Continuous
 62
     7
370
    15
100
AcDbLine
 10
-1.0139325788
 20
0.2652546418
 30
0.0
 11
-1.0147110819
 21
0.2344514141
 31
0.0
  0
LINE
  5
576
330
1F
100
AcDbEntity
  8
0
  6
Continuous
 62
     7
370
    15
100
AcDbLine
 10
-1.0147110819
 20
0.2344514141
 30
0.0
 11
-1.0145991856
 21
0.2036379435
 31
0.0
  0
LINE
  5
577
330
1F
100
AcDbEntity
  8
0
  6
Continuous
 62
     7
370
    15
100
AcDbLine
 10
-1.0145991856
 20
0.2036379435
 30
0.0
 11
-1.0135912437
 21
0.1728401416
 31
0.0
  0
LINE
  5
578
330
1F
100
AcDbEntity
  8
0
  6
Continuous
 62
     7
370
    15
100
AcDbLine
 10
-1.0135912437
 20
0.1728401416
 30
0.0
 11
-1.0116823023
 21
0.1420844097
 31
0.0
  0
LINE
  5
579
330
1F
100
AcDbEntity
  8
0
  6
Continuous
 62
     7
370
    15
100
AcDbLine
 10
-1.0116823023
 20
0.1420844097
 30
0.0
 11
-1.0088681276
 21
0.1113976281
 31
0.0
  0
LINE
  5
57A
330
1F
100
AcDbEntity
  8
0
  6
Continuous
 62
     7
370
    15
100
AcDbLine
 10
-1.0088681276
 20
0.1113976281
 30
0.0
 11
-1.0051452342
 21
0.0808071431
 31
0.0
  0
LINE
  5
57B
330
1F
100
AcDbEntity
  8
0
  6
Continuous
 62
     7
370
    15
100
AcDbLine
 10
-1.0051452342
 20
0.0808071431
 30
0.0
 11
-1.0005109134
 21
0.0503407542
 31
0.0
  0
LINE
  5
57C
330
1F
100
AcDbEntity
  8
0
  6
Continuous
 62
     7
370
    15
100
AcDbLine
 10
-1.0005109134
 20
0.0503407542
 30
0.0
 11
-0.9949632623
 21
0.0200266988
 31
0.0
  0
LINE
  5
57D
330
1F
100
AcDbEntity
  8
0
  6
Continuous
 62
     7
370
    15
100
AcDbLine
 10
-0.9949632623
 20
0.0200266988
 30
0.0
 11
-0.9885012125
 21
-0.0101063635
 31
0.0
  0
LINE
  5
57E
330
1F
100
AcDbEntity
  8
0
  6
Continuous
 62
     7
370
    15
100
AcDbLine
 10
-0.9885012125
 20
-0.0101063635
 30
0.0
 11
-0.9811245599
 21
-0.0400293685
 31
0.0
  0
LINE
  5
57F
330
1F
100
AcDbEntity
  8
0
  6
Continuous
 62
     7
370
    15
100
AcDbLine
 10
-0.9811245599
 20
-0.0400293685
 30
0.0
 11
-0.9728339944
 21
-0.0697128657
 31
0.0
  0
LINE
  5
580
330
1F
100
AcDbEntity
  8
0
  6
Continuous
 62
     7
370
    15
100
AcDbLine
 10
-0.9728339944
 20
-0.0697128657
 30
0.0
 11
-0.9636311293
 21
-0.0991270391
 31
0.0
  0
LINE
  5
581
330
1F
100
AcDbEntity
  8
0
  6
Continuous
 62
     7
370
    15
100
AcDbLine
 10
-0.9636311293
 20
-0.0991270391
 30
0.0
 11
-0.9535185318
 21
-0.1282417279
 31
0.0
  0
LINE
  5
582
330
1F
100
AcDbEntity
  8
0
  6
Continuous
 62
     7
370
    15
100
AcDbLine
 10
-0.9535185318
 20
-0.1282417279
 30
0.0
 11
-0.9424997529
 21
-0.1570264506
 31
0.0
  0
LINE
  5
583
330
1F
100
AcDbEntity
  8
0
  6
Continuous
 62
     7
370
    15
100
AcDbLine
 10
-0.9424997529
 20
-0.1570264506
 30
0.0
 11
-0.9305793577
 21
-0.185450429
 31
0.0
  0
LINE
  5
584
330
1F
100
AcDbEntity
  8
0
  6
Continuous
 62
     7
370
    15
100
AcDbLine
 10
-0.9305793577
 20
-0.185450429
 30
0.0
 11
-0.9177629558
 21
-0.2134826151
 31
0.0
  0
LINE
  5
585
330
1F
100
AcDbEntity
  8
0
  6
Continuous
 62
     7
370
    15
100
AcDbLine
 10
-0.9177629558
 20
-0.2134826151
 30
0.0
 11
-0.9040572315
 21
-0.241091719
 31
0.0
  0
LINE
  5
586
330
1F
100
AcDbEntity
  8
0
  6
Continuous
 62
     7
370
    15
100
AcDbLine
 10
-0.9040572315
 20
-0.241091719
 30
0.0
 11
-0.8894699739
 21
-0.2682462387
 31
0.0
  0
LINE
  5
587
330
1F
100
AcDbEntity
  8
0
  6
Continuous
 62
     7
370
    15
100
AcDbLine
 10
-0.8894699739
 20
-0.2682462387
 30
0.0
 11
-0.8740101071
 21
-0.294914492
 31
0.0
  0
LINE
  5
588
330
1F
100
AcDbEntity
  8
0
  6
Continuous
 62
     7
370
    15
100
AcDbLine
 10
-0.8740101071
 20
-0.294914492
 30
0.0
 11
-0.8576877201
 21
-0.3210646501
 31
0.0
  0
LINE
  5
589
330
1F
100
AcDbEntity
  8
0
  6
Continuous
 62
     7
370
    15
100
AcDbLine
 10
-0.8576877201
 20
-0.3210646501
 30
0.0
 11
-0.8405140962
 21
-0.3466647729
 31
0.0
  0
LINE
  5
58A
330
1F
100
AcDbEntity
  8
0
  6
Continuous
 62
     7
370
    15
100
AcDbLine
 10
-0.8405140962
 20
-0.3466647729
 30
0.0
 11
-0.8225017425
 21
-0.3716828469
 31
0.0
  0
LINE
  5
58B
330
1F
100
AcDbEntity
  8
0
  6
Continuous
 62
     7
370
    15
100
AcDbLine
 10
-0.8225017425
 20
-0.3716828469
 30
0.0
 11
-0.8036644184
 21
-0.3960868245
 31
0.0
  0
LINE
  5
58C
330
1F
100
AcDbEntity
  8
0
  6
Continuous
 62
     7
370
    15
100
AcDbLine
 10
-0.8036644184
 20
-0.3960868245
 30
0.0
 11
-0.7840171645
 21
-0.4198446663
 31
0.0
  0
LINE
  5
58D
330
1F
100
AcDbEntity
  8
0
  6
Continuous
 62
     7
370
    15
100
AcDbLine
 10
-0.7840171645
 20
-0.4198446663
 30
0.0
 11
-0.7635763297
 21
-0.4429243843
 31
0.0
  0
LINE
  5
58E
330
1F
100
AcDbEntity
  8
0
  6
Continuous
 62
     7
370
    15
100
AcDbLine
 10
-0.7635763297
 20
-0.4429243843
 30
0.0
 11
-1.3607111746
 21
-0.6715965156
 31
0.0
  0
LINE
  5
58F
330
1F
100
AcDbEntity
  8
0
  6
Continuous
 62
     7
370
    15
100
AcDbLine
 10
-1.3607111746
 20
-0.6715965156
 30
0.0
 11
-1.4630114599
 21
-0.6499900937
 31
0.0
  0
LINE
  5
590
330
1F
100
AcDbEntity
  8
0
  6
Continuous
 62
     7
370
    15
100
AcDbLine
 10
-1.4630114599
 20
-0.6499900937
 30
0.0
 11
-1.733365256
 21
-1.9300387132
 31
0.0
  0
LINE
  5
591
330
1F
100
AcDbEntity
  8
0
  6
Continuous
 62
     7
370
    15
100
AcDbLine
 10
-1.733365256
 20
-1.9300387132
 30
0.0
 11
-1.1218555434
 21
-2.0591931607
 31
0.0
  0
LINE
  5
592
330
1F
100
AcDbEntity
  8
0
  6
Continuous
 62
     7
370
    15
100
AcDbLine
 10
-1.1218555434
 20
-2.0591931607
 30
0.0
 11
-0.8377157589
 21
-0.7138717928
 31
0.0
  0
LINE
  5
593
330
1F
100
AcDbEntity
  8
0
  6
Continuous
 62
     7
370
    15
100
AcDbLine
 10
-0.8377157589
 20
-0.7138717928
 30
0.0
 11
-0.6742514503
 21
-0.5278267329
 31
0.0
  0
LINE
  5
594
330
1F
100
AcDbEntity
  8
0
  6
Continuous
 62
     7
370
    15
100
AcDbLine
 10
-0.6742514503
 20
-0.5278267329
 30
0.0
 11
-0.6501355885
 21
-0.547041198
 31
0.0
  0
LINE
  5
595
330
1F
100
AcDbEntity
  8
0
  6
Continuous
 62
     7
370
    15
100
AcDbLine
 10
3.3810243997
 20
1.6572669538
 30
0.0
 11
-1.0218455315
 21
2.5871789758
 31
0.0
  0
LINE
  5
596
330
1F
100
AcDbEntity
  8
0
  6
Continuous
 62
     7
370
    15
100
AcDbLine
 10
2.1411417037
 20
-4.2132262879
 30
0.0
 11
3.3810243997
 21
1.6572669538
 31
0.0
  0
LINE
  5
597
330
1F
100
AcDbEntity
  8
0
  6
Continuous
 62
     7
370
    15
100
AcDbLine
 10
-2.2617282275
 20
-3.2833142659
 30
0.0
 11
2.1411417037
 21
-4.2132262879
 31
0.0
  0
LINE
  5
598
330
1F
100
AcDbEntity
  8
0
  6
Continuous
 62
     7
370
    15
100
AcDbLine
 10
-1.0218455315
 20
2.5871789758
 30
0.0
 11
-2.2617282275
 21
-3.2833142659
 31
0.0
  0
ARC
  5
599
330
1F
100
AcDbEntity
  8
0
  6
Continuous
 62
     7
370
    15
100
AcDbCircle
 10
-1.8842146703
 20
-1.3741813845
 30
0.0
 40
1.345128810890001
100
AcDbArc
 50
281.4177625223
 51
20.8419268002
  0
ENDSEC
  0
SECTION
  2
OBJECTS
  0
DICTIONARY
  5
C
330
0
100
AcDbDictionary
281
     1
  3
ACAD_GROUP
350
D
  3
ACAD_LAYOUT
350
1A
  3
ACAD_MLINESTYLE
350
17
  3
ACAD_PLOTSETTINGS
350
19
  3
ACAD_PLOTSTYLENAME
350
E
  0
DICTIONARY
  5
D
102
{ACAD_REACTORS
330
C
102
}
330
C
100
AcDbDictionary
281
     1
  0
DICTIONARY
  5
1A
102
{ACAD_REACTORS
330
C
102
}
330
C
100
AcDbDictionary
281
     1
  3
Layout1
350
1E
  3
Layout2
350
26
  3
Model
350
22
  0
DICTIONARY
  5
17
102
{ACAD_REACTORS
330
C
102
}
330
C
100
AcDbDictionary
281
     1
  3
Standard
350
18
  0
DICTIONARY
  5
19
102
{ACAD_REACTORS
330
C
102
}
330
C
100
AcDbDictionary
281
     1
  0
ACDBDICTIONARYWDFLT
  5
E
102
{ACAD_REACTORS
330
C
102
}
330
C
100
AcDbDictionary
281
     1
  3
Normal
350
F
100
AcDbDictionaryWithDefault
340
F
  0
LAYOUT
  5
1E
102
{ACAD_REACTORS
330
1A
102
}
330
1A
100
AcDbPlotSettings
  1

  2
none_device
  4

  6

 40
0.0
 41
0.0
 42
0.0
 43
0.0
 44
0.0
 45
0.0
 46
0.0
 47
0.0
 48
0.0
 49
0.0
140
0.0
141
0.0
142
1.0
143
1.0
 70
   688
 72
     0
 73
     0
 74
     5
  7

 75
    16
147
1.0
148
0.0
149
0.0
100
AcDbLayout
  1
Layout1
 70
     1
 71
     1
 10
0.0
 20
0.0
 11
12.0
 21
9.0
 12
0.0
 22
0.0
 32
0.0
 14
1.0000000000E+20
 24
1.0000000000E+20
 34
1.0000000000E+20
 15
-1.0000000000E+20
 25
-1.0000000000E+20
 35
-1.0000000000E+20
146
0.0
 13
0.0
 23
0.0
 33
0.0
 16
1.0
 26
0.0
 36
0.0
 17
0.0
 27
1.0
 37
0.0
 76
     0
330
1B
  0
LAYOUT
  5
26
102
{ACAD_REACTORS
330
1A
102
}
330
1A
100
AcDbPlotSettings
  1

  2
none_device
  4

  6

 40
0.0
 41
0.0
 42
0.0
 43
0.0
 44
0.0
 45
0.0
 46
0.0
 47
0.0
 48
0.0
 49
0.0
140
0.0
141
0.0
142
1.0
143
1.0
 70
   688
 72
     0
 73
     0
 74
     5
  7

 75
    16
147
1.0
148
0.0
149
0.0
100
AcDbLayout
  1
Layout2
 70
     1
 71
     2
 10
0.0
 20
0.0
 11
0.0
 21
0.0
 12
0.0
 22
0.0
 32
0.0
 14
0.0
 24
0.0
 34
0.0
 15
0.0
 25
0.0
 35
0.0
146
0.0
 13
0.0
 23
0.0
 33
0.0
 16
1.0
 26
0.0
 36
0.0
 17
0.0
 27
1.0
 37
0.0
 76
     0
330
23
  0
LAYOUT
  5
22
102
{ACAD_REACTORS
330
1A
102
}
330
1A
100
AcDbPlotSettings
  1

  2
none_device
  4
ANSI_A_(11.00_x_8.50_Inches)
  6

 40
6.35
 41
19.05
 42
6.35000508
 43
19.05000254
 44
279.4
 45
215.9
 46
115.7599073203
 47
114.453841851
 48
0.0
 49
0.0
140
0.0
141
0.0
142
1.2374262524
143
1.0
 70
  1696
 72
     0
 73
     0
 74
     0
  7

 75
     0
147
0.5913241897
148
0.0
149
0.0
100
AcDbLayout
  1
Model
 70
     1
 71
     0
 10
0.0
 20
0.0
 11
12.0
 21
9.0
 12
0.0
 22
0.0
 32
0.0
 14
-2.2617282275
 24
-4.2132262879
 34
0.0
 15
3.3810243997
 25
2.5871789758
 35
0.0
146
0.0
 13
0.0
 23
0.0
 33
0.0
 16
1.0
 26
0.0
 36
0.0
 17
0.0
 27
1.0
 37
0.0
 76
     0
330
1F
331
29
  0
MLINESTYLE
  5
18
102
{ACAD_REACTORS
330
17
102
}
330
17
100
AcDbMlineStyle
  2
Standard
 70
     0
  3

 62
   256
 51
90.0
 52
90.0
 71
     2
 49
0.5
 62
   256
  6
BYLAYER
 49
-0.5
 62
   256
  6
BYLAYER
  0
ACDBPLACEHOLDER
  5
F
102
{ACAD_REACTORS
330
E
102
}
330
E
  0
ENDSEC
  0
EOF
