  0
SECTION
  2
HEADER
  9
$ACADVER
  1
AC1014
  9
$HANDSEED
  5
FFFF
  9
$MEASUREMENT
 70
     1
  0
ENDSEC
  0
SECTION
  2
TABLES
  0
TABLE
  2
VPORT
  5
8
330
0
100
AcDbSymbolTable
 70
     4
  0
VPORT
  5
2E
330
8
100
AcDbSymbolTableRecord
100
AcDbViewportTableRecord
  2
*ACTIVE
 70
     0
 10
0.0
 20
0.0
 11
1.0
 21
1.0
 12
210.0
 22
148.5
 13
0.0
 23
0.0
 14
10.0
 24
10.0
 15
10.0
 25
10.0
 16
0.0
 26
0.0
 36
1.0
 17
0.0
 27
0.0
 37
0.0
 40
341.0
 41
1.24
 42
50.0
 43
0.0
 44
0.0
 50
0.0
 51
0.0
 71
     0
 72
   100
 73
     1
 74
     3
 75
     0
 76
     0
 77
     0
 78
     0
  0
ENDTAB
  0
TABLE
  2
LTYPE
  5
5
330
0
100
AcDbSymbolTable
 70
     1
  0
LTYPE
  5
14
330
5
100
AcDbSymbolTableRecord
100
AcDbLinetypeTableRecord
  2
BYBLOCK
 70
     0
  3

 72
    65
 73
     0
 40
0.0
  0
LTYPE
  5
15
330
5
100
AcDbSymbolTableRecord
100
AcDbLinetypeTableRecord
  2
BYLAYER
 70
     0
  3

 72
    65
 73
     0
 40
0.0
  0
LTYPE
  5
16
330
5
100
AcDbSymbolTableRecord
100
AcDbLinetypeTableRecord
  2
CONTINUOUS
 70
     0
  3
Solid line
 72
    65
 73
     0
 40
0.0
  0
ENDTAB
  0
TABLE
  2
LAYER
  5
2
100
AcDbSymbolTable
 70
2
  0
LAYER
  5
50
100
AcDbSymbolTableRecord
100
AcDbLayerTableRecord
  2
0
 70
0
  6
CONTINUOUS
  0
LAYER
  5
51
100
AcDbSymbolTableRecord
100
AcDbLayerTableRecord
  2
Layer_1
 70
0
  6
CONTINUOUS
  0
ENDTAB
  0
TABLE
  2
STYLE
  5
3
330
0
100
AcDbSymbolTable
 70
     1
  0
STYLE
  5
11
330
3
100
AcDbSymbolTableRecord
100
AcDbTextStyleTableRecord
  2
STANDARD
 70
     0
 40
0.0
 41
1.0
 50
0.0
 71
     0
 42
2.5
  3
txt
  4

  0
ENDTAB
  0
TABLE
  2
VIEW
  5
6
330
0
100
AcDbSymbolTable
 70
     0
  0
ENDTAB
  0
TABLE
  2
UCS
  5
7
330
0
100
AcDbSymbolTable
 70
     0
  0
ENDTAB
  0
TABLE
  2
APPID
  5
9
330
0
100
AcDbSymbolTable
 70
     2
  0
APPID
  5
12
330
9
100
AcDbSymbolTableRecord
100
AcDbRegAppTableRecord
  2
ACAD
 70
     0
  0
ENDTAB
  0
TABLE
  2
DIMSTYLE
  5
A
330
0
100
AcDbSymbolTable
 70
     1
  0
DIMSTYLE
105
27
330
A
100
AcDbSymbolTableRecord
100
AcDbDimStyleTableRecord
  2
ISO-25
 70
     0
  3

  4

  5

  6

  7

 40
1.0
 41
2.5
 42
0.625
 43
3.75
 44
1.25
 45
0.0
 46
0.0
 47
0.0
 48
0.0
140
2.5
141
2.5
142
0.0
143
0.03937007874016
144
1.0
145
0.0
146
1.0
147
0.625
 71
     0
 72
     0
 73
     0
 74
     0
 75
     0
 76
     0
 77
     1
 78
     8
170
     0
171
     3
172
     1
173
     0
174
     0
175
     0
176
     0
177
     0
178
     0
270
     2
271
     2
272
     2
273
     2
274
     3
340
11
275
     0
280
     0
281
     0
282
     0
283
     0
284
     8
285
     0
286
     0
287
     3
288
     0
  0
ENDTAB
  0
TABLE
  2
BLOCK_RECORD
  5
1
330
0
100
AcDbSymbolTable
 70
     1
  0
BLOCK_RECORD
  5
1F
330
1
100
AcDbSymbolTableRecord
100
AcDbBlockTableRecord
  2
*MODEL_SPACE
  0
BLOCK_RECORD
  5
1B
330
1
100
AcDbSymbolTableRecord
100
AcDbBlockTableRecord
  2
*PAPER_SPACE
  0
ENDTAB
  0
ENDSEC
  0
SECTION
  2
BLOCKS
  0
BLOCK
  5
20
330
1F
100
AcDbEntity
  8
0
100
AcDbBlockBegin
  2
*MODEL_SPACE
 70
     0
 10
0.0
 20
0.0
 30
0.0
  3
*MODEL_SPACE
  1

  0
ENDBLK
  5
21
330
1F
100
AcDbEntity
  8
0
100
AcDbBlockEnd
  0
BLOCK
  5
1C
330
1B
100
AcDbEntity
 67
     1
  8
0
100
AcDbBlockBegin
  2
*PAPER_SPACE
  1

  0
ENDBLK
  5
1D
330
1B
100
AcDbEntity
 67
     1
  8
0
100
AcDbBlockEnd
  0
ENDSEC
  0
SECTION
  2
ENTITIES
  0
LWPOLYLINE
  5
100
100
AcDbEntity
  8
Layer_1
 62
7
100
AcDbPolyline
 90
5
 70
1
 10
18.285714
 20
557.714279
 30
0.0
 10
379.428562
 20
557.714279
 30
0.0
 10
379.428562
 20
41.142847
 30
0.0
 10
18.285714
 20
41.142847
 30
0.0
 10
18.285714
 20
557.714279
 30
0.0
  0
LWPOLYLINE
  5
101
100
AcDbEntity
  8
Layer_1
 62
5
100
AcDbPolyline
 90
5
 70
1
 10
38.925074
 20
543.491695
 30
0.0
 10
364.001762
 20
543.491695
 30
0.0
 10
364.001762
 20
56.157127
 30
0.0
 10
38.925074
 20
56.157127
 30
0.0
 10
38.925074
 20
543.491695
 30
0.0
  0
LWPOLYLINE
  5
102
100
AcDbEntity
  8
Layer_1
 62
3
100
AcDbPolyline
 90
27
 70
0
 10
58.296167
 20
407.119187
 30
0.0
 10
61.487436
 20
408.714821
 30
0.0
 10
64.678705
 20
411.906090
 30
0.0
 10
69.465608
 20
418.288627
 30
0.0
 10
72.656876
 20
423.075530
 30
0.0
 10
75.848145
 20
429.458067
 30
0.0
 10
77.443779
 20
434.244970
 30
0.0
 10
77.443779
 20
439.031873
 30
0.0
 10
75.848145
 20
440.627507
 30
0.0
 10
74.252510
 20
440.627507
 30
0.0
 10
72.656876
 20
439.031873
 30
0.0
 10
71.061242
 20
435.840604
 30
0.0
 10
71.061242
 20
432.649336
 30
0.0
 10
72.656876
 20
429.458067
 30
0.0
 10
75.848145
 20
426.266798
 30
0.0
 10
80.635048
 20
423.075530
 30
0.0
 10
83.826316
 20
419.884261
 30
0.0
 10
85.421951
 20
416.692992
 30
0.0
 10
85.421951
 20
413.501724
 30
0.0
 10
83.826316
 20
410.310455
 30
0.0
 10
82.230682
 20
408.714821
 30
0.0
 10
77.443779
 20
407.119187
 30
0.0
 10
71.061242
 20
407.119187
 30
0.0
 10
66.274339
 20
408.714821
 30
0.0
 10
63.083070
 20
411.906090
 30
0.0
 10
61.487436
 20
415.097358
 30
0.0
 10
61.487436
 20
418.288627
 30
0.0
  0
LWPOLYLINE
  5
103
100
AcDbEntity
  8
Layer_1
 62
3
100
AcDbPolyline
 90
5
 70
0
 10
94.995757
 20
429.458067
 30
0.0
 10
94.995757
 20
427.862433
 30
0.0
 10
96.591391
 20
427.862433
 30
0.0
 10
96.591391
 20
429.458067
 30
0.0
 10
94.995757
 20
429.458067
 30
0.0
  0
LWPOLYLINE
  5
104
100
AcDbEntity
  8
Layer_1
 62
3
100
AcDbPolyline
 90
9
 70
0
 10
90.208854
 20
415.097358
 30
0.0
 10
93.400122
 20
421.479895
 30
0.0
 10
90.208854
 20
411.906090
 30
0.0
 10
90.208854
 20
408.714821
 30
0.0
 10
91.804488
 20
407.119187
 30
0.0
 10
93.400122
 20
407.119187
 30
0.0
 10
96.591391
 20
408.714821
 30
0.0
 10
98.187025
 20
410.310455
 30
0.0
 10
101.378294
 20
415.097358
 30
0.0
  0
LWPOLYLINE
  5
105
100
AcDbEntity
  8
Layer_1
 62
3
100
AcDbPolyline
 90
14
 70
0
 10
126.908443
 20
415.097358
 30
0.0
 10
130.099712
 20
421.479895
 30
0.0
 10
128.504077
 20
413.501724
 30
0.0
 10
128.504077
 20
408.714821
 30
0.0
 10
130.099712
 20
407.119187
 30
0.0
 10
131.695346
 20
407.119187
 30
0.0
 10
136.482249
 20
408.714821
 30
0.0
 10
139.673518
 20
411.906090
 30
0.0
 10
141.269152
 20
416.692992
 30
0.0
 10
141.269152
 20
421.479895
 30
0.0
 10
142.864786
 20
415.097358
 30
0.0
 10
144.460421
 20
413.501724
 30
0.0
 10
147.651689
 20
413.501724
 30
0.0
 10
150.842958
 20
415.097358
 30
0.0
  0
LWPOLYLINE
  5
106
100
AcDbEntity
  8
Layer_1
 62
3
100
AcDbPolyline
 90
5
 70
0
 10
155.629861
 20
429.458067
 30
0.0
 10
155.629861
 20
427.862433
 30
0.0
 10
157.225495
 20
427.862433
 30
0.0
 10
157.225495
 20
429.458067
 30
0.0
 10
155.629861
 20
429.458067
 30
0.0
  0
LWPOLYLINE
  5
107
100
AcDbEntity
  8
Layer_1
 62
3
100
AcDbPolyline
 90
16
 70
0
 10
150.842958
 20
415.097358
 30
0.0
 10
154.034226
 20
421.479895
 30
0.0
 10
150.842958
 20
411.906090
 30
0.0
 10
150.842958
 20
408.714821
 30
0.0
 10
152.438592
 20
407.119187
 30
0.0
 10
154.034226
 20
407.119187
 30
0.0
 10
157.225495
 20
408.714821
 30
0.0
 10
158.821129
 20
410.310455
 30
0.0
 10
162.012398
 20
415.097358
 30
0.0
 10
165.203667
 20
419.884261
 30
0.0
 10
166.799301
 20
423.075530
 30
0.0
 10
166.799301
 20
419.884261
 30
0.0
 10
169.990570
 20
415.097358
 30
0.0
 10
171.586204
 20
411.906090
 30
0.0
 10
171.586204
 20
408.714821
 30
0.0
 10
168.394935
 20
407.119187
 30
0.0
  0
LWPOLYLINE
  5
108
100
AcDbEntity
  8
Layer_1
 62
3
100
AcDbPolyline
 90
6
 70
0
 10
162.012398
 20
408.714821
 30
0.0
 10
165.203667
 20
407.119187
 30
0.0
 10
171.586204
 20
407.119187
 30
0.0
 10
174.777473
 20
408.714821
 30
0.0
 10
176.373107
 20
410.310455
 30
0.0
 10
179.564376
 20
415.097358
 30
0.0
  0
LWPOLYLINE
  5
109
100
AcDbEntity
  8
Layer_1
 62
3
100
AcDbPolyline
 90
37
 70
0
 10
219.455234
 20
416.692992
 30
0.0
 10
217.859599
 20
419.884261
 30
0.0
 10
214.668331
 20
421.479895
 30
0.0
 10
211.477062
 20
421.479895
 30
0.0
 10
208.285793
 20
419.884261
 30
0.0
 10
206.690159
 20
418.288627
 30
0.0
 10
205.094525
 20
415.097358
 30
0.0
 10
205.094525
 20
411.906090
 30
0.0
 10
206.690159
 20
408.714821
 30
0.0
 10
209.881428
 20
407.119187
 30
0.0
 10
213.072696
 20
407.119187
 30
0.0
 10
216.263965
 20
408.714821
 30
0.0
 10
217.859599
 20
411.906090
 30
0.0
 10
221.050868
 20
421.479895
 30
0.0
 10
219.455234
 20
413.501724
 30
0.0
 10
219.455234
 20
408.714821
 30
0.0
 10
221.050868
 20
407.119187
 30
0.0
 10
222.646502
 20
407.119187
 30
0.0
 10
225.837771
 20
408.714821
 30
0.0
 10
227.433405
 20
410.310455
 30
0.0
 10
230.624674
 20
415.097358
 30
0.0
 10
233.815942
 20
419.884261
 30
0.0
 10
238.602845
 20
427.862433
 30
0.0
 10
240.198480
 20
431.053701
 30
0.0
 10
241.794114
 20
435.840604
 30
0.0
 10
241.794114
 20
439.031873
 30
0.0
 10
240.198480
 20
440.627507
 30
0.0
 10
237.007211
 20
439.031873
 30
0.0
 10
235.411577
 20
435.840604
 30
0.0
 10
233.815942
 20
429.458067
 30
0.0
 10
232.220308
 20
418.288627
 30
0.0
 10
232.220308
 20
408.714821
 30
0.0
 10
233.815942
 20
407.119187
 30
0.0
 10
235.411577
 20
407.119187
 30
0.0
 10
238.602845
 20
408.714821
 30
0.0
 10
240.198480
 20
410.310455
 30
0.0
 10
243.389748
 20
415.097358
 30
0.0
  0
LWPOLYLINE
  5
10a
100
AcDbEntity
  8
Layer_1
 62
3
100
AcDbPolyline
 90
5
 70
0
 10
248.176651
 20
429.458067
 30
0.0
 10
248.176651
 20
427.862433
 30
0.0
 10
249.772286
 20
427.862433
 30
0.0
 10
249.772286
 20
429.458067
 30
0.0
 10
248.176651
 20
429.458067
 30
0.0
  0
LWPOLYLINE
  5
10b
100
AcDbEntity
  8
Layer_1
 62
3
100
AcDbPolyline
 90
9
 70
0
 10
243.389748
 20
415.097358
 30
0.0
 10
246.581017
 20
421.479895
 30
0.0
 10
243.389748
 20
411.906090
 30
0.0
 10
243.389748
 20
408.714821
 30
0.0
 10
244.985383
 20
407.119187
 30
0.0
 10
246.581017
 20
407.119187
 30
0.0
 10
249.772286
 20
408.714821
 30
0.0
 10
251.367920
 20
410.310455
 30
0.0
 10
254.559189
 20
415.097358
 30
0.0
  0
LWPOLYLINE
  5
10c
100
AcDbEntity
  8
Layer_1
 62
3
100
AcDbPolyline
 90
12
 70
0
 10
268.919898
 20
416.692992
 30
0.0
 10
267.324263
 20
419.884261
 30
0.0
 10
264.132995
 20
421.479895
 30
0.0
 10
260.941726
 20
421.479895
 30
0.0
 10
257.750457
 20
419.884261
 30
0.0
 10
256.154823
 20
418.288627
 30
0.0
 10
254.559189
 20
415.097358
 30
0.0
 10
254.559189
 20
411.906090
 30
0.0
 10
256.154823
 20
408.714821
 30
0.0
 10
259.346092
 20
407.119187
 30
0.0
 10
262.537360
 20
407.119187
 30
0.0
 10
265.728629
 20
408.714821
 30
0.0
  0
LWPOLYLINE
  5
10d
100
AcDbEntity
  8
Layer_1
 62
3
100
AcDbPolyline
 90
21
 70
0
 10
270.515532
 20
421.479895
 30
0.0
 10
268.919898
 20
416.692992
 30
0.0
 10
265.728629
 20
408.714821
 30
0.0
 10
260.941726
 20
397.545381
 30
0.0
 10
259.346092
 20
392.758478
 30
0.0
 10
259.346092
 20
389.567209
 30
0.0
 10
260.941726
 20
387.971575
 30
0.0
 10
264.132995
 20
389.567209
 30
0.0
 10
265.728629
 20
394.354112
 30
0.0
 10
265.728629
 20
405.523552
 30
0.0
 10
268.919898
 20
407.119187
 30
0.0
 10
273.706800
 20
410.310455
 30
0.0
 10
278.493703
 20
415.097358
 30
0.0
 10
281.684972
 20
421.479895
 30
0.0
 10
278.493703
 20
411.906090
 30
0.0
 10
278.493703
 20
408.714821
 30
0.0
 10
280.089338
 20
407.119187
 30
0.0
 10
283.280606
 20
407.119187
 30
0.0
 10
286.471875
 20
408.714821
 30
0.0
 10
289.663144
 20
411.906090
 30
0.0
 10
292.854412
 20
416.692992
 30
0.0
  0
LWPOLYLINE
  5
10e
100
AcDbEntity
  8
Layer_1
 62
3
100
AcDbPolyline
 90
8
 70
0
 10
294.450047
 20
421.479895
 30
0.0
 10
291.258778
 20
411.906090
 30
0.0
 10
291.258778
 20
408.714821
 30
0.0
 10
292.854412
 20
407.119187
 30
0.0
 10
294.450047
 20
407.119187
 30
0.0
 10
297.641315
 20
408.714821
 30
0.0
 10
299.236950
 20
410.310455
 30
0.0
 10
302.428218
 20
415.097358
 30
0.0
  0
LWPOLYLINE
  5
10f
100
AcDbEntity
  8
Layer_1
 62
3
100
AcDbPolyline
 90
5
 70
0
 10
307.215121
 20
429.458067
 30
0.0
 10
307.215121
 20
427.862433
 30
0.0
 10
308.810756
 20
427.862433
 30
0.0
 10
308.810756
 20
429.458067
 30
0.0
 10
307.215121
 20
429.458067
 30
0.0
  0
LWPOLYLINE
  5
110
100
AcDbEntity
  8
Layer_1
 62
3
100
AcDbPolyline
 90
9
 70
0
 10
302.428218
 20
415.097358
 30
0.0
 10
305.619487
 20
421.479895
 30
0.0
 10
302.428218
 20
411.906090
 30
0.0
 10
302.428218
 20
408.714821
 30
0.0
 10
304.023853
 20
407.119187
 30
0.0
 10
305.619487
 20
407.119187
 30
0.0
 10
308.810756
 20
408.714821
 30
0.0
 10
310.406390
 20
410.310455
 30
0.0
 10
313.597658
 20
415.097358
 30
0.0
  0
LWPOLYLINE
  5
111
100
AcDbEntity
  8
Layer_1
 62
3
100
AcDbPolyline
 90
14
 70
0
 10
327.958367
 20
416.692992
 30
0.0
 10
326.362733
 20
419.884261
 30
0.0
 10
323.171464
 20
421.479895
 30
0.0
 10
319.980196
 20
421.479895
 30
0.0
 10
316.788927
 20
419.884261
 30
0.0
 10
315.193293
 20
418.288627
 30
0.0
 10
313.597658
 20
415.097358
 30
0.0
 10
313.597658
 20
411.906090
 30
0.0
 10
315.193293
 20
408.714821
 30
0.0
 10
318.384561
 20
407.119187
 30
0.0
 10
321.575830
 20
407.119187
 30
0.0
 10
324.767099
 20
408.714821
 30
0.0
 10
326.362733
 20
411.906090
 30
0.0
 10
335.936539
 20
440.627507
 30
0.0
  0
LWPOLYLINE
  5
112
100
AcDbEntity
  8
Layer_1
 62
3
100
AcDbPolyline
 90
8
 70
0
 10
329.554002
 20
421.479895
 30
0.0
 10
327.958367
 20
413.501724
 30
0.0
 10
327.958367
 20
408.714821
 30
0.0
 10
329.554002
 20
407.119187
 30
0.0
 10
331.149636
 20
407.119187
 30
0.0
 10
334.340905
 20
408.714821
 30
0.0
 10
335.936539
 20
410.310455
 30
0.0
 10
339.127808
 20
415.097358
 30
0.0
  0
LWPOLYLINE
  5
113
100
AcDbEntity
  8
Layer_1
 62
3
100
AcDbPolyline
 90
7
 70
0
 10
90.812610
 20
352.565742
 30
0.0
 10
94.003878
 20
357.352645
 30
0.0
 10
97.195147
 20
358.948279
 30
0.0
 10
98.790781
 20
357.352645
 30
0.0
 10
98.790781
 20
355.757010
 30
0.0
 10
97.195147
 20
349.374473
 30
0.0
 10
95.599513
 20
344.587570
 30
0.0
  0
LWPOLYLINE
  5
114
100
AcDbEntity
  8
Layer_1
 62
3
100
AcDbPolyline
 90
22
 70
0
 10
97.195147
 20
349.374473
 30
0.0
 10
98.790781
 20
352.565742
 30
0.0
 10
101.982050
 20
357.352645
 30
0.0
 10
105.173319
 20
358.948279
 30
0.0
 10
108.364587
 20
358.948279
 30
0.0
 10
109.960222
 20
357.352645
 30
0.0
 10
109.960222
 20
354.161376
 30
0.0
 10
108.364587
 20
349.374473
 30
0.0
 10
108.364587
 20
346.183204
 30
0.0
 10
109.960222
 20
344.587570
 30
0.0
 10
111.555856
 20
344.587570
 30
0.0
 10
114.747125
 20
346.183204
 30
0.0
 10
116.342759
 20
347.778839
 30
0.0
 10
119.534028
 20
352.565742
 30
0.0
 10
122.725296
 20
358.948279
 30
0.0
 10
119.534028
 20
349.374473
 30
0.0
 10
119.534028
 20
346.183204
 30
0.0
 10
121.129662
 20
344.587570
 30
0.0
 10
124.320931
 20
344.587570
 30
0.0
 10
127.512199
 20
346.183204
 30
0.0
 10
130.703468
 20
349.374473
 30
0.0
 10
133.894736
 20
354.161376
 30
0.0
  0
LWPOLYLINE
  5
115
100
AcDbEntity
  8
Layer_1
 62
3
100
AcDbPolyline
 90
14
 70
0
 10
135.490371
 20
358.948279
 30
0.0
 10
132.299102
 20
349.374473
 30
0.0
 10
132.299102
 20
346.183204
 30
0.0
 10
133.894736
 20
344.587570
 30
0.0
 10
135.490371
 20
344.587570
 30
0.0
 10
138.681639
 20
346.183204
 30
0.0
 10
140.277274
 20
347.778839
 30
0.0
 10
143.468542
 20
352.565742
 30
0.0
 10
146.659811
 20
357.352645
 30
0.0
 10
149.851080
 20
358.948279
 30
0.0
 10
151.446714
 20
357.352645
 30
0.0
 10
151.446714
 20
355.757010
 30
0.0
 10
149.851080
 20
349.374473
 30
0.0
 10
148.255445
 20
344.587570
 30
0.0
  0
LWPOLYLINE
  5
116
100
AcDbEntity
  8
Layer_1
 62
3
100
AcDbPolyline
 90
9
 70
0
 10
149.851080
 20
349.374473
 30
0.0
 10
151.446714
 20
352.565742
 30
0.0
 10
154.637983
 20
357.352645
 30
0.0
 10
157.829251
 20
358.948279
 30
0.0
 10
161.020520
 20
358.948279
 30
0.0
 10
162.616154
 20
357.352645
 30
0.0
 10
162.616154
 20
355.757010
 30
0.0
 10
161.020520
 20
349.374473
 30
0.0
 10
159.424886
 20
344.587570
 30
0.0
  0
LWPOLYLINE
  5
117
100
AcDbEntity
  8
Layer_1
 62
3
100
AcDbPolyline
 90
14
 70
0
 10
161.020520
 20
349.374473
 30
0.0
 10
162.616154
 20
352.565742
 30
0.0
 10
165.807423
 20
357.352645
 30
0.0
 10
168.998691
 20
358.948279
 30
0.0
 10
172.189960
 20
358.948279
 30
0.0
 10
173.785594
 20
357.352645
 30
0.0
 10
173.785594
 20
354.161376
 30
0.0
 10
172.189960
 20
349.374473
 30
0.0
 10
172.189960
 20
346.183204
 30
0.0
 10
173.785594
 20
344.587570
 30
0.0
 10
175.381229
 20
344.587570
 30
0.0
 10
178.572497
 20
346.183204
 30
0.0
 10
180.168132
 20
347.778839
 30
0.0
 10
183.359400
 20
352.565742
 30
0.0
  0
LWPOLYLINE
  5
118
100
AcDbEntity
  8
Layer_1
 62
3
100
AcDbPolyline
 90
12
 70
0
 10
197.720109
 20
354.161376
 30
0.0
 10
196.124475
 20
357.352645
 30
0.0
 10
192.933206
 20
358.948279
 30
0.0
 10
189.741938
 20
358.948279
 30
0.0
 10
186.550669
 20
357.352645
 30
0.0
 10
184.955035
 20
355.757010
 30
0.0
 10
183.359400
 20
352.565742
 30
0.0
 10
183.359400
 20
349.374473
 30
0.0
 10
184.955035
 20
346.183204
 30
0.0
 10
188.146303
 20
344.587570
 30
0.0
 10
191.337572
 20
344.587570
 30
0.0
 10
194.528841
 20
346.183204
 30
0.0
  0
LWPOLYLINE
  5
119
100
AcDbEntity
  8
Layer_1
 62
3
100
AcDbPolyline
 90
21
 70
0
 10
199.315744
 20
358.948279
 30
0.0
 10
197.720109
 20
354.161376
 30
0.0
 10
194.528841
 20
346.183204
 30
0.0
 10
189.741938
 20
335.013764
 30
0.0
 10
188.146303
 20
330.226861
 30
0.0
 10
188.146303
 20
327.035593
 30
0.0
 10
189.741938
 20
325.439958
 30
0.0
 10
192.933206
 20
327.035593
 30
0.0
 10
194.528841
 20
331.822495
 30
0.0
 10
194.528841
 20
342.991936
 30
0.0
 10
197.720109
 20
344.587570
 30
0.0
 10
202.507012
 20
347.778839
 30
0.0
 10
207.293915
 20
352.565742
 30
0.0
 10
210.485184
 20
358.948279
 30
0.0
 10
207.293915
 20
349.374473
 30
0.0
 10
207.293915
 20
346.183204
 30
0.0
 10
208.889549
 20
344.587570
 30
0.0
 10
212.080818
 20
344.587570
 30
0.0
 10
215.272087
 20
346.183204
 30
0.0
 10
218.463355
 20
349.374473
 30
0.0
 10
221.654624
 20
354.161376
 30
0.0
  0
LWPOLYLINE
  5
11a
100
AcDbEntity
  8
Layer_1
 62
3
100
AcDbPolyline
 90
8
 70
0
 10
223.250258
 20
358.948279
 30
0.0
 10
220.058990
 20
349.374473
 30
0.0
 10
220.058990
 20
346.183204
 30
0.0
 10
221.654624
 20
344.587570
 30
0.0
 10
223.250258
 20
344.587570
 30
0.0
 10
226.441527
 20
346.183204
 30
0.0
 10
228.037161
 20
347.778839
 30
0.0
 10
231.228430
 20
352.565742
 30
0.0
  0
LWPOLYLINE
  5
11b
100
AcDbEntity
  8
Layer_1
 62
3
100
AcDbPolyline
 90
27
 70
0
 10
245.589139
 20
354.161376
 30
0.0
 10
243.993505
 20
357.352645
 30
0.0
 10
240.802236
 20
358.948279
 30
0.0
 10
237.610967
 20
358.948279
 30
0.0
 10
234.419699
 20
357.352645
 30
0.0
 10
232.824064
 20
355.757010
 30
0.0
 10
231.228430
 20
352.565742
 30
0.0
 10
231.228430
 20
349.374473
 30
0.0
 10
232.824064
 20
346.183204
 30
0.0
 10
236.015333
 20
344.587570
 30
0.0
 10
239.206602
 20
344.587570
 30
0.0
 10
242.397870
 20
346.183204
 30
0.0
 10
243.993505
 20
349.374473
 30
0.0
 10
247.184773
 20
358.948279
 30
0.0
 10
245.589139
 20
350.970107
 30
0.0
 10
245.589139
 20
346.183204
 30
0.0
 10
247.184773
 20
344.587570
 30
0.0
 10
248.780407
 20
344.587570
 30
0.0
 10
251.971676
 20
346.183204
 30
0.0
 10
253.567310
 20
347.778839
 30
0.0
 10
256.758579
 20
352.565742
 30
0.0
 10
259.949848
 20
357.352645
 30
0.0
 10
263.141116
 20
358.948279
 30
0.0
 10
264.736751
 20
357.352645
 30
0.0
 10
264.736751
 20
355.757010
 30
0.0
 10
263.141116
 20
349.374473
 30
0.0
 10
261.545482
 20
344.587570
 30
0.0
  0
LWPOLYLINE
  5
11c
100
AcDbEntity
  8
Layer_1
 62
3
100
AcDbPolyline
 90
9
 70
0
 10
263.141116
 20
349.374473
 30
0.0
 10
264.736751
 20
352.565742
 30
0.0
 10
267.928019
 20
357.352645
 30
0.0
 10
271.119288
 20
358.948279
 30
0.0
 10
274.310557
 20
358.948279
 30
0.0
 10
275.906191
 20
357.352645
 30
0.0
 10
275.906191
 20
355.757010
 30
0.0
 10
274.310557
 20
349.374473
 30
0.0
 10
272.714922
 20
344.587570
 30
0.0
  0
LWPOLYLINE
  5
11d
100
AcDbEntity
  8
Layer_1
 62
3
100
AcDbPolyline
 90
14
 70
0
 10
274.310557
 20
349.374473
 30
0.0
 10
275.906191
 20
352.565742
 30
0.0
 10
279.097460
 20
357.352645
 30
0.0
 10
282.288728
 20
358.948279
 30
0.0
 10
285.479997
 20
358.948279
 30
0.0
 10
287.075631
 20
357.352645
 30
0.0
 10
287.075631
 20
354.161376
 30
0.0
 10
285.479997
 20
349.374473
 30
0.0
 10
285.479997
 20
346.183204
 30
0.0
 10
287.075631
 20
344.587570
 30
0.0
 10
288.671265
 20
344.587570
 30
0.0
 10
291.862534
 20
346.183204
 30
0.0
 10
293.458168
 20
347.778839
 30
0.0
 10
296.649437
 20
352.565742
 30
0.0
  0
LWPOLYLINE
  5
11e
100
AcDbEntity
  8
Layer_1
 62
3
100
AcDbPolyline
 90
3
 70
0
 10
454.905376
 20
413.372231
 30
0.0
 10
458.220720
 20
418.345247
 30
0.0
 10
461.536064
 20
424.975935
 30
0.0
  0
LWPOLYLINE
  5
11f
100
AcDbEntity
  8
Layer_1
 62
3
100
AcDbPolyline
 90
8
 70
0
 10
466.509080
 20
439.894983
 30
0.0
 10
456.563048
 20
410.056887
 30
0.0
 10
456.563048
 20
406.741543
 30
0.0
 10
458.220720
 20
405.083871
 30
0.0
 10
461.536064
 20
405.083871
 30
0.0
 10
464.851408
 20
406.741543
 30
0.0
 10
466.509080
 20
408.399215
 30
0.0
 10
469.824424
 20
413.372231
 30
0.0
  0
LWPOLYLINE
  5
120
100
AcDbEntity
  8
Layer_1
 62
3
100
AcDbPolyline
 90
2
 70
0
 10
456.563048
 20
426.633607
 30
0.0
 10
468.166752
 20
426.633607
 30
0.0
  0
LWPOLYLINE
  5
121
100
AcDbEntity
  8
Layer_1
 62
3
100
AcDbPolyline
 90
9
 70
0
 10
469.824424
 20
413.372231
 30
0.0
 10
473.139776
 20
420.002919
 30
0.0
 10
469.824424
 20
410.056887
 30
0.0
 10
469.824424
 20
406.741543
 30
0.0
 10
471.482096
 20
405.083871
 30
0.0
 10
474.797448
 20
405.083871
 30
0.0
 10
478.112792
 20
406.741543
 30
0.0
 10
481.428136
 20
410.056887
 30
0.0
 10
484.743480
 20
415.029903
 30
0.0
  0
LWPOLYLINE
  5
122
100
AcDbEntity
  8
Layer_1
 62
3
100
AcDbPolyline
 90
8
 70
0
 10
486.401152
 20
420.002919
 30
0.0
 10
483.085808
 20
410.056887
 30
0.0
 10
483.085808
 20
406.741543
 30
0.0
 10
484.743480
 20
405.083871
 30
0.0
 10
486.401152
 20
405.083871
 30
0.0
 10
489.716496
 20
406.741543
 30
0.0
 10
491.374168
 20
408.399215
 30
0.0
 10
494.689512
 20
413.372231
 30
0.0
  0
LWPOLYLINE
  5
123
100
AcDbEntity
  8
Layer_1
 62
3
100
AcDbPolyline
 90
7
 70
0
 10
521.212264
 20
413.372231
 30
0.0
 10
524.527608
 20
418.345247
 30
0.0
 10
527.842960
 20
420.002919
 30
0.0
 10
529.500632
 20
418.345247
 30
0.0
 10
529.500632
 20
416.687575
 30
0.0
 10
527.842960
 20
410.056887
 30
0.0
 10
526.185280
 20
405.083871
 30
0.0
  0
LWPOLYLINE
  5
124
100
AcDbEntity
  8
Layer_1
 62
3
100
AcDbPolyline
 90
22
 70
0
 10
527.842960
 20
410.056887
 30
0.0
 10
529.500632
 20
413.372231
 30
0.0
 10
532.815976
 20
418.345247
 30
0.0
 10
536.131320
 20
420.002919
 30
0.0
 10
539.446664
 20
420.002919
 30
0.0
 10
541.104336
 20
418.345247
 30
0.0
 10
541.104336
 20
415.029903
 30
0.0
 10
539.446664
 20
410.056887
 30
0.0
 10
539.446664
 20
406.741543
 30
0.0
 10
541.104336
 20
405.083871
 30
0.0
 10
542.762008
 20
405.083871
 30
0.0
 10
546.077352
 20
406.741543
 30
0.0
 10
547.735024
 20
408.399215
 30
0.0
 10
551.050368
 20
413.372231
 30
0.0
 10
554.365712
 20
420.002919
 30
0.0
 10
551.050368
 20
410.056887
 30
0.0
 10
551.050368
 20
406.741543
 30
0.0
 10
552.708040
 20
405.083871
 30
0.0
 10
556.023384
 20
405.083871
 30
0.0
 10
559.338728
 20
406.741543
 30
0.0
 10
562.654072
 20
410.056887
 30
0.0
 10
565.969416
 20
415.029903
 30
0.0
  0
LWPOLYLINE
  5
125
100
AcDbEntity
  8
Layer_1
 62
3
100
AcDbPolyline
 90
14
 70
0
 10
567.627088
 20
420.002919
 30
0.0
 10
564.311744
 20
410.056887
 30
0.0
 10
564.311744
 20
406.741543
 30
0.0
 10
565.969416
 20
405.083871
 30
0.0
 10
567.627088
 20
405.083871
 30
0.0
 10
570.942432
 20
406.741543
 30
0.0
 10
572.600104
 20
408.399215
 30
0.0
 10
575.915448
 20
413.372231
 30
0.0
 10
579.230792
 20
418.345247
 30
0.0
 10
582.546136
 20
420.002919
 30
0.0
 10
584.203816
 20
418.345247
 30
0.0
 10
584.203816
 20
416.687575
 30
0.0
 10
582.546136
 20
410.056887
 30
0.0
 10
580.888464
 20
405.083871
 30
0.0
  0
LWPOLYLINE
  5
126
100
AcDbEntity
  8
Layer_1
 62
3
100
AcDbPolyline
 90
9
 70
0
 10
582.546136
 20
410.056887
 30
0.0
 10
584.203816
 20
413.372231
 30
0.0
 10
587.519160
 20
418.345247
 30
0.0
 10
590.834504
 20
420.002919
 30
0.0
 10
594.149848
 20
420.002919
 30
0.0
 10
595.807520
 20
418.345247
 30
0.0
 10
595.807520
 20
416.687575
 30
0.0
 10
594.149848
 20
410.056887
 30
0.0
 10
592.492176
 20
405.083871
 30
0.0
  0
LWPOLYLINE
  5
127
100
AcDbEntity
  8
Layer_1
 62
3
100
AcDbPolyline
 90
14
 70
0
 10
594.149848
 20
410.056887
 30
0.0
 10
595.807520
 20
413.372231
 30
0.0
 10
599.122864
 20
418.345247
 30
0.0
 10
602.438208
 20
420.002919
 30
0.0
 10
605.753552
 20
420.002919
 30
0.0
 10
607.411224
 20
418.345247
 30
0.0
 10
607.411224
 20
415.029903
 30
0.0
 10
605.753552
 20
410.056887
 30
0.0
 10
605.753552
 20
406.741543
 30
0.0
 10
607.411224
 20
405.083871
 30
0.0
 10
609.068896
 20
405.083871
 30
0.0
 10
612.384240
 20
406.741543
 30
0.0
 10
614.041912
 20
408.399215
 30
0.0
 10
617.357256
 20
413.372231
 30
0.0
  0
LWPOLYLINE
  5
128
100
AcDbEntity
  8
Layer_1
 62
3
100
AcDbPolyline
 90
12
 70
0
 10
632.276304
 20
415.029903
 30
0.0
 10
630.618632
 20
418.345247
 30
0.0
 10
627.303288
 20
420.002919
 30
0.0
 10
623.987944
 20
420.002919
 30
0.0
 10
620.672600
 20
418.345247
 30
0.0
 10
619.014928
 20
416.687575
 30
0.0
 10
617.357256
 20
413.372231
 30
0.0
 10
617.357256
 20
410.056887
 30
0.0
 10
619.014928
 20
406.741543
 30
0.0
 10
622.330272
 20
405.083871
 30
0.0
 10
625.645616
 20
405.083871
 30
0.0
 10
628.960960
 20
406.741543
 30
0.0
  0
LWPOLYLINE
  5
129
100
AcDbEntity
  8
Layer_1
 62
3
100
AcDbPolyline
 90
21
 70
0
 10
633.933976
 20
420.002919
 30
0.0
 10
632.276304
 20
415.029903
 30
0.0
 10
628.960960
 20
406.741543
 30
0.0
 10
623.987944
 20
395.137839
 30
0.0
 10
622.330272
 20
390.164823
 30
0.0
 10
622.330272
 20
386.849479
 30
0.0
 10
623.987944
 20
385.191799
 30
0.0
 10
627.303288
 20
386.849479
 30
0.0
 10
628.960960
 20
391.822495
 30
0.0
 10
628.960960
 20
403.426199
 30
0.0
 10
632.276304
 20
405.083871
 30
0.0
 10
637.249320
 20
408.399215
 30
0.0
 10
642.222344
 20
413.372231
 30
0.0
 10
645.537688
 20
420.002919
 30
0.0
 10
642.222344
 20
410.056887
 30
0.0
 10
642.222344
 20
406.741543
 30
0.0
 10
643.880016
 20
405.083871
 30
0.0
 10
647.195360
 20
405.083871
 30
0.0
 10
650.510704
 20
406.741543
 30
0.0
 10
653.826048
 20
410.056887
 30
0.0
 10
657.141392
 20
415.029903
 30
0.0
  0
LWPOLYLINE
  5
12a
100
AcDbEntity
  8
Layer_1
 62
3
100
AcDbPolyline
 90
8
 70
0
 10
658.799064
 20
420.002919
 30
0.0
 10
655.483720
 20
410.056887
 30
0.0
 10
655.483720
 20
406.741543
 30
0.0
 10
657.141392
 20
405.083871
 30
0.0
 10
658.799064
 20
405.083871
 30
0.0
 10
662.114408
 20
406.741543
 30
0.0
 10
663.772080
 20
408.399215
 30
0.0
 10
667.087424
 20
413.372231
 30
0.0
  0
LWPOLYLINE
  5
12b
100
AcDbEntity
  8
Layer_1
 62
3
100
AcDbPolyline
 90
27
 70
0
 10
682.006472
 20
415.029903
 30
0.0
 10
680.348800
 20
418.345247
 30
0.0
 10
677.033456
 20
420.002919
 30
0.0
 10
673.718112
 20
420.002919
 30
0.0
 10
670.402768
 20
418.345247
 30
0.0
 10
668.745096
 20
416.687575
 30
0.0
 10
667.087424
 20
413.372231
 30
0.0
 10
667.087424
 20
410.056887
 30
0.0
 10
668.745096
 20
406.741543
 30
0.0
 10
672.060440
 20
405.083871
 30
0.0
 10
675.375784
 20
405.083871
 30
0.0
 10
678.691128
 20
406.741543
 30
0.0
 10
680.348800
 20
410.056887
 30
0.0
 10
683.664144
 20
420.002919
 30
0.0
 10
682.006472
 20
411.714559
 30
0.0
 10
682.006472
 20
406.741543
 30
0.0
 10
683.664144
 20
405.083871
 30
0.0
 10
685.321816
 20
405.083871
 30
0.0
 10
688.637160
 20
406.741543
 30
0.0
 10
690.294832
 20
408.399215
 30
0.0
 10
693.610184
 20
413.372231
 30
0.0
 10
696.925528
 20
418.345247
 30
0.0
 10
700.240872
 20
420.002919
 30
0.0
 10
701.898544
 20
418.345247
 30
0.0
 10
701.898544
 20
416.687575
 30
0.0
 10
700.240872
 20
410.056887
 30
0.0
 10
698.583200
 20
405.083871
 30
0.0
  0
LWPOLYLINE
  5
12c
100
AcDbEntity
  8
Layer_1
 62
3
100
AcDbPolyline
 90
9
 70
0
 10
700.240872
 20
410.056887
 30
0.0
 10
701.898544
 20
413.372231
 30
0.0
 10
705.213888
 20
418.345247
 30
0.0
 10
708.529232
 20
420.002919
 30
0.0
 10
711.844576
 20
420.002919
 30
0.0
 10
713.502248
 20
418.345247
 30
0.0
 10
713.502248
 20
416.687575
 30
0.0
 10
711.844576
 20
410.056887
 30
0.0
 10
710.186904
 20
405.083871
 30
0.0
  0
LWPOLYLINE
  5
12d
100
AcDbEntity
  8
Layer_1
 62
3
100
AcDbPolyline
 90
14
 70
0
 10
711.844576
 20
410.056887
 30
0.0
 10
713.502248
 20
413.372231
 30
0.0
 10
716.817592
 20
418.345247
 30
0.0
 10
720.132936
 20
420.002919
 30
0.0
 10
723.448280
 20
420.002919
 30
0.0
 10
725.105952
 20
418.345247
 30
0.0
 10
725.105952
 20
415.029903
 30
0.0
 10
723.448280
 20
410.056887
 30
0.0
 10
723.448280
 20
406.741543
 30
0.0
 10
725.105952
 20
405.083871
 30
0.0
 10
726.763624
 20
405.083871
 30
0.0
 10
730.078968
 20
406.741543
 30
0.0
 10
731.736640
 20
408.399215
 30
0.0
 10
735.051984
 20
413.372231
 30
0.0
  0
LWPOLYLINE
  5
12e
100
AcDbEntity
  8
Layer_1
 62
3
100
AcDbPolyline
 90
37
 70
0
 10
465.120216
 20
354.226479
 30
0.0
 10
463.462544
 20
357.541823
 30
0.0
 10
460.147200
 20
359.199495
 30
0.0
 10
456.831856
 20
359.199495
 30
0.0
 10
453.516512
 20
357.541823
 30
0.0
 10
451.858840
 20
355.884151
 30
0.0
 10
450.201168
 20
352.568807
 30
0.0
 10
450.201168
 20
349.253463
 30
0.0
 10
451.858840
 20
345.938119
 30
0.0
 10
455.174184
 20
344.280447
 30
0.0
 10
458.489528
 20
344.280447
 30
0.0
 10
461.804872
 20
345.938119
 30
0.0
 10
463.462544
 20
349.253463
 30
0.0
 10
466.777888
 20
359.199495
 30
0.0
 10
465.120216
 20
350.911135
 30
0.0
 10
465.120216
 20
345.938119
 30
0.0
 10
466.777888
 20
344.280447
 30
0.0
 10
468.435560
 20
344.280447
 30
0.0
 10
471.750912
 20
345.938119
 30
0.0
 10
473.408584
 20
347.595791
 30
0.0
 10
476.723928
 20
352.568807
 30
0.0
 10
480.039272
 20
357.541823
 30
0.0
 10
485.012288
 20
365.830191
 30
0.0
 10
486.669960
 20
369.145535
 30
0.0
 10
488.327632
 20
374.118551
 30
0.0
 10
488.327632
 20
377.433895
 30
0.0
 10
486.669960
 20
379.091567
 30
0.0
 10
483.354616
 20
377.433895
 30
0.0
 10
481.696944
 20
374.118551
 30
0.0
 10
480.039272
 20
367.487863
 30
0.0
 10
478.381600
 20
355.884151
 30
0.0
 10
478.381600
 20
345.938119
 30
0.0
 10
480.039272
 20
344.280447
 30
0.0
 10
481.696944
 20
344.280447
 30
0.0
 10
485.012288
 20
345.938119
 30
0.0
 10
486.669960
 20
347.595791
 30
0.0
 10
489.985304
 20
352.568807
 30
0.0
  0
LWPOLYLINE
  5
12f
100
AcDbEntity
  8
Layer_1
 62
3
100
AcDbPolyline
 90
5
 70
0
 10
494.958320
 20
367.487863
 30
0.0
 10
494.958320
 20
365.830191
 30
0.0
 10
496.615992
 20
365.830191
 30
0.0
 10
496.615992
 20
367.487863
 30
0.0
 10
494.958320
 20
367.487863
 30
0.0
  0
LWPOLYLINE
  5
130
100
AcDbEntity
  8
Layer_1
 62
3
100
AcDbPolyline
 90
9
 70
0
 10
489.985304
 20
352.568807
 30
0.0
 10
493.300648
 20
359.199495
 30
0.0
 10
489.985304
 20
349.253463
 30
0.0
 10
489.985304
 20
345.938119
 30
0.0
 10
491.642976
 20
344.280447
 30
0.0
 10
493.300648
 20
344.280447
 30
0.0
 10
496.615992
 20
345.938119
 30
0.0
 10
498.273664
 20
347.595791
 30
0.0
 10
501.589008
 20
352.568807
 30
0.0
  0
LWPOLYLINE
  5
131
100
AcDbEntity
  8
Layer_1
 62
3
100
AcDbPolyline
 90
12
 70
0
 10
516.508056
 20
354.226479
 30
0.0
 10
514.850384
 20
357.541823
 30
0.0
 10
511.535040
 20
359.199495
 30
0.0
 10
508.219696
 20
359.199495
 30
0.0
 10
504.904352
 20
357.541823
 30
0.0
 10
503.246680
 20
355.884151
 30
0.0
 10
501.589008
 20
352.568807
 30
0.0
 10
501.589008
 20
349.253463
 30
0.0
 10
503.246680
 20
345.938119
 30
0.0
 10
506.562024
 20
344.280447
 30
0.0
 10
509.877368
 20
344.280447
 30
0.0
 10
513.192712
 20
345.938119
 30
0.0
  0
LWPOLYLINE
  5
132
100
AcDbEntity
  8
Layer_1
 62
3
100
AcDbPolyline
 90
21
 70
0
 10
518.165728
 20
359.199495
 30
0.0
 10
516.508056
 20
354.226479
 30
0.0
 10
513.192712
 20
345.938119
 30
0.0
 10
508.219696
 20
334.334415
 30
0.0
 10
506.562024
 20
329.361399
 30
0.0
 10
506.562024
 20
326.046055
 30
0.0
 10
508.219696
 20
324.388383
 30
0.0
 10
511.535040
 20
326.046055
 30
0.0
 10
513.192712
 20
331.019071
 30
0.0
 10
513.192712
 20
342.622775
 30
0.0
 10
516.508056
 20
344.280447
 30
0.0
 10
521.481072
 20
347.595791
 30
0.0
 10
526.454088
 20
352.568807
 30
0.0
 10
529.769440
 20
359.199495
 30
0.0
 10
526.454088
 20
349.253463
 30
0.0
 10
526.454088
 20
345.938119
 30
0.0
 10
528.111768
 20
344.280447
 30
0.0
 10
531.427112
 20
344.280447
 30
0.0
 10
534.742456
 20
345.938119
 30
0.0
 10
538.057800
 20
349.253463
 30
0.0
 10
541.373144
 20
354.226479
 30
0.0
  0
LWPOLYLINE
  5
133
100
AcDbEntity
  8
Layer_1
 62
3
100
AcDbPolyline
 90
8
 70
0
 10
543.030816
 20
359.199495
 30
0.0
 10
539.715472
 20
349.253463
 30
0.0
 10
539.715472
 20
345.938119
 30
0.0
 10
541.373144
 20
344.280447
 30
0.0
 10
543.030816
 20
344.280447
 30
0.0
 10
546.346160
 20
345.938119
 30
0.0
 10
548.003832
 20
347.595791
 30
0.0
 10
551.319176
 20
352.568807
 30
0.0
  0
LWPOLYLINE
  5
134
100
AcDbEntity
  8
Layer_1
 62
3
100
AcDbPolyline
 90
5
 70
0
 10
556.292192
 20
367.487863
 30
0.0
 10
556.292192
 20
365.830191
 30
0.0
 10
557.949864
 20
365.830191
 30
0.0
 10
557.949864
 20
367.487863
 30
0.0
 10
556.292192
 20
367.487863
 30
0.0
  0
LWPOLYLINE
  5
135
100
AcDbEntity
  8
Layer_1
 62
3
100
AcDbPolyline
 90
9
 70
0
 10
551.319176
 20
352.568807
 30
0.0
 10
554.634520
 20
359.199495
 30
0.0
 10
551.319176
 20
349.253463
 30
0.0
 10
551.319176
 20
345.938119
 30
0.0
 10
552.976848
 20
344.280447
 30
0.0
 10
554.634520
 20
344.280447
 30
0.0
 10
557.949864
 20
345.938119
 30
0.0
 10
559.607536
 20
347.595791
 30
0.0
 10
562.922880
 20
352.568807
 30
0.0
  0
LWPOLYLINE
  5
136
100
AcDbEntity
  8
Layer_1
 62
3
100
AcDbPolyline
 90
14
 70
0
 10
577.841928
 20
354.226479
 30
0.0
 10
576.184256
 20
357.541823
 30
0.0
 10
572.868912
 20
359.199495
 30
0.0
 10
569.553568
 20
359.199495
 30
0.0
 10
566.238224
 20
357.541823
 30
0.0
 10
564.580552
 20
355.884151
 30
0.0
 10
562.922880
 20
352.568807
 30
0.0
 10
562.922880
 20
349.253463
 30
0.0
 10
564.580552
 20
345.938119
 30
0.0
 10
567.895896
 20
344.280447
 30
0.0
 10
571.211240
 20
344.280447
 30
0.0
 10
574.526584
 20
345.938119
 30
0.0
 10
576.184256
 20
349.253463
 30
0.0
 10
586.130296
 20
379.091567
 30
0.0
  0
LWPOLYLINE
  5
137
100
AcDbEntity
  8
Layer_1
 62
3
100
AcDbPolyline
 90
8
 70
0
 10
579.499600
 20
359.199495
 30
0.0
 10
577.841928
 20
350.911135
 30
0.0
 10
577.841928
 20
345.938119
 30
0.0
 10
579.499600
 20
344.280447
 30
0.0
 10
581.157272
 20
344.280447
 30
0.0
 10
584.472624
 20
345.938119
 30
0.0
 10
586.130296
 20
347.595791
 30
0.0
 10
589.445640
 20
352.568807
 30
0.0
  0
LWPOLYLINE
  5
138
100
AcDbEntity
  8
Layer_1
 62
3
100
AcDbPolyline
 90
23
 70
0
 10
615.968392
 20
352.568807
 30
0.0
 10
622.599080
 20
360.857167
 30
0.0
 10
625.914424
 20
365.830191
 30
0.0
 10
627.572096
 20
369.145535
 30
0.0
 10
629.229768
 20
374.118551
 30
0.0
 10
629.229768
 20
377.433895
 30
0.0
 10
627.572096
 20
379.091567
 30
0.0
 10
624.256752
 20
377.433895
 30
0.0
 10
622.599080
 20
374.118551
 30
0.0
 10
619.283736
 20
360.857167
 30
0.0
 10
614.310720
 20
345.938119
 30
0.0
 10
609.337704
 20
334.334415
 30
0.0
 10
607.680032
 20
329.361399
 30
0.0
 10
607.680032
 20
326.046055
 30
0.0
 10
609.337704
 20
324.388383
 30
0.0
 10
612.653048
 20
326.046055
 30
0.0
 10
614.310720
 20
331.019071
 30
0.0
 10
615.968392
 20
345.938119
 30
0.0
 10
617.626064
 20
344.280447
 30
0.0
 10
620.941408
 20
344.280447
 30
0.0
 10
624.256752
 20
345.938119
 30
0.0
 10
625.914424
 20
347.595791
 30
0.0
 10
629.229768
 20
352.568807
 30
0.0
  0
LWPOLYLINE
  5
139
100
AcDbEntity
  8
Layer_1
 62
3
100
AcDbPolyline
 90
16
 70
0
 10
630.887440
 20
347.595791
 30
0.0
 10
634.202784
 20
349.253463
 30
0.0
 10
635.860456
 20
350.911135
 30
0.0
 10
637.518136
 20
354.226479
 30
0.0
 10
637.518136
 20
357.541823
 30
0.0
 10
635.860456
 20
359.199495
 30
0.0
 10
634.202784
 20
359.199495
 30
0.0
 10
630.887440
 20
357.541823
 30
0.0
 10
629.229768
 20
354.226479
 30
0.0
 10
629.229768
 20
349.253463
 30
0.0
 10
630.887440
 20
345.938119
 30
0.0
 10
634.202784
 20
344.280447
 30
0.0
 10
637.518136
 20
344.280447
 30
0.0
 10
640.833480
 20
345.938119
 30
0.0
 10
642.491152
 20
347.595791
 30
0.0
 10
645.806496
 20
352.568807
 30
0.0
  0
LWPOLYLINE
  5
13a
100
AcDbEntity
  8
Layer_1
 62
3
100
AcDbPolyline
 90
13
 70
0
 10
657.410200
 20
355.884151
 30
0.0
 10
657.410200
 20
357.541823
 30
0.0
 10
655.752528
 20
359.199495
 30
0.0
 10
652.437184
 20
359.199495
 30
0.0
 10
649.121840
 20
357.541823
 30
0.0
 10
647.464168
 20
355.884151
 30
0.0
 10
645.806496
 20
352.568807
 30
0.0
 10
645.806496
 20
349.253463
 30
0.0
 10
647.464168
 20
345.938119
 30
0.0
 10
650.779512
 20
344.280447
 30
0.0
 10
655.752528
 20
344.280447
 30
0.0
 10
660.725544
 20
347.595791
 30
0.0
 10
664.040888
 20
352.568807
 30
0.0
  0
LWPOLYLINE
  5
13b
100
AcDbEntity
  8
Layer_1
 62
3
100
AcDbPolyline
 90
29
 70
0
 10
665.698560
 20
347.595791
 30
0.0
 10
669.013904
 20
349.253463
 30
0.0
 10
670.671576
 20
350.911135
 30
0.0
 10
672.329248
 20
354.226479
 30
0.0
 10
672.329248
 20
357.541823
 30
0.0
 10
670.671576
 20
359.199495
 30
0.0
 10
669.013904
 20
359.199495
 30
0.0
 10
665.698560
 20
357.541823
 30
0.0
 10
664.040888
 20
354.226479
 30
0.0
 10
664.040888
 20
349.253463
 30
0.0
 10
665.698560
 20
345.938119
 30
0.0
 10
669.013904
 20
344.280447
 30
0.0
 10
672.329248
 20
344.280447
 30
0.0
 10
675.644592
 20
345.938119
 30
0.0
 10
677.302264
 20
347.595791
 30
0.0
 10
680.617608
 20
352.568807
 30
0.0
 10
683.932952
 20
357.541823
 30
0.0
 10
685.590624
 20
360.857167
 30
0.0
 10
685.590624
 20
357.541823
 30
0.0
 10
690.563640
 20
357.541823
 30
0.0
 10
692.221312
 20
355.884151
 30
0.0
 10
692.221312
 20
352.568807
 30
0.0
 10
690.563640
 20
347.595791
 30
0.0
 10
690.563640
 20
345.938119
 30
0.0
 10
692.221312
 20
344.280447
 30
0.0
 10
693.878992
 20
344.280447
 30
0.0
 10
697.194336
 20
345.938119
 30
0.0
 10
698.852008
 20
347.595791
 30
0.0
 10
702.167352
 20
352.568807
 30
0.0
  0
LWPOLYLINE
  5
13c
100
AcDbEntity
  8
Layer_1
 62
3
100
AcDbPolyline
 90
5
 70
0
 10
707.140368
 20
367.487863
 30
0.0
 10
707.140368
 20
365.830191
 30
0.0
 10
708.798040
 20
365.830191
 30
0.0
 10
708.798040
 20
367.487863
 30
0.0
 10
707.140368
 20
367.487863
 30
0.0
  0
LWPOLYLINE
  5
13d
100
AcDbEntity
  8
Layer_1
 62
3
100
AcDbPolyline
 90
11
 70
0
 10
702.167352
 20
352.568807
 30
0.0
 10
705.482696
 20
359.199495
 30
0.0
 10
702.167352
 20
349.253463
 30
0.0
 10
702.167352
 20
345.938119
 30
0.0
 10
703.825024
 20
344.280447
 30
0.0
 10
705.482696
 20
344.280447
 30
0.0
 10
708.798040
 20
345.938119
 30
0.0
 10
710.455712
 20
347.595791
 30
0.0
 10
713.771056
 20
352.568807
 30
0.0
 10
717.086400
 20
357.541823
 30
0.0
 10
720.401744
 20
364.172519
 30
0.0
  0
LWPOLYLINE
  5
13e
100
AcDbEntity
  8
Layer_1
 62
3
100
AcDbPolyline
 90
8
 70
0
 10
725.374760
 20
379.091567
 30
0.0
 10
715.428728
 20
349.253463
 30
0.0
 10
715.428728
 20
345.938119
 30
0.0
 10
717.086400
 20
344.280447
 30
0.0
 10
720.401744
 20
344.280447
 30
0.0
 10
723.717088
 20
345.938119
 30
0.0
 10
725.374760
 20
347.595791
 30
0.0
 10
728.690104
 20
352.568807
 30
0.0
  0
LWPOLYLINE
  5
13f
100
AcDbEntity
  8
Layer_1
 62
3
100
AcDbPolyline
 90
2
 70
0
 10
715.428728
 20
365.830191
 30
0.0
 10
727.032432
 20
365.830191
 30
0.0
  0
LWPOLYLINE
  5
140
100
AcDbEntity
  8
Layer_1
 62
3
100
AcDbPolyline
 90
5
 70
0
 10
736.978464
 20
347.595791
 30
0.0
 10
735.320792
 20
345.938119
 30
0.0
 10
736.978464
 20
344.280447
 30
0.0
 10
738.636136
 20
345.938119
 30
0.0
 10
736.978464
 20
347.595791
 30
0.0
  0
LWPOLYLINE
  5
141
100
AcDbEntity
  8
Layer_1
 62
7
100
AcDbPolyline
 90
5
 70
1
 10
408.704248
 20
559.864111
 30
0.0
 10
769.847096
 20
559.864111
 30
0.0
 10
769.847096
 20
43.292679
 30
0.0
 10
408.704248
 20
43.292679
 30
0.0
 10
408.704248
 20
559.864111
 30
0.0
  0
LWPOLYLINE
  5
142
100
AcDbEntity
  8
Layer_1
 62
5
100
AcDbPolyline
 90
5
 70
1
 10
429.343600
 20
545.641527
 30
0.0
 10
754.420288
 20
545.641527
 30
0.0
 10
754.420288
 20
58.306959
 30
0.0
 10
429.343600
 20
58.306959
 30
0.0
 10
429.343600
 20
545.641527
 30
0.0
  0
ENDSEC
  0
SECTION
  2
OBJECTS
  0
DICTIONARY
  5
C
330
0
100
AcDbDictionary
  3
ACAD_GROUP
350
D
  3
ACAD_MLINESTYLE
350
17
  0
DICTIONARY
  5
D
330
C
100
AcDbDictionary
  0
DICTIONARY
  5
1A
330
C
100
AcDbDictionary
  0
DICTIONARY
  5
17
330
C
100
AcDbDictionary
  3
STANDARD
350
18
  0
DICTIONARY
  5
19
330
C
100
AcDbDictionary
  0
ENDSEC
  0
EOF
