0
SECTION
2
HEADER
9
$INSUNITS
70
4
9
$ACADVER
1
AC1014
9
$HANDSEED
5
FFFF
0
ENDSEC
0
SECTION
2
TABLES
0
TABLE
2
VPORT
5
8
100
AcDbSymbolTable
0
ENDTAB
0
TABLE
2
LTYPE
5
5
100
AcDbSymbolTable
0
LTYPE
5
14
100
AcDbSymbolTableRecord
100
AcDbLinetypeTableRecord
2
BYBLOCK
70
0
0
LTYPE
5
15
100
AcDbSymbolTableRecord
100
AcDbLinetypeTableRecord
2
BYLAYER
70
0
0
ENDTAB
0
TABLE
2
LAYER
5
2
100
AcDbSymbolTable
70
2
0
LAYER
5
50
100
AcDbSymbolTableRecord
100
AcDbLayerTableRecord
2
0
70
0
6
CONTINUOUS
0
ENDTAB
0
TABLE
2
STYLE
5
3
100
AcDbSymbolTable
70
1
0
STYLE
5
11
100
AcDbSymbolTableRecord
100
AcDbTextStyleTableRecord
2
STANDARD
70
0
0
ENDTAB
0
TABLE
2
VIEW
5
6
100
AcDbSymbolTable
70
0
0
ENDTAB
0
TABLE
2
UCS
5
7
100
AcDbSymbolTable
70
0
0
ENDTAB
0
TABLE
2
APPID
5
9
100
AcDbSymbolTable
70
2
0
APPID
5
12
100
AcDbSymbolTableRecord
100
AcDbRegAppTableRecord
2
ACAD
70
0
0
ENDTAB
0
TABLE
2
DIMSTYLE
5
A
100
AcDbSymbolTable
70
1
0
ENDTAB
0
TABLE
2
BLOCK_RECORD
5
1
100
AcDbSymbolTable
70
1
0
BLOCK_RECORD
5
1F
100
AcDbSymbolTableRecord
100
AcDbBlockTableRecord
2
*MODEL_SPACE
0
BLOCK_RECORD
5
1B
100
AcDbSymbolTableRecord
100
AcDbBlockTableRecord
2
*PAPER_SPACE
0
ENDTAB
0
ENDSEC
0
SECTION
2
BLOCKS
0
BLOCK
5
20
100
AcDbEntity
100
AcDbBlockBegin
2
*MODEL_SPACE
0
ENDBLK
5
21
100
AcDbEntity
100
AcDbBlockEnd
0
BLOCK
5
1C
100
AcDbEntity
100
AcDbBlockBegin
2
*PAPER_SPACE
0
ENDBLK
5
1D
100
AcDbEntity
100
AcDbBlockEnd
0
ENDSEC
0
SECTION
2
ENTITIES
0
LWPOLYLINE
5
100
100
AcDbEntity
8
0
100
AcDbPolyline
90
52
70
1
43
0.0
10
35
20
30
10
50
20
30
10
50
20
27
10
65
20
27
10
65
20
30.000000447034836
10
80.000001192092896
20
30.000000447034836
10
80.000001192092896
20
15
10
77.000001192092896
20
15
10
77.000001192092896
20
5
10
80
20
5
10
80
20
-5
10
77.000001192092896
20
-5
10
77.000001192092896
20
-15
10
80
20
-15
10
80
20
-30
10
65
20
-30
10
65
20
-27
10
50
20
-27
10
50
20
-30
10
35
20
-30
10
35
20
-27
10
20
20
-27
10
20
20
-30
10
5
20
-30
10
5
20
-27
10
-10
20
-27
10
-10
20
-30
10
-25
20
-30
10
-25
20
-27
10
-40
20
-27
10
-40
20
-30
10
-55
20
-30
10
-55
20
-15
10
-52
20
-15
10
-52
20
-5
10
-55
20
-5
10
-55
20
5
10
-52
20
5
10
-52
20
15
10
-55
20
15
10
-55
20
30
10
-40
20
30
10
-40
20
27
10
-25
20
27
10
-25
20
30
10
-10
20
30
10
-10
20
27
10
5
20
27
10
5
20
30
10
20
20
30
10
20
20
27
10
35
20
27
0
LWPOLYLINE
5
101
100
AcDbEntity
8
0
100
AcDbPolyline
90
52
70
1
43
0.0
10
65
20
-35
10
80
20
-35
10
80
20
-50.00000074505806
10
76.999999180436134
20
-50.00000074505806
10
76.999999180436134
20
-60.000000894069672
10
80.000001192092896
20
-60.000000894069672
10
80.000001192092896
20
-70.000001043081284
10
76.999999180436134
20
-70.000001043081284
10
76.999999180436134
20
-80.000001192092896
10
79.999999180436134
20
-80.000001192092896
10
79.999999180436134
20
-95.000001415610313
10
64.999999180436134
20
-95.000001415610313
10
64.999999180436134
20
-92.00000137090683
10
49.999999180436134
20
-92.00000137090683
10
49.999999180436134
20
-95.000001415610313
10
34.999999180436134
20
-95.000001415610313
10
34.999999180436134
20
-92.00000137090683
10
19.999999180436134
20
-92.00000137090683
10
19.999999180436134
20
-95.000001415610313
10
4.9999991804361352
20
-95.000001415610313
10
4.9999991804361343
20
-92.00000137090683
10
-10.000000819563866
20
-92.00000137090683
10
-10.000000819563866
20
-95.000001415610313
10
-25.000000819563866
20
-95.000001415610313
10
-25.000000819563866
20
-92.00000137090683
10
-40.000000819563866
20
-92.00000137090683
10
-40.000000819563866
20
-95.000001415610313
10
-55.000000819563866
20
-95.000001415610313
10
-55.000000819563866
20
-80.000001192092896
10
-52.000000774860382
20
-80.000001192092896
10
-52.000000774860382
20
-70.000001043081284
10
-55.000000819563866
20
-70.000001043081284
10
-55.000000819563866
20
-60.000000894069672
10
-52.000000774860382
20
-60.000000894069672
10
-52.000000774860382
20
-50.00000074505806
10
-55.000000819563866
20
-50.00000074505806
10
-55.000000819563866
20
-35.000000521540642
10
-40.000000596046448
20
-35.000000521540642
10
-40.000000596046448
20
-38.000000566244125
10
-25.00000037252903
20
-38.000000566244125
10
-25.00000037252903
20
-35.000000521540642
10
-10.000000149011612
20
-35.000000521540642
10
-10.000000149011612
20
-38.000000566244125
10
5.000000074505806
20
-38.000000566244125
10
5.000000074505806
20
-35
10
20.000000298023224
20
-35
10
20.000000298023224
20
-38.000000566244125
10
35.000000521540642
20
-38.000000566244125
10
35.000000521540642
20
-35
10
50.00000074505806
20
-35
10
50.00000074505806
20
-38.000000566244125
10
65
20
-38.000000566244125
0
LINE
5
102
100
AcDbEntity
8
0
100
AcDbLine
10
-55.000000819563866
20
-100.00000149011612
30
0
11
-40.000000596046448
21
-100.00000149011612
31
0
0
LINE
5
103
100
AcDbEntity
8
0
100
AcDbLine
10
-40.000000596046448
20
-100.00000149011612
30
0
11
-40.000000596046448
21
-97.000001445412636
31
0
0
LINE
5
104
100
AcDbEntity
8
0
100
AcDbLine
10
-40.000000596046448
20
-97.000001445412636
30
0
11
-25.00000037252903
21
-97.000001445412636
31
0
0
LINE
5
105
100
AcDbEntity
8
0
100
AcDbLine
10
-25.00000037252903
20
-97.000001445412636
30
0
11
-25.00000037252903
21
-100.00000149011612
31
0
0
LINE
5
106
100
AcDbEntity
8
0
100
AcDbLine
10
-25.00000037252903
20
-100.00000149011612
30
0
11
-10.000000149011612
21
-100.00000149011612
31
0
0
LINE
5
107
100
AcDbEntity
8
0
100
AcDbLine
10
-10.000000149011612
20
-100.00000149011612
30
0
11
-10.000000149011612
21
-97.000001445412636
31
0
0
LINE
5
108
100
AcDbEntity
8
0
100
AcDbLine
10
-10.000000149011612
20
-97.000001445412636
30
0
11
5.000000074505806
21
-97.000001445412636
31
0
0
LINE
5
109
100
AcDbEntity
8
0
100
AcDbLine
10
5.000000074505806
20
-97.000001445412636
30
0
11
5.000000074505806
21
-100.00000149011612
31
0
0
LINE
5
110
100
AcDbEntity
8
0
100
AcDbLine
10
5.000000074505806
20
-100.00000149011612
30
0
11
20.000000298023224
21
-100.00000149011612
31
0
0
LINE
5
111
100
AcDbEntity
8
0
100
AcDbLine
10
20.000000298023224
20
-100.00000149011612
30
0
11
20.000000298023224
21
-97.000001445412636
31
0
0
LINE
5
112
100
AcDbEntity
8
0
100
AcDbLine
10
20.000000298023224
20
-97.000001445412636
30
0
11
35.000000521540642
21
-97.000001445412636
31
0
0
LINE
5
113
100
AcDbEntity
8
0
100
AcDbLine
10
35.000000521540642
20
-97.000001445412636
30
0
11
35.000000521540642
21
-100.00000149011612
31
0
0
LINE
5
114
100
AcDbEntity
8
0
100
AcDbLine
10
35.000000521540642
20
-100.00000149011612
30
0
11
50.00000074505806
21
-100.00000149011612
31
0
0
LINE
5
115
100
AcDbEntity
8
0
100
AcDbLine
10
50.00000074505806
20
-100.00000149011612
30
0
11
50.00000074505806
21
-97.000001445412636
31
0
0
LINE
5
116
100
AcDbEntity
8
0
100
AcDbLine
10
50.00000074505806
20
-97.000001445412636
30
0
11
65.000000968575478
21
-97.000001445412636
31
0
0
LINE
5
117
100
AcDbEntity
8
0
100
AcDbLine
10
65.000000968575478
20
-97.000001445412636
30
0
11
65.000000968575478
21
-100.00000149011612
31
0
0
LINE
5
118
100
AcDbEntity
8
0
100
AcDbLine
10
65.000000968575478
20
-100.00000149011612
30
0
11
80.000001192092896
21
-100.00000149011612
31
0
0
LINE
5
119
100
AcDbEntity
8
0
100
AcDbLine
10
80.00000037252903
20
-115.00000335276127
30
0
11
65.000000149011612
21
-115.00000335276127
31
0
0
LINE
5
120
100
AcDbEntity
8
0
100
AcDbLine
10
65.000000149011612
20
-115.00000335276127
30
0
11
65.000000149011612
21
-118.00000339746475
31
0
0
LINE
5
121
100
AcDbEntity
8
0
100
AcDbLine
10
65.000000149011612
20
-118.00000339746475
30
0
11
49.999999925494194
21
-118.00000339746475
31
0
0
LINE
5
122
100
AcDbEntity
8
0
100
AcDbLine
10
49.999999925494194
20
-118.00000339746475
30
0
11
49.999999925494194
21
-115.00000335276127
31
0
0
LINE
5
123
100
AcDbEntity
8
0
100
AcDbLine
10
49.999999925494194
20
-115.00000335276127
30
0
11
34.999999925494194
21
-115.00000335276127
31
0
0
LINE
5
124
100
AcDbEntity
8
0
100
AcDbLine
10
34.999999925494194
20
-115.00000335276127
30
0
11
34.999999925494187
21
-118.00000339746475
31
0
0
LINE
5
125
100
AcDbEntity
8
0
100
AcDbLine
10
34.999999925494187
20
-118.00000339746475
30
0
11
19.99999992549419
21
-118.00000339746475
31
0
0
LINE
5
126
100
AcDbEntity
8
0
100
AcDbLine
10
19.99999992549419
20
-118.00000339746475
30
0
11
19.99999992549419
21
-115.00000335276127
31
0
0
LINE
5
127
100
AcDbEntity
8
0
100
AcDbLine
10
19.99999992549419
20
-115.00000335276127
30
0
11
4.9999999254941896
21
-115.00000335276127
31
0
0
LINE
5
128
100
AcDbEntity
8
0
100
AcDbLine
10
4.9999999254941896
20
-115.00000335276127
30
0
11
4.9999999254941896
21
-118.00000339746475
31
0
0
LINE
5
129
100
AcDbEntity
8
0
100
AcDbLine
10
4.9999999254941896
20
-118.00000339746475
30
0
11
-10.00000007450581
21
-118.00000339746475
31
0
0
LINE
5
130
100
AcDbEntity
8
0
100
AcDbLine
10
-10.00000007450581
20
-118.00000339746475
30
0
11
-10.00000007450581
21
-115.00000335276127
31
0
0
LINE
5
131
100
AcDbEntity
8
0
100
AcDbLine
10
-10.00000007450581
20
-115.00000335276127
30
0
11
-25.00000007450581
21
-115.00000335276127
31
0
0
LINE
5
132
100
AcDbEntity
8
0
100
AcDbLine
10
-25.00000007450581
20
-115.00000335276127
30
0
11
-25.000000074505813
21
-118.00000339746475
31
0
0
LINE
5
133
100
AcDbEntity
8
0
100
AcDbLine
10
-25.000000074505813
20
-118.00000339746475
30
0
11
-40.000000074505813
21
-118.00000339746475
31
0
0
LINE
5
134
100
AcDbEntity
8
0
100
AcDbLine
10
-40.000000074505813
20
-118.00000339746475
30
0
11
-40.00000007450582
21
-115.00000335276127
31
0
0
LINE
5
135
100
AcDbEntity
8
0
100
AcDbLine
10
-40.00000007450582
20
-115.00000335276127
30
0
11
-55.000000819563866
21
-115.00000149011612
31
0
0
LWPOLYLINE
5
136
100
AcDbEntity
8
0
100
AcDbPolyline
90
4
70
1
43
0.0
10
65.000001192092896
20
22
10
-39.999998807907104
20
22
10
-39.999998807907104
20
16
10
65.000001192092896
20
16
0
CIRCLE
5
137
100
AcDbEntity
8
0
100
AcDbCircle
10
-2.0000000000000018
20
-8
30
0
40
3.9999999999999996
0
LWPOLYLINE
5
138
100
AcDbEntity
8
0
100
AcDbPolyline
90
20
70
1
43
0.0
10
84.999998137354851
20
14.999999999999968
10
84.999998137354851
20
26.999999999999972
10
99.999998137354851
20
26.999999999999972
10
99.999998137354851
20
14.999999999999968
10
103.13886799198556
20
14.999999999999972
10
103.13886799198556
20
4.9999999999999751
10
99.999998137354851
20
4.9999999999999751
10
99.999998137354851
20
-5.0000000000000178
10
103.0000002682209
20
-5.0000000000000178
10
103.0000002682209
20
-15.000000223517427
10
99.999998137354851
20
-15.000000000000014
10
99.999997243285833
20
-26.999999999999986
10
85
20
-27.000000402331352
10
85
20
-15.000000000000014
10
81.999998137354851
20
-15.000000000000014
10
81.999998137354851
20
-5.0000000000000187
10
84.999998137354851
20
-5.0000000000000187
10
84.999998137354851
20
4.9999999999999742
10
81.999998137354851
20
4.9999999999999742
10
81.999998137354851
20
14.999999999999968
0
LWPOLYLINE
5
139
100
AcDbEntity
8
0
100
AcDbPolyline
90
20
70
1
43
0.0
10
99.999997243285833
20
-92.999999999999972
10
85
20
-93.000000402331352
10
85
20
-81.000000000000014
10
81.999998137354851
20
-81.000000000000014
10
81.999998137354851
20
-71.000000000000014
10
84.999998137354851
20
-71.000000000000014
10
84.999998137354851
20
-61.000000000000021
10
81.999998137354851
20
-61.000000000000021
10
81.999998137354851
20
-51.000000000000028
10
84.999998137354851
20
-51.000000000000028
10
84.999998137354851
20
-39.000000000000028
10
99.999998137354851
20
-39.000000000000028
10
99.999998137354851
20
-51.000000000000028
10
103.13886799198556
20
-51.000000000000021
10
103.13886799198556
20
-61.000000000000021
10
99.999998137354851
20
-61.000000000000021
10
99.999998137354851
20
-71.000000000000014
10
103.0000002682209
20
-71.000000000000014
10
103.0000002682209
20
-81.000000223517432
10
99.999998137354851
20
-81.000000000000014
0
LWPOLYLINE
5
140
100
AcDbEntity
8
0
100
AcDbPolyline
90
4
70
1
43
0.0
10
87.500004023309089
20
-68.000000976026286
10
97.5000041723207
20
-68.000000976026286
10
97.5000041723207
20
-90.000001303851832
10
87.500004023309089
20
-90.000001303851832
0
LINE
5
141
100
AcDbEntity
8
0
100
AcDbLine
10
80.000001192092896
20
-100.00000149011612
30
0
11
80.000001192092896
21
-115.00000149011611
31
0
0
LINE
5
142
100
AcDbEntity
8
0
100
AcDbLine
10
-55.000000819563866
20
-100.00000149011612
30
0
11
-55.000000819563866
21
-115.00000149011612
31
0
0
LINE
5
143
100
AcDbEntity
8
0
100
AcDbLine
10
4.9999999254941896
20
-142.00000339746475
30
0
11
-10.00000007450581
21
-142.00000339746475
31
0
0
LINE
5
144
100
AcDbEntity
8
0
100
AcDbLine
10
50.00000074505806
20
-121.00000144541264
30
0
11
65.000000968575478
21
-121.00000144541264
31
0
0
LINE
5
145
100
AcDbEntity
8
0
100
AcDbLine
10
65.000000968575478
20
-121.00000144541264
30
0
11
65.000000968575478
21
-124.00000149011612
31
0
0
LINE
5
146
100
AcDbEntity
8
0
100
AcDbLine
10
65.000000968575478
20
-124.00000149011612
30
0
11
80.000001192092896
21
-124.00000149011612
31
0
0
LINE
5
147
100
AcDbEntity
8
0
100
AcDbLine
10
80.00000037252903
20
-139.00000335276127
30
0
11
65.000000149011612
21
-139.00000335276127
31
0
0
LINE
5
148
100
AcDbEntity
8
0
100
AcDbLine
10
65.000000149011612
20
-139.00000335276127
30
0
11
65.000000149011612
21
-142.00000339746475
31
0
0
LINE
5
149
100
AcDbEntity
8
0
100
AcDbLine
10
65.000000149011612
20
-142.00000339746475
30
0
11
49.999999925494194
21
-142.00000339746475
31
0
0
LINE
5
150
100
AcDbEntity
8
0
100
AcDbLine
10
80.000001192092896
20
-124.00000149011612
30
0
11
80.000001192092896
21
-139.00000149011612
31
0
0
LINE
5
151
100
AcDbEntity
8
0
100
AcDbLine
10
-25.00000007450581
20
-139.00000335276127
30
0
11
-25.000000074505813
21
-142.00000339746475
31
0
0
LINE
5
152
100
AcDbEntity
8
0
100
AcDbLine
10
-25.000000074505813
20
-142.00000339746475
30
0
11
-40.000000074505813
21
-142.00000339746475
31
0
0
LINE
5
153
100
AcDbEntity
8
0
100
AcDbLine
10
4.9999999254941896
20
-139.00000335276127
30
0
11
4.9999999254941896
21
-142.00000339746475
31
0
0
LINE
5
154
100
AcDbEntity
8
0
100
AcDbLine
10
19.99999992549419
20
-139.00000335276127
30
0
11
4.9999999254941896
21
-139.00000335276127
31
0
0
LINE
5
155
100
AcDbEntity
8
0
100
AcDbLine
10
34.999999925494187
20
-142.00000339746475
30
0
11
19.99999992549419
21
-142.00000339746475
31
0
0
LINE
5
156
100
AcDbEntity
8
0
100
AcDbLine
10
-55.000000819563866
20
-124.00000149011612
30
0
11
-55.000000819563866
21
-139.00000149011612
31
0
0
LINE
5
157
100
AcDbEntity
8
0
100
AcDbLine
10
19.99999992549419
20
-142.00000339746475
30
0
11
19.99999992549419
21
-139.00000335276127
31
0
0
LINE
5
158
100
AcDbEntity
8
0
100
AcDbLine
10
-10.00000007450581
20
-139.00000335276127
30
0
11
-25.00000007450581
21
-139.00000335276127
31
0
0
LINE
5
159
100
AcDbEntity
8
0
100
AcDbLine
10
34.999999925494194
20
-139.00000335276127
30
0
11
34.999999925494187
21
-142.00000339746475
31
0
0
LINE
5
160
100
AcDbEntity
8
0
100
AcDbLine
10
50.00000074505806
20
-124.00000149011612
30
0
11
50.00000074505806
21
-121.00000144541264
31
0
0
LINE
5
161
100
AcDbEntity
8
0
100
AcDbLine
10
49.999999925494194
20
-142.00000339746475
30
0
11
49.999999925494194
21
-139.00000335276127
31
0
0
LINE
5
162
100
AcDbEntity
8
0
100
AcDbLine
10
-25.00000037252903
20
-124.00000149011612
30
0
11
-10.000000149011612
21
-124.00000149011612
31
0
0
LINE
5
163
100
AcDbEntity
8
0
100
AcDbLine
10
-25.00000037252903
20
-121.00000144541264
30
0
11
-25.00000037252903
21
-124.00000149011612
31
0
0
LINE
5
164
100
AcDbEntity
8
0
100
AcDbLine
10
5.000000074505806
20
-124.00000149011612
30
0
11
20.000000298023224
21
-124.00000149011612
31
0
0
LINE
5
165
100
AcDbEntity
8
0
100
AcDbLine
10
20.000000298023224
20
-124.00000149011612
30
0
11
20.000000298023224
21
-121.00000144541264
31
0
0
LINE
5
166
100
AcDbEntity
8
0
100
AcDbLine
10
35.000000521540642
20
-124.00000149011612
30
0
11
50.00000074505806
21
-124.00000149011612
31
0
0
LINE
5
167
100
AcDbEntity
8
0
100
AcDbLine
10
-40.000000074505813
20
-142.00000339746475
30
0
11
-40.00000007450582
21
-139.00000335276127
31
0
0
LINE
5
168
100
AcDbEntity
8
0
100
AcDbLine
10
-55.000000819563866
20
-124.00000149011612
30
0
11
-40.000000596046448
21
-124.00000149011612
31
0
0
LINE
5
169
100
AcDbEntity
8
0
100
AcDbLine
10
20.000000298023224
20
-121.00000144541264
30
0
11
35.000000521540642
21
-121.00000144541264
31
0
0
LINE
5
170
100
AcDbEntity
8
0
100
AcDbLine
10
-10.00000007450581
20
-142.00000339746475
30
0
11
-10.00000007450581
21
-139.00000335276127
31
0
0
LINE
5
171
100
AcDbEntity
8
0
100
AcDbLine
10
35.000000521540642
20
-121.00000144541264
30
0
11
35.000000521540642
21
-124.00000149011612
31
0
0
LINE
5
172
100
AcDbEntity
8
0
100
AcDbLine
10
-10.000000149011612
20
-121.00000144541264
30
0
11
5.000000074505806
21
-121.00000144541264
31
0
0
LINE
5
173
100
AcDbEntity
8
0
100
AcDbLine
10
-40.000000596046448
20
-121.00000144541264
30
0
11
-25.00000037252903
21
-121.00000144541264
31
0
0
LINE
5
174
100
AcDbEntity
8
0
100
AcDbLine
10
-10.000000149011612
20
-124.00000149011612
30
0
11
-10.000000149011612
21
-121.00000144541264
31
0
0
LINE
5
175
100
AcDbEntity
8
0
100
AcDbLine
10
49.999999925494194
20
-139.00000335276127
30
0
11
34.999999925494194
21
-139.00000335276127
31
0
0
LINE
5
176
100
AcDbEntity
8
0
100
AcDbLine
10
-40.00000007450582
20
-139.00000335276127
30
0
11
-55.000000819563866
21
-139.00000149011612
31
0
0
LINE
5
177
100
AcDbEntity
8
0
100
AcDbLine
10
-40.000000596046448
20
-124.00000149011612
30
0
11
-40.000000596046448
21
-121.00000144541264
31
0
0
LINE
5
178
100
AcDbEntity
8
0
100
AcDbLine
10
5.000000074505806
20
-121.00000144541264
30
0
11
5.000000074505806
21
-124.00000149011612
31
0
0
ENDSEC
0
SECTION
2
OBJECTS
0
DICTIONARY
5
C
100
AcDbDictionary
3
ACAD_GROUP
350
D
3
ACAD_MLINESTYLE
350
17
0
DICTIONARY
5
D
100
AcDbDictionary
0
DICTIONARY
5
1A
330
C
100
AcDbDictionary
0
DICTIONARY
5
17
100
AcDbDictionary
0
ENDSEC
0
EOF
