  0
SECTION
  2
HEADER
  9
$ACADVER
  1
AC1015
  9
$ACADMAINTVER
 70
     6
  9
$DWGCODEPAGE
  3
ASCII
  9
$INSBASE
 10
0.0
 20
0.0
 30
0.0
  9
$EXTMIN
 10
1.000000000000000E+20
 20
1.000000000000000E+20
 30
1.000000000000000E+20
  9
$EXTMAX
 10
-1.000000000000000E+20
 20
-1.000000000000000E+20
 30
-1.000000000000000E+20
  9
$LIMMIN
 10
0.0
 20
0.0
  9
$LIMMAX
 10
12.0
 20
9.0
  9
$ORTHOMODE
 70
     0
  9
$REGENMODE
 70
     1
  9
$FILLMODE
 70
     1
  9
$QTEXTMODE
 70
     0
  9
$MIRRTEXT
 70
     1
  9
$LTSCALE
 40
1.0
  9
$ATTMODE
 70
     1
  9
$TEXTSIZE
 40
0.2
  9
$TRACEWID
 40
0.05
  9
$TEXTSTYLE
  7
Standard
  9
$CLAYER
  8
0
  9
$CELTYPE
  6
ByLayer
  9
$CECOLOR
 62
   256
  9
$CELTSCALE
 40
1.0
  9
$DISPSILH
 70
     0
  9
$DIMSCALE
 40
1.0
  9
$DIMASZ
 40
0.18
  9
$DIMEXO
 40
0.0625
  9
$DIMDLI
 40
0.38
  9
$DIMRND
 40
0.0
  9
$DIMDLE
 40
0.0
  9
$DIMEXE
 40
0.18
  9
$DIMTP
 40
0.0
  9
$DIMTM
 40
0.0
  9
$DIMTXT
 40
0.18
  9
$DIMCEN
 40
0.09
  9
$DIMTSZ
 40
0.0
  9
$DIMTOL
 70
     0
  9
$DIMLIM
 70
     0
  9
$DIMTIH
 70
     1
  9
$DIMTOH
 70
     1
  9
$DIMSE1
 70
     0
  9
$DIMSE2
 70
     0
  9
$DIMTAD
 70
     0
  9
$DIMZIN
 70
     0
  9
$DIMBLK
  1

  9
$DIMASO
 70
     1
  9
$DIMSHO
 70
     1
  9
$DIMPOST
  1

  9
$DIMAPOST
  1

  9
$DIMALT
 70
     0
  9
$DIMALTD
 70
     2
  9
$DIMALTF
 40
25.4
  9
$DIMLFAC
 40
1.0
  9
$DIMTOFL
 70
     0
  9
$DIMTVP
 40
0.0
  9
$DIMTIX
 70
     0
  9
$DIMSOXD
 70
     0
  9
$DIMSAH
 70
     0
  9
$DIMBLK1
  1

  9
$DIMBLK2
  1

  9
$DIMSTYLE
  2
Standard
  9
$DIMCLRD
 70
     0
  9
$DIMCLRE
 70
     0
  9
$DIMCLRT
 70
     0
  9
$DIMTFAC
 40
1.0
  9
$DIMGAP
 40
0.09
  9
$DIMJUST
 70
     0
  9
$DIMSD1
 70
     0
  9
$DIMSD2
 70
     0
  9
$DIMTOLJ
 70
     1
  9
$DIMTZIN
 70
     0
  9
$DIMALTZ
 70
     0
  9
$DIMALTTZ
 70
     0
  9
$DIMUPT
 70
     0
  9
$DIMDEC
 70
     4
  9
$DIMTDEC
 70
     4
  9
$DIMALTU
 70
     2
  9
$DIMALTTD
 70
     2
  9
$DIMTXSTY
  7
Standard
  9
$DIMAUNIT
 70
     0
  9
$DIMADEC
 70
     0
  9
$DIMALTRND
 40
0.0
  9
$DIMAZIN
 70
     0
  9
$DIMDSEP
 70
    46
  9
$DIMATFIT
 70
     3
  9
$DIMFRAC
 70
     0
  9
$DIMLDRBLK
  1

  9
$DIMLUNIT
 70
     2
  9
$DIMLWD
 70
    -2
  9
$DIMLWE
 70
    -2
  9
$DIMTMOVE
 70
     0
  9
$LUNITS
 70
     2
  9
$LUPREC
 70
     4
  9
$SKETCHINC
 40
0.1
  9
$FILLETRAD
 40
0.5
  9
$AUNITS
 70
     0
  9
$AUPREC
 70
     0
  9
$MENU
  1
.
  9
$ELEVATION
 40
0.0
  9
$PELEVATION
 40
0.0
  9
$THICKNESS
 40
0.0
  9
$LIMCHECK
 70
     0
  9
$CHAMFERA
 40
0.5
  9
$CHAMFERB
 40
0.5
  9
$CHAMFERC
 40
1.0
  9
$CHAMFERD
 40
0.0
  9
$SKPOLY
 70
     0
  9
$TDCREATE
 40
2454937.629525463
  9
$TDUCREATE
 40
2454937.837858796
  9
$TDUPDATE
 40
2454937.629525475
  9
$TDUUPDATE
 40
2454937.837858808
  9
$TDINDWG
 40
0.0000000116
  9
$TDUSRTIMER
 40
0.0000000116
  9
$USRTIMER
 70
     1
  9
$ANGBASE
 50
0.0
  9
$ANGDIR
 70
     0
  9
$PDMODE
 70
     0
  9
$PDSIZE
 40
0.0
  9
$PLINEWID
 40
0.0
  9
$SPLFRAME
 70
     0
  9
$SPLINETYPE
 70
     6
  9
$SPLINESEGS
 70
     8
  9
$HANDSEED
  5
CD
  9
$SURFTAB1
 70
     6
  9
$SURFTAB2
 70
     6
  9
$SURFTYPE
 70
     6
  9
$SURFU
 70
     6
  9
$SURFV
 70
     6
  9
$UCSBASE
  2

  9
$UCSNAME
  2

  9
$UCSORG
 10
0.0
 20
0.0
 30
0.0
  9
$UCSXDIR
 10
1.0
 20
0.0
 30
0.0
  9
$UCSYDIR
 10
0.0
 20
1.0
 30
0.0
  9
$UCSORTHOREF
  2

  9
$UCSORTHOVIEW
 70
     0
  9
$UCSORGTOP
 10
0.0
 20
0.0
 30
0.0
  9
$UCSORGBOTTOM
 10
0.0
 20
0.0
 30
0.0
  9
$UCSORGLEFT
 10
0.0
 20
0.0
 30
0.0
  9
$UCSORGRIGHT
 10
0.0
 20
0.0
 30
0.0
  9
$UCSORGFRONT
 10
0.0
 20
0.0
 30
0.0
  9
$UCSORGBACK
 10
0.0
 20
0.0
 30
0.0
  9
$PUCSBASE
  2

  9
$PUCSNAME
  2

  9
$PUCSORG
 10
0.0
 20
0.0
 30
0.0
  9
$PUCSXDIR
 10
1.0
 20
0.0
 30
0.0
  9
$PUCSYDIR
 10
0.0
 20
1.0
 30
0.0
  9
$PUCSORTHOREF
  2

  9
$PUCSORTHOVIEW
 70
     0
  9
$PUCSORGTOP
 10
0.0
 20
0.0
 30
0.0
  9
$PUCSORGBOTTOM
 10
0.0
 20
0.0
 30
0.0
  9
$PUCSORGLEFT
 10
0.0
 20
0.0
 30
0.0
  9
$PUCSORGRIGHT
 10
0.0
 20
0.0
 30
0.0
  9
$PUCSORGFRONT
 10
0.0
 20
0.0
 30
0.0
  9
$PUCSORGBACK
 10
0.0
 20
0.0
 30
0.0
  9
$USERI1
 70
     0
  9
$USERI2
 70
     0
  9
$USERI3
 70
     0
  9
$USERI4
 70
     0
  9
$USERI5
 70
     0
  9
$USERR1
 40
0.0
  9
$USERR2
 40
0.0
  9
$USERR3
 40
0.0
  9
$USERR4
 40
0.0
  9
$USERR5
 40
0.0
  9
$WORLDVIEW
 70
     1
  9
$SHADEDGE
 70
     3
  9
$SHADEDIF
 70
    70
  9
$TILEMODE
 70
     1
  9
$MAXACTVP
 70
    64
  9
$PINSBASE
 10
0.0
 20
0.0
 30
0.0
  9
$PLIMCHECK
 70
     0
  9
$PEXTMIN
 10
1.000000000000000E+20
 20
1.000000000000000E+20
 30
1.000000000000000E+20
  9
$PEXTMAX
 10
-1.000000000000000E+20
 20
-1.000000000000000E+20
 30
-1.000000000000000E+20
  9
$PLIMMIN
 10
0.0
 20
0.0
  9
$PLIMMAX
 10
12.0
 20
9.0
  9
$UNITMODE
 70
     0
  9
$VISRETAIN
 70
     1
  9
$PLINEGEN
 70
     0
  9
$PSLTSCALE
 70
     1
  9
$TREEDEPTH
 70
  3020
  9
$CMLSTYLE
  2
Standard
  9
$CMLJUST
 70
     0
  9
$CMLSCALE
 40
1.0
  9
$PROXYGRAPHICS
 70
     1
  9
$MEASUREMENT
 70
     0
  9
$CELWEIGHT
370
    -1
  9
$ENDCAPS
280
     0
  9
$JOINSTYLE
280
     0
  9
$LWDISPLAY
290
     1
  9
$INSUNITS
 70
     1
  9
$HYPERLINKBASE
  1

  9
$STYLESHEET
  1

  9
$XEDIT
290
     1
  9
$CEPSNTYPE
380
     0
  9
$PSTYLEMODE
290
     1
  9
$FINGERPRINTGUID
  2
{2379089F-C188-C722-ECA2-136FD85DCD9B}
  9
$VERSIONGUID
  2
{FAEB1C32-E019-11D5-929B-00C0DF256EC4}
  9
$EXTNAMES
290
     1
  9
$PSVPSCALE
 40
0.0
  9
$OLESTARTUP
290
     0
  0
ENDSEC
  0
SECTION
  2
CLASSES
  0
CLASS
  1
ACDBDICTIONARYWDFLT
  2
AcDbDictionaryWithDefault
  3
ObjectDBX Classes
 90
        0
280
     0
281
     0
  0
CLASS
  1
VISUALSTYLE
  2
AcDbVisualStyle
  3
ObjectDBX Classes
 90
     4095
280
     0
281
     0
  0
CLASS
  1
ACDBPLACEHOLDER
  2
AcDbPlaceHolder
  3
ObjectDBX Classes
 90
        0
280
     0
281
     0
  0
CLASS
  1
LAYOUT
  2
AcDbLayout
  3
ObjectDBX Classes
 90
        0
280
     0
281
     0
  0
ENDSEC
  0
SECTION
  2
TABLES
  0
TABLE
  2
VPORT
  5
8
330
0
100
AcDbSymbolTable
 70
     1
  0
VPORT
  5
29
330
8
100
AcDbSymbolTableRecord
100
AcDbViewportTableRecord
  2
*Active
 70
     0
 10
0.0
 20
0.0
 11
1.0
 21
1.0
 12
0.0
 22
0.0
 13
0.0
 23
0.0
 14
0.5
 24
0.5
 15
0.5
 25
0.5
 16
0.0
 26
0.0
 36
1.0
 17
17.81951044889384
 27
3.625002390487688
 37
0.0
 40
7.154171384445242
 41
5.047540222772277
 42
50.0
 43
0.0
 44
0.0
 50
0.0
 51
0.0
 71
     0
 72
   100
 73
     1
 74
     3
 75
     0
 76
     0
 77
     0
 78
     0
281
     0
 65
     1
110
0.0
120
0.0
130
0.0
111
1.0
121
0.0
131
0.0
112
0.0
122
1.0
132
0.0
 79
     0
146
0.0
  0
ENDTAB
  0
TABLE
  2
LTYPE
  5
5
330
0
100
AcDbSymbolTable
 70
     1
  0
LTYPE
  5
14
330
5
100
AcDbSymbolTableRecord
100
AcDbLinetypeTableRecord
  2
ByBlock
 70
     0
  3

 72
    65
 73
     0
 40
0.0
  0
LTYPE
  5
15
330
5
100
AcDbSymbolTableRecord
100
AcDbLinetypeTableRecord
  2
ByLayer
 70
     0
  3

 72
    65
 73
     0
 40
0.0
  0
LTYPE
  5
16
330
5
100
AcDbSymbolTableRecord
100
AcDbLinetypeTableRecord
  2
Continuous
 70
     0
  3
Solid line
 72
    65
 73
     0
 40
0.0
  0
ENDTAB
  0
TABLE
  2
LAYER
  5
2
330
0
100
AcDbSymbolTable
 70
     4
  0
LAYER
  5
10
330
2
100
AcDbSymbolTableRecord
100
AcDbLayerTableRecord
  2
0
 70
     0
 62
     7
  6
Continuous
370
    -3
390
F
  0
LAYER
  5
3B
330
2
100
AcDbSymbolTableRecord
100
AcDbLayerTableRecord
  2
cut
 70
     0
 62
     7
  6
Continuous
370
    -3
390
F
  0
LAYER
  5
97
330
2
100
AcDbSymbolTableRecord
100
AcDbLayerTableRecord
  2
score2
 70
     0
 62
     7
  6
Continuous
370
    -3
390
F
  0
LAYER
  5
B0
330
2
100
AcDbSymbolTableRecord
100
AcDbLayerTableRecord
  2
place
 70
     0
 62
     7
  6
Continuous
370
    -3
390
F
  0
ENDTAB
  0
TABLE
  2
STYLE
  5
3
330
0
100
AcDbSymbolTable
 70
     1
  0
STYLE
  5
11
330
3
100
AcDbSymbolTableRecord
100
AcDbTextStyleTableRecord
  2
Standard
 70
     0
 40
0.0
 41
1.0
 50
0.0
 71
     0
 42
0.2
  3
txt
  4

  0
ENDTAB
  0
TABLE
  2
VIEW
  5
6
330
0
100
AcDbSymbolTable
 70
     0
  0
ENDTAB
  0
TABLE
  2
UCS
  5
7
330
0
100
AcDbSymbolTable
 70
     0
  0
ENDTAB
  0
TABLE
  2
APPID
  5
9
330
0
100
AcDbSymbolTable
 70
     1
  0
APPID
  5
12
330
9
100
AcDbSymbolTableRecord
100
AcDbRegAppTableRecord
  2
ACAD
 70
     0
  0
ENDTAB
  0
TABLE
  2
DIMSTYLE
  5
A
330
0
100
AcDbSymbolTable
 70
     1
100
AcDbDimStyleTable
  0
DIMSTYLE
105
27
330
A
100
AcDbSymbolTableRecord
100
AcDbDimStyleTableRecord
  2
Standard
 70
     0
340
11
  0
ENDTAB
  0
TABLE
  2
BLOCK_RECORD
  5
1
330
0
100
AcDbSymbolTable
 70
     1
  0
BLOCK_RECORD
  5
1F
330
1
100
AcDbSymbolTableRecord
100
AcDbBlockTableRecord
  2
*Model_Space
340
22
  0
BLOCK_RECORD
  5
1B
330
1
100
AcDbSymbolTableRecord
100
AcDbBlockTableRecord
  2
*Paper_Space
340
1E
  0
BLOCK_RECORD
  5
23
330
1
100
AcDbSymbolTableRecord
100
AcDbBlockTableRecord
  2
*Paper_Space0
340
26
  0
ENDTAB
  0
ENDSEC
  0
SECTION
  2
BLOCKS
  0
BLOCK
  5
20
330
1F
100
AcDbEntity
  8
0
100
AcDbBlockBegin
  2
*Model_Space
 70
     0
 71
     0
 10
0.0
 20
0.0
 30
0.0
  3
*Model_Space
  1

  0
ENDBLK
  5
21
330
1F
100
AcDbEntity
  8
0
100
AcDbBlockEnd
  0
BLOCK
  5
1C
330
1B
100
AcDbEntity
 67
     1
  8
0
100
AcDbBlockBegin
  2
*Paper_Space
 70
     0
 71
     0
 10
0.0
 20
0.0
 30
0.0
  3
*Paper_Space
  1

  0
ENDBLK
  5
1D
330
1B
100
AcDbEntity
 67
     1
  8
0
100
AcDbBlockEnd
  0
BLOCK
  5
24
330
23
100
AcDbEntity
  8
0
100
AcDbBlockBegin
  2
*Paper_Space0
 70
     0
 71
     0
 10
0.0
 20
0.0
 30
0.0
  3
*Paper_Space0
  1

  0
ENDBLK
  5
25
330
23
100
AcDbEntity
  8
0
100
AcDbBlockEnd
  0
ENDSEC
  0
SECTION
  2
ENTITIES
  0
SPLINE
  5
3C
330
1F
100
AcDbEntity
  8
cut
 62
   250
370
    35
100
AcDbSpline
210
0.0
220
0.0
230
1.0
 70
    11
 71
     3
 72
    17
 73
    13
 74
     0
 42
0.0000000001
 43
0.0000000001
 40
0.0
 40
0.0
 40
0.0
 40
0.0
 40
1.0
 40
1.0
 40
1.0
 40
2.0
 40
2.0
 40
2.0
 40
3.0
 40
3.0
 40
3.0
 40
4.0
 40
4.0
 40
4.0
 40
4.0
 10
5.449663153211897
 20
3.250002143195858
 30
0.0
 10
6.236650976874145
 20
3.249988579818858
 30
0.0
 10
6.874672230947049
 20
2.611967325745953
 30
0.0
 10
6.87465866757005
 20
1.824993065460705
 30
0.0
 10
6.87468579432405
 20
1.037978115044457
 30
0.0
 10
6.236664540251144
 20
0.3999568609715523
 30
0.0
 10
5.449649589834896
 20
0.3999839877255519
 30
0.0
 10
4.662661766172649
 20
0.3999568609715523
 30
0.0
 10
4.024640512099744
 20
1.037978115044457
 30
0.0
 10
4.024654075476743
 20
1.824993065460705
 30
0.0
 10
4.024640512099744
 20
2.611980889122953
 30
0.0
 10
4.662661766172649
 20
3.249988579818858
 30
0.0
 10
5.449663153211897
 20
3.250002143195858
 30
0.0
  0
SPLINE
  5
3D
330
1F
100
AcDbEntity
  8
cut
 62
   250
370
    35
100
AcDbSpline
210
0.0
220
0.0
230
1.0
 70
    11
 71
     3
 72
    17
 73
    13
 74
     0
 42
0.0000000001
 43
0.0000000001
 40
0.0
 40
0.0
 40
0.0
 40
0.0
 40
1.0
 40
1.0
 40
1.0
 40
2.0
 40
2.0
 40
2.0
 40
3.0
 40
3.0
 40
3.0
 40
4.0
 40
4.0
 40
4.0
 40
4.0
 10
5.449649589834896
 20
6.850034356626823
 30
0.0
 10
6.236664540251144
 20
6.850007229872824
 30
0.0
 10
6.874679012635549
 20
6.212013102553919
 30
0.0
 10
6.87465188588155
 20
5.42501171551467
 30
0.0
 10
6.87465188588155
 20
4.638010328475422
 30
0.0
 10
6.236664540251144
 20
3.999989074402518
 30
0.0
 10
5.449649589834896
 20
4.000016201156518
 30
0.0
 10
4.662661766172649
 20
3.999989074402518
 30
0.0
 10
4.024647293788243
 20
4.638010328475422
 30
0.0
 10
4.024647293788243
 20
5.425038842268671
 30
0.0
 10
4.024620167034244
 20
6.212013102553919
 30
0.0
 10
4.662648202795649
 20
6.849993666495824
 30
0.0
 10
5.449649589834896
 20
6.850034356626823
 30
0.0
  0
SPLINE
  5
3E
330
1F
100
AcDbEntity
  8
cut
 62
   250
370
    35
100
AcDbSpline
210
0.0
220
0.0
230
1.0
 70
    11
 71
     3
 72
    17
 73
    13
 74
     0
 42
0.0000000001
 43
0.0000000001
 40
0.0
 40
0.0
 40
0.0
 40
0.0
 40
1.0
 40
1.0
 40
1.0
 40
2.0
 40
2.0
 40
2.0
 40
3.0
 40
3.0
 40
3.0
 40
4.0
 40
4.0
 40
4.0
 40
4.0
 10
1.84968519328893
 20
3.249988579818858
 30
0.0
 10
2.636693362016679
 20
3.249988579818858
 30
0.0
 10
3.274680707647084
 20
2.611994452499953
 30
0.0
 10
3.274694271024083
 20
1.824965938706705
 30
0.0
 10
3.274680707647084
 20
1.037964551667457
 30
0.0
 10
2.636693362016679
 20
0.3999704243485521
 30
0.0
 10
1.84969875666593
 20
0.3999704243485521
 30
0.0
 10
1.062677024561182
 20
0.3999975511025518
 30
0.0
 10
0.4246896789307772
 20
1.037964551667457
 30
0.0
 10
0.4246896789307772
 20
1.824993065460705
 30
0.0
 10
0.4246896789307772
 20
2.611980889122953
 30
0.0
 10
1.062690587938182
 20
3.249988579818858
 30
0.0
 10
1.84968519328893
 20
3.249988579818858
 30
0.0
  0
SPLINE
  5
3F
330
1F
100
AcDbEntity
  8
cut
 62
   250
370
    35
100
AcDbSpline
210
0.0
220
0.0
230
1.0
 70
    11
 71
     3
 72
    17
 73
    13
 74
     0
 42
0.0000000001
 43
0.0000000001
 40
0.0
 40
0.0
 40
0.0
 40
0.0
 40
1.0
 40
1.0
 40
1.0
 40
2.0
 40
2.0
 40
2.0
 40
3.0
 40
3.0
 40
3.0
 40
4.0
 40
4.0
 40
4.0
 40
4.0
 10
1.84968519328893
 20
6.850020793249824
 30
0.0
 10
2.636686580328178
 20
6.850020793249824
 30
0.0
 10
3.274687489335584
 20
6.212013102553919
 30
0.0
 10
3.274673925958584
 20
5.42502527889167
 30
0.0
 10
3.274701052712583
 20
4.638010328475422
 30
0.0
 10
2.636700143705178
 20
4.000002637779517
 30
0.0
 10
1.849658066534931
 20
4.000002637779517
 30
0.0
 10
1.062670242872682
 20
4.000029764533517
 30
0.0
 10
0.4246693338652774
 20
4.638023891852423
 30
0.0
 10
0.4246693338652774
 20
5.42501171551467
 30
0.0
 10
0.4246828972422773
 20
6.212013102553919
 30
0.0
 10
1.062697369626682
 20
6.850020793249824
 30
0.0
 10
1.84968519328893
 20
6.850020793249824
 30
0.0
  0
SPLINE
  5
40
330
1F
100
AcDbEntity
  8
cut
 62
   250
370
    35
100
AcDbSpline
210
0.0
220
0.0
230
1.0
 70
    11
 71
     3
 72
    89
 73
    85
 74
     0
 42
0.0000000001
 43
0.0000000001
 40
0.0
 40
0.0
 40
0.0
 40
0.0
 40
1.0
 40
1.0
 40
1.0
 40
2.0
 40
2.0
 40
2.0
 40
3.0
 40
3.0
 40
3.0
 40
4.0
 40
4.0
 40
4.0
 40
5.0
 40
5.0
 40
5.0
 40
6.0
 40
6.0
 40
6.0
 40
7.0
 40
7.0
 40
7.0
 40
8.0
 40
8.0
 40
8.0
 40
9.0
 40
9.0
 40
9.0
 40
10.0
 40
10.0
 40
10.0
 40
11.0
 40
11.0
 40
11.0
 40
12.0
 40
12.0
 40
12.0
 40
13.0
 40
13.0
 40
13.0
 40
14.0
 40
14.0
 40
14.0
 40
15.0
 40
15.0
 40
15.0
 40
16.0
 40
16.0
 40
16.0
 40
17.0
 40
17.0
 40
17.0
 40
18.0
 40
18.0
 40
18.0
 40
19.0
 40
19.0
 40
19.0
 40
20.0
 40
20.0
 40
20.0
 40
21.0
 40
21.0
 40
21.0
 40
22.0
 40
22.0
 40
22.0
 40
23.0
 40
23.0
 40
23.0
 40
24.0
 40
24.0
 40
24.0
 40
25.0
 40
25.0
 40
25.0
 40
26.0
 40
26.0
 40
26.0
 40
27.0
 40
27.0
 40
27.0
 40
28.0
 40
28.0
 40
28.0
 40
28.0
 10
5.882490858342583
 20
3.625165151011686
 30
0.0
 10
6.55988659584605
 20
3.865182670401017
 30
0.0
 10
7.046933900533634
 20
4.511097809887834
 30
0.0
 10
7.049483815409605
 20
5.269209203917403
 30
0.0
 10
7.049483815409605
 20
5.269209203917403
 30
0.0
 10
6.840241598432932
 20
5.05992629680973
 30
0.0
 10
6.840241598432932
 20
5.05992629680973
 30
0.0
 10
6.67860683472573
 20
4.442928277086592
 30
0.0
 10
6.117327167717971
 20
3.987632837955655
 30
0.0
 10
5.449588554638398
 20
3.987605711201656
 30
0.0
 10
4.655696972083226
 20
3.987646401332655
 30
0.0
 10
4.012087606686383
 20
4.631215076598498
 30
0.0
 10
4.012074043309384
 20
5.425133785907669
 30
0.0
 10
4.012087606686383
 20
6.080909500473377
 30
0.0
 10
4.451269753941499
 20
6.634091831412225
 30
0.0
 10
5.051517003069824
 20
6.806753620620305
 30
0.0
 10
5.051517003069824
 20
6.806753620620305
 30
0.0
 10
5.2695211615884
 20
7.02479846926988
 30
0.0
 10
5.2695211615884
 20
7.02479846926988
 30
0.0
 10
4.521962074864713
 20
7.012157401906021
 30
0.0
 10
3.887168904517772
 20
6.5284195612064
 30
0.0
 10
3.649565666234415
 20
5.858361610659852
 30
0.0
 10
3.409398949698085
 20
6.535865855179317
 30
0.0
 10
2.763117599032272
 20
7.022845342981902
 30
0.0
 10
2.004829881101705
 20
7.025123990317876
 30
0.0
 10
2.004829881101705
 20
7.025123990317876
 30
0.0
 10
2.213977154439379
 20
6.815976716980202
 30
0.0
 10
2.213977154439379
 20
6.815976716980202
 30
0.0
 10
2.831409202226513
 20
6.654653910943996
 30
0.0
 10
3.287084415913446
 20
6.093102976396241
 30
0.0
 10
3.287043725782446
 20
5.42514734928467
 30
0.0
 10
3.287057289159446
 20
4.631215076598498
 30
0.0
 10
2.643488613893603
 20
3.987605711201656
 30
0.0
 10
1.849542777830432
 20
3.987646401332655
 30
0.0
 10
1.194079020935721
 20
3.987632837955655
 30
0.0
 10
0.6411137040288705
 20
4.426353830392777
 30
0.0
 10
0.4681670839037937
 20
5.026248431719105
 30
0.0
 10
0.4681670839037937
 20
5.026248431719105
 30
0.0
 10
0.2500272916152195
 20
5.244415350761679
 30
0.0
 10
0.2500272916152195
 20
5.244415350761679
 30
0.0
 10
0.2629531898960758
 20
4.49708684144699
 30
0.0
 10
0.7466774672186965
 20
3.862551375263046
 30
0.0
 10
1.416626910749246
 20
3.625165151011686
 30
0.0
 10
0.7465147066946983
 20
3.387629729613328
 30
0.0
 10
0.2626819223560788
 20
2.752822995889387
 30
0.0
 10
0.2500001648612198
 20
2.005236782411701
 30
0.0
 10
0.2500001648612198
 20
2.005236782411701
 30
0.0
 10
0.4679365064947963
 20
2.223173124045277
 30
0.0
 10
0.4679365064947963
 20
2.223173124045277
 30
0.0
 10
0.6405847323258763
 20
2.823433936550602
 30
0.0
 10
1.193767063264725
 20
3.262670337313717
 30
0.0
 10
1.849583467961432
 20
3.262670337313717
 30
0.0
 10
2.643461487139603
 20
3.262670337313717
 30
0.0
 10
3.287043725782446
 20
2.619074535293874
 30
0.0
 10
3.287070852536446
 20
1.825142262607703
 30
0.0
 10
3.287057289159446
 20
1.157471466413128
 30
0.0
 10
2.831829666913508
 20
0.5961646726513703
 30
0.0
 10
2.21481808381337
 20
0.4345705990751673
 30
0.0
 10
2.21481808381337
 20
0.4345705990751673
 30
0.0
 10
2.005453796443698
 20
0.2251791849514959
 30
0.0
 10
2.005453796443698
 20
0.2251791849514959
 30
0.0
 10
2.763497373588268
 20
0.227688409696468
 30
0.0
 10
3.409466766583085
 20
0.7146136439910531
 30
0.0
 10
3.649579229611414
 20
1.391955127986521
 30
0.0
 10
3.887087524255773
 20
0.7220192478329707
 30
0.0
 10
4.521650117193716
 20
0.238389914149349
 30
0.0
 10
5.268897246246406
 20
0.2255182693764921
 30
0.0
 10
5.268897246246406
 20
0.2255182693764921
 30
0.0
 10
5.050581130056835
 20
0.4438479489430641
 30
0.0
 10
5.050581130056835
 20
0.4438479489430641
 30
0.0
 10
4.450808599123504
 20
0.616781005691141
 30
0.0
 10
4.012101170063383
 20
1.169705632466992
 30
0.0
 10
4.012087606686383
 20
1.825169389361703
 30
0.0
 10
4.012101170063383
 20
2.619060971916875
 30
0.0
 10
4.655669845329226
 20
3.262670337313717
 30
0.0
 10
5.449588554638398
 20
3.262670337313717
 30
0.0
 10
6.117611998634969
 20
3.262670337313717
 30
0.0
 10
6.679162933182724
 20
2.806913743364785
 30
0.0
 10
6.84049930259593
 20
2.189454568823652
 30
0.0
 10
6.84049930259593
 20
2.189454568823652
 30
0.0
 10
7.049497378786605
 20
1.980442929255976
 30
0.0
 10
7.049497378786605
 20
1.980442929255976
 30
0.0
 10
7.047232294827631
 20
2.738771337317543
 30
0.0
 10
6.560103609878047
 20
3.384998434475357
 30
0.0
 10
5.882490858342583
 20
3.625165151011686
 30
0.0
  0
POLYLINE
  5
41
330
1F
100
AcDbEntity
  8
cut
 62
   250
370
    35
100
AcDb2dPolyline
 66
     1
 10
0.0
 20
0.0
 30
0.0
  0
VERTEX
  5
42
330
41
100
AcDbEntity
  8
cut
 62
   250
370
    35
100
AcDbVertex
100
AcDb2dVertex
 10
3.442317265676719
 20
3.71472412934169
 30
0.0
  0
VERTEX
  5
B8
330
41
100
AcDbEntity
  8
0
100
AcDbVertex
100
AcDb2dVertex
 10
3.442317265676719
 20
3.71472412934169
 30
0.0
  0
SEQEND
  5
43
330
41
100
AcDbEntity
  8
cut
370
    35
  0
POLYLINE
  5
44
330
1F
100
AcDbEntity
  8
cut
 62
   250
370
    35
100
AcDb2dPolyline
 66
     1
 10
0.0
 20
0.0
 30
0.0
  0
VERTEX
  5
45
330
44
100
AcDbEntity
  8
cut
 62
   250
370
    35
100
AcDbVertex
100
AcDb2dVertex
 10
3.560169448428409
 20
3.417699736421993
 30
0.0
  0
VERTEX
  5
B9
330
44
100
AcDbEntity
  8
0
100
AcDbVertex
100
AcDb2dVertex
 10
3.560169448428409
 20
3.417699736421993
 30
0.0
  0
SEQEND
  5
46
330
44
100
AcDbEntity
  8
cut
370
    35
  0
POLYLINE
  5
47
330
1F
100
AcDbEntity
  8
cut
 62
   250
370
    35
100
AcDb2dPolyline
 66
     1
 10
0.0
 20
0.0
 30
0.0
  0
VERTEX
  5
48
330
47
100
AcDbEntity
  8
cut
 62
   250
370
    35
100
AcDbVertex
100
AcDb2dVertex
 10
3.739314531842417
 20
3.83254918533938
 30
0.0
  0
VERTEX
  5
BA
330
47
100
AcDbEntity
  8
0
100
AcDbVertex
100
AcDb2dVertex
 10
3.739314531842417
 20
3.83254918533938
 30
0.0
  0
SEQEND
  5
49
330
47
100
AcDbEntity
  8
cut
370
    35
  0
POLYLINE
  5
4A
330
1F
100
AcDbEntity
  8
cut
 62
   250
370
    35
100
AcDb2dPolyline
 66
     1
 10
0.0
 20
0.0
 30
0.0
  0
VERTEX
  5
4B
330
4A
100
AcDbEntity
  8
cut
 62
   250
370
    35
100
AcDbVertex
100
AcDb2dVertex
 10
3.734743673793468
 20
3.87749821671688
 30
0.0
  0
VERTEX
  5
BB
330
4A
100
AcDbEntity
  8
0
100
AcDbVertex
100
AcDb2dVertex
 10
3.734743673793468
 20
3.87749821671688
 30
0.0
  0
SEQEND
  5
4C
330
4A
100
AcDbEntity
  8
cut
370
    35
  0
SPLINE
  5
4D
330
1F
100
AcDbEntity
  8
cut
 62
   250
370
    35
100
AcDbSpline
210
0.0
220
0.0
230
1.0
 70
     8
 71
     3
 72
   110
 73
   106
 74
     0
 42
0.0000000001
 43
0.0000000001
 40
0.0
 40
0.0
 40
0.0
 40
0.0
 40
1.0
 40
1.0
 40
1.0
 40
2.0
 40
2.0
 40
2.0
 40
3.0
 40
3.0
 40
3.0
 40
4.0
 40
4.0
 40
4.0
 40
5.0
 40
5.0
 40
5.0
 40
6.0
 40
6.0
 40
6.0
 40
7.0
 40
7.0
 40
7.0
 40
8.0
 40
8.0
 40
8.0
 40
9.0
 40
9.0
 40
9.0
 40
10.0
 40
10.0
 40
10.0
 40
11.0
 40
11.0
 40
11.0
 40
12.0
 40
12.0
 40
12.0
 40
13.0
 40
13.0
 40
13.0
 40
14.0
 40
14.0
 40
14.0
 40
15.0
 40
15.0
 40
15.0
 40
16.0
 40
16.0
 40
16.0
 40
17.0
 40
17.0
 40
17.0
 40
18.0
 40
18.0
 40
18.0
 40
19.0
 40
19.0
 40
19.0
 40
20.0
 40
20.0
 40
20.0
 40
21.0
 40
21.0
 40
21.0
 40
22.0
 40
22.0
 40
22.0
 40
23.0
 40
23.0
 40
23.0
 40
24.0
 40
24.0
 40
24.0
 40
25.0
 40
25.0
 40
25.0
 40
26.0
 40
26.0
 40
26.0
 40
27.0
 40
27.0
 40
27.0
 40
28.0
 40
28.0
 40
28.0
 40
29.0
 40
29.0
 40
29.0
 40
30.0
 40
30.0
 40
30.0
 40
31.0
 40
31.0
 40
31.0
 40
32.0
 40
32.0
 40
32.0
 40
33.0
 40
33.0
 40
33.0
 40
34.0
 40
34.0
 40
34.0
 40
35.0
 40
35.0
 40
35.0
 40
35.0
 10
3.156347025011899
 20
3.70662679327278
 30
0.0
 10
3.169367866931755
 20
3.786175999376896
 30
0.0
 10
3.201187549373401
 20
3.859391108422081
 30
0.0
 10
3.24708601714089
 20
3.92157919196639
 30
0.0
 10
3.24708601714089
 20
3.92157919196639
 30
0.0
 10
3.240941807359959
 20
3.916099587658451
 30
0.0
 10
3.240941807359959
 20
3.916099587658451
 30
0.0
 10
3.240941807359959
 20
3.916099587658451
 30
0.0
 10
3.358793990111648
 20
4.03395177041014
 30
0.0
 10
3.358793990111648
 20
4.03395177041014
 30
0.0
 10
3.358793990111648
 20
4.03395177041014
 30
0.0
 10
3.560196575182408
 20
3.83257631209338
 30
0.0
 10
3.560196575182408
 20
3.83257631209338
 30
0.0
 10
3.560196575182408
 20
3.83257631209338
 30
0.0
 10
3.564713179723358
 20
3.826554172705447
 30
0.0
 10
3.564713179723358
 20
3.826554172705447
 30
0.0
 10
3.564713179723358
 20
3.826554172705447
 30
0.0
 10
3.564713179723358
 20
4.730064968173399
 30
0.0
 10
3.564699616346358
 20
4.730064968173399
 30
0.0
 10
3.564699616346358
 20
4.730064968173399
 30
0.0
 10
3.734716547039468
 20
4.730159911812398
 30
0.0
 10
3.734716547039468
 20
4.730159911812398
 30
0.0
 10
3.734716547039468
 20
4.730159911812398
 30
0.0
 10
3.734743673793468
 20
4.121652566091165
 30
0.0
 10
3.734743673793468
 20
4.121652566091165
 30
0.0
 10
3.734743673793468
 20
4.121652566091165
 30
0.0
 10
3.73452665976147
 20
4.117976890924206
 30
0.0
 10
3.73452665976147
 20
4.117976890924206
 30
0.0
 10
3.814726907961578
 20
4.104277880154358
 30
0.0
 10
3.888362481693759
 20
4.071481634568722
 30
0.0
 10
3.950672635631066
 20
4.024457406510246
 30
0.0
 10
3.950672635631066
 20
4.024457406510246
 30
0.0
 10
3.940689990159177
 20
4.033924643656141
 30
0.0
 10
3.940689990159177
 20
4.033924643656141
 30
0.0
 10
3.940689990159177
 20
4.033924643656141
 30
0.0
 10
4.058501482779867
 20
3.916113151035451
 30
0.0
 10
4.058501482779867
 20
3.916113151035451
 30
0.0
 10
4.058501482779867
 20
3.916113151035451
 30
0.0
 10
3.857126024463106
 20
3.71473769271869
 30
0.0
 10
3.857126024463106
 20
3.71473769271869
 30
0.0
 10
3.857126024463106
 20
3.71473769271869
 30
0.0
 10
3.851131011829173
 20
3.710180398046741
 30
0.0
 10
3.851131011829173
 20
3.710180398046741
 30
0.0
 10
3.851131011829173
 20
3.710180398046741
 30
0.0
 10
4.754709624182125
 20
3.710166834669741
 30
0.0
 10
4.754709624182125
 20
3.710166834669741
 30
0.0
 10
4.754709624182125
 20
3.710166834669741
 30
0.0
 10
4.754723187559125
 20
3.540149903976631
 30
0.0
 10
4.754723187559125
 20
3.540149903976631
 30
0.0
 10
4.754723187559125
 20
3.540149903976631
 30
0.0
 10
4.14454754646691
 20
3.540163467353631
 30
0.0
 10
4.14454754646691
 20
3.540163467353631
 30
0.0
 10
4.14454754646691
 20
3.540163467353631
 30
0.0
 10
4.143476039683922
 20
3.54571088854657
 30
0.0
 10
4.143476039683922
 20
3.54571088854657
 30
0.0
 10
4.13109267648306
 20
3.468114808730432
 30
0.0
 10
4.100846345773396
 20
3.396459488040229
 30
0.0
 10
4.057104454948883
 20
3.335125897246912
 30
0.0
 10
4.057104454948883
 20
3.335125897246912
 30
0.0
 10
4.058542172910866
 20
3.334203587610922
 30
0.0
 10
4.058542172910866
 20
3.334203587610922
 30
0.0
 10
4.058542172910866
 20
3.334203587610922
 30
0.0
 10
3.940689990159177
 20
3.216351404859232
 30
0.0
 10
3.940689990159177
 20
3.216351404859232
 30
0.0
 10
3.940689990159177
 20
3.216351404859232
 30
0.0
 10
3.739300968465417
 20
3.417699736421993
 30
0.0
 10
3.739300968465417
 20
3.417699736421993
 30
0.0
 10
3.739300968465417
 20
3.417699736421993
 30
0.0
 10
3.734743673793468
 20
3.416790990163003
 30
0.0
 10
3.734743673793468
 20
3.416790990163003
 30
0.0
 10
3.734743673793468
 20
3.416790990163003
 30
0.0
 10
3.734743673793468
 20
2.520170390210974
 30
0.0
 10
3.734743673793468
 20
2.520170390210974
 30
0.0
 10
3.734743673793468
 20
2.520170390210974
 30
0.0
 10
3.564726743100358
 20
2.520156826833974
 30
0.0
 10
3.564726743100358
 20
2.520156826833974
 30
0.0
 10
3.564726743100358
 20
2.520156826833974
 30
0.0
 10
3.564726743100358
 20
3.132651805393163
 30
0.0
 10
3.564726743100358
 20
3.132651805393163
 30
0.0
 10
3.564726743100358
 20
3.132651805393163
 30
0.0
 10
3.562990630844377
 20
3.132624678639163
 30
0.0
 10
3.562990630844377
 20
3.132624678639163
 30
0.0
 10
3.484702818801248
 20
3.146323689409011
 30
0.0
 10
3.412721977063049
 20
3.178224752112656
 30
0.0
 10
3.351524020039729
 20
3.22377057207815
 30
0.0
 10
3.351524020039729
 20
3.22377057207815
 30
0.0
 10
3.358780426734648
 20
3.216364968236232
 30
0.0
 10
3.358780426734648
 20
3.216364968236232
 30
0.0
 10
3.358780426734648
 20
3.216364968236232
 30
0.0
 10
3.240955370736958
 20
3.334190024233922
 30
0.0
 10
3.240955370736958
 20
3.334190024233922
 30
0.0
 10
3.240955370736958
 20
3.334190024233922
 30
0.0
 10
3.442317265676719
 20
3.535592609304682
 30
0.0
 10
3.442317265676719
 20
3.535592609304682
 30
0.0
 10
3.442317265676719
 20
3.535592609304682
 30
0.0
 10
3.44311750491971
 20
3.540149903976631
 30
0.0
 10
3.44311750491971
 20
3.540149903976631
 30
0.0
 10
3.44311750491971
 20
3.540149903976631
 30
0.0
 10
2.544720102580701
 20
3.540149903976631
 30
0.0
 10
2.544720102580701
 20
3.540149903976631
 30
0.0
 10
2.544720102580701
 20
3.540149903976631
 30
0.0
 10
2.5448014828427
 20
3.710153271292741
 30
0.0
 10
2.5448014828427
 20
3.710153271292741
 30
0.0
 10
2.5448014828427
 20
3.710153271292741
 30
0.0
 10
3.15899188352687
 20
3.710153271292741
 30
0.0
 10
3.15899188352687
 20
3.710153271292741
 30
0.0
  0
SPLINE
  5
4E
330
1F
100
AcDbEntity
  8
cut
 62
   250
370
    35
100
AcDbSpline
210
0.0
220
0.0
230
1.0
 70
     8
 71
     3
 72
    11
 73
     7
 74
     0
 42
0.0000000001
 43
0.0000000001
 40
0.0
 40
0.0
 40
0.0
 40
0.0
 40
1.0
 40
1.0
 40
1.0
 40
2.0
 40
2.0
 40
2.0
 40
2.0
 10
7.125370909723761
 20
5.253028095156584
 30
0.0
 10
7.125153895691764
 20
5.264556965606455
 30
0.0
 10
7.125045388675765
 20
5.276112962810326
 30
0.0
 10
7.125045388675765
 20
5.287696086768197
 30
0.0
 10
7.125058952052765
 20
6.25419520502345
 30
0.0
 10
7.908574551203052
 20
7.037697240796737
 30
0.0
 10
8.875060106081303
 20
7.037697240796737
 30
0.0
  0
SPLINE
  5
4F
330
1F
100
AcDbEntity
  8
cut
 62
   250
370
    35
100
AcDbSpline
210
0.0
220
0.0
230
1.0
 70
     8
 71
     3
 72
    11
 73
     7
 74
     0
 42
0.0000000001
 43
0.0000000001
 40
0.0
 40
0.0
 40
0.0
 40
0.0
 40
1.0
 40
1.0
 40
1.0
 40
2.0
 40
2.0
 40
2.0
 40
2.0
 10
12.12423488328017
 20
7.037046198700744
 30
0.0
 10
12.139914147092
 20
7.037480226764739
 30
0.0
 10
12.15564766441182
 20
7.037697240796737
 30
0.0
 10
12.17143543523965
 20
7.037697240796737
 30
0.0
 10
13.1379345534949
 20
7.037697240796737
 30
0.0
 10
13.92143658926819
 20
6.25419520502345
 30
0.0
 10
13.92140946251419
 20
5.287696086768197
 30
0.0
  0
SPLINE
  5
50
330
1F
100
AcDbEntity
  8
cut
 62
   250
370
    35
100
AcDbSpline
210
0.0
220
0.0
230
1.0
 70
     8
 71
     3
 72
    11
 73
     7
 74
     0
 42
0.0000000001
 43
0.0000000001
 40
0.0
 40
0.0
 40
0.0
 40
0.0
 40
1.0
 40
1.0
 40
1.0
 40
2.0
 40
2.0
 40
2.0
 40
2.0
 10
13.92450191247015
 20
1.993233193766834
 30
0.0
 10
13.92223682851118
 20
2.751561601828401
 30
0.0
 10
13.43510814356159
 20
3.397802262363214
 30
0.0
 10
12.75749539202613
 20
3.637955415522544
 30
0.0
 10
13.4348911295296
 20
3.877972934911875
 30
0.0
 10
13.92193843421718
 20
4.523888074398692
 30
0.0
 10
13.92448834909315
 20
5.281999468428261
 30
0.0
  0
SPLINE
  5
51
330
1F
100
AcDbEntity
  8
cut
 62
   250
370
    35
100
AcDbSpline
210
0.0
220
0.0
230
1.0
 70
     8
 71
     3
 72
    11
 73
     7
 74
     0
 42
0.0000000001
 43
0.0000000001
 40
0.0
 40
0.0
 40
0.0
 40
0.0
 40
1.0
 40
1.0
 40
1.0
 40
2.0
 40
2.0
 40
2.0
 40
2.0
 10
8.880458330127244
 20
0.2379694494623536
 30
0.0
 10
9.638501907271815
 20
0.2404922375843256
 30
0.0
 10
10.28447130026663
 20
0.7274174718789107
 30
0.0
 10
10.52458376329496
 20
1.404745392497378
 30
0.0
 10
10.76209205793932
 20
0.7348230757208283
 30
0.0
 10
11.39665465087726
 20
0.2511801786602068
 30
0.0
 10
12.14390177992995
 20
0.2383220972643497
 30
0.0
  0
SPLINE
  5
52
330
1F
100
AcDbEntity
  8
cut
 62
   250
370
    35
100
AcDbSpline
210
0.0
220
0.0
230
1.0
 70
     8
 71
     3
 72
    11
 73
     7
 74
     0
 42
0.0000000001
 43
0.0000000001
 40
0.0
 40
0.0
 40
0.0
 40
0.0
 40
1.0
 40
1.0
 40
1.0
 40
2.0
 40
2.0
 40
2.0
 40
2.0
 10
7.125031825298765
 20
5.257205615272537
 30
0.0
 10
7.137957723579621
 20
4.509890669334848
 30
0.0
 10
7.621682000902243
 20
3.875341639773904
 30
0.0
 10
8.291631444432792
 20
3.637955415522544
 30
0.0
 10
7.621519240378245
 20
3.400433557501185
 30
0.0
 10
7.137686456039624
 20
2.765613260400245
 30
0.0
 10
7.125004698544766
 20
2.018027046922558
 30
0.0
  0
SPLINE
  5
53
330
1F
100
AcDbEntity
  8
cut
 62
   250
370
    35
100
AcDbSpline
210
0.0
220
0.0
230
1.0
 70
     8
 71
     3
 72
    11
 73
     7
 74
     0
 42
0.0000000001
 43
0.0000000001
 40
0.0
 40
0.0
 40
0.0
 40
0.0
 40
1.0
 40
1.0
 40
1.0
 40
2.0
 40
2.0
 40
2.0
 40
2.0
 10
12.14452569527195
 20
7.037588733780738
 30
0.0
 10
11.39696660854826
 20
7.024947666416878
 30
0.0
 10
10.76217343820132
 20
6.541223389094258
 30
0.0
 10
10.52457019991796
 20
5.871165438547709
 30
0.0
 10
10.28440348338163
 20
6.548656119690175
 30
0.0
 10
9.638122132715818
 20
7.035635607492759
 30
0.0
 10
8.87983441478525
 20
7.037914254828734
 30
0.0
  0
SPLINE
  5
54
330
1F
100
AcDbEntity
  8
cut
 62
   250
370
    35
100
AcDbSpline
210
0.0
220
0.0
230
1.0
 70
     8
 71
     3
 72
    11
 73
     7
 74
     0
 42
0.0000000001
 43
0.0000000001
 40
0.0
 40
0.0
 40
0.0
 40
0.0
 40
1.0
 40
1.0
 40
1.0
 40
2.0
 40
2.0
 40
2.0
 40
2.0
 10
8.875032979327305
 20
0.2351753938003847
 30
0.0
 10
7.908547424449052
 20
0.2352025205543844
 30
0.0
 10
7.125045388675765
 20
1.018677429573672
 30
0.0
 10
7.125045388675765
 20
1.985176547828924
 30
0.0
 10
7.125045388675765
 20
1.9962713902148
 30
0.0
 10
7.125153895691764
 20
2.007339105846677
 30
0.0
 10
7.125357346346762
 20
2.018379694724554
 30
0.0
  0
SPLINE
  5
55
330
1F
100
AcDbEntity
  8
cut
 62
   250
370
    35
100
AcDbSpline
210
0.0
220
0.0
230
1.0
 70
     8
 71
     3
 72
    11
 73
     7
 74
     0
 42
0.0000000001
 43
0.0000000001
 40
0.0
 40
0.0
 40
0.0
 40
0.0
 40
1.0
 40
1.0
 40
1.0
 40
2.0
 40
2.0
 40
2.0
 40
2.0
 10
13.92143658926819
 20
1.991307194232856
 30
0.0
 10
13.92146371602218
 20
1.024780949223604
 30
0.0
 10
13.1379616802489
 20
0.2412789134503168
 30
0.0
 10
12.17140830848565
 20
0.2412789134503168
 30
0.0
 10
12.15590536857482
 20
0.2412789134503168
 30
0.0
 10
12.14042955541799
 20
0.2414959274823144
 30
0.0
 10
12.12502155914616
 20
0.2418757020383102
 30
0.0
  0
POLYLINE
  5
56
330
1F
100
AcDbEntity
  8
cut
 62
   250
370
    35
100
AcDb2dPolyline
 66
     1
 10
0.0
 20
0.0
 30
0.0
  0
VERTEX
  5
57
330
56
100
AcDbEntity
  8
cut
 62
   250
370
    35
100
AcDbVertex
100
AcDb2dVertex
 10
11.24600622253994
 20
4.478016733385202
 30
0.0
  0
VERTEX
  5
58
330
56
100
AcDbEntity
  8
cut
 62
   250
370
    35
100
AcDbVertex
100
AcDb2dVertex
 10
10.52476008719596
 20
3.756770598041222
 30
0.0
  0
VERTEX
  5
59
330
56
100
AcDbEntity
  8
cut
 62
   250
370
    35
100
AcDbVertex
100
AcDb2dVertex
 10
9.80351395185198
 20
4.478003170008202
 30
0.0
  0
VERTEX
  5
5A
330
56
100
AcDbEntity
  8
cut
 62
   250
370
    35
100
AcDbVertex
100
AcDb2dVertex
 10
9.683315304879315
 20
4.357790959658539
 30
0.0
  0
VERTEX
  5
5B
330
56
100
AcDbEntity
  8
cut
 62
   250
370
    35
100
AcDbVertex
100
AcDb2dVertex
 10
10.40453431346929
 20
3.636544824314559
 30
0.0
  0
VERTEX
  5
5C
330
56
100
AcDbEntity
  8
cut
 62
   250
370
    35
100
AcDbVertex
100
AcDb2dVertex
 10
9.683288178125316
 20
2.91529868897058
 30
0.0
  0
VERTEX
  5
5D
330
56
100
AcDbEntity
  8
cut
 62
   250
370
    35
100
AcDbVertex
100
AcDb2dVertex
 10
9.803486825097979
 20
2.795072915243917
 30
0.0
  0
VERTEX
  5
5E
330
56
100
AcDbEntity
  8
cut
 62
   250
370
    35
100
AcDbVertex
100
AcDb2dVertex
 10
10.52476008719596
 20
3.516346177341896
 30
0.0
  0
VERTEX
  5
5F
330
56
100
AcDbEntity
  8
cut
 62
   250
370
    35
100
AcDbVertex
100
AcDb2dVertex
 10
11.24600622253994
 20
2.795100041997917
 30
0.0
  0
VERTEX
  5
60
330
56
100
AcDbEntity
  8
cut
 62
   250
370
    35
100
AcDbVertex
100
AcDb2dVertex
 10
11.3662048695126
 20
2.91529868897058
 30
0.0
  0
VERTEX
  5
61
330
56
100
AcDbEntity
  8
cut
 62
   250
370
    35
100
AcDbVertex
100
AcDb2dVertex
 10
10.64495873416862
 20
3.636544824314559
 30
0.0
  0
VERTEX
  5
62
330
56
100
AcDbEntity
  8
cut
 62
   250
370
    35
100
AcDbVertex
100
AcDb2dVertex
 10
11.3662048695126
 20
4.357790959658539
 30
0.0
  0
VERTEX
  5
63
330
56
100
AcDbEntity
  8
cut
 62
   250
370
    35
100
AcDbVertex
100
AcDb2dVertex
 10
11.24600622253994
 20
4.478016733385202
 30
0.0
  0
SEQEND
  5
64
330
56
100
AcDbEntity
  8
cut
370
    35
  0
SPLINE
  5
65
330
1F
100
AcDbEntity
  8
cut
 62
   250
370
    35
100
AcDbSpline
210
0.0
220
0.0
230
1.0
 70
    11
 71
     3
 72
    17
 73
    13
 74
     0
 42
0.0000000001
 43
0.0000000001
 40
0.0
 40
0.0
 40
0.0
 40
0.0
 40
1.0
 40
1.0
 40
1.0
 40
2.0
 40
2.0
 40
2.0
 40
3.0
 40
3.0
 40
3.0
 40
4.0
 40
4.0
 40
4.0
 40
4.0
 10
19.19708839726052
 20
3.225004839385136
 30
0.0
 10
19.97025513975992
 20
3.224991276008136
 30
0.0
 10
20.59708660780795
 20
2.598159807960107
 30
0.0
 10
20.59708660780795
 20
1.824993065460705
 30
0.0
 10
20.59711373456195
 20
1.051785632830303
 30
0.0
 10
19.97028226651392
 20
0.4249541647822743
 30
0.0
 10
19.19706127050652
 20
0.424981291536274
 30
0.0
 10
18.42389452800711
 20
0.4249541647822743
 30
0.0
 10
17.79706305995909
 20
1.051785632830303
 30
0.0
 10
17.79707662333609
 20
1.824993065460705
 30
0.0
 10
17.79706305995909
 20
2.598173371337107
 30
0.0
 10
18.42389452800711
 20
3.224991276008136
 30
0.0
 10
19.19708839726052
 20
3.225004839385136
 30
0.0
  0
SPLINE
  5
66
330
1F
100
AcDbEntity
  8
cut
 62
   250
370
    35
100
AcDbSpline
210
0.0
220
0.0
230
1.0
 70
    11
 71
     3
 72
    17
 73
    13
 74
     0
 42
0.0000000001
 43
0.0000000001
 40
0.0
 40
0.0
 40
0.0
 40
0.0
 40
1.0
 40
1.0
 40
1.0
 40
2.0
 40
2.0
 40
2.0
 40
3.0
 40
3.0
 40
3.0
 40
4.0
 40
4.0
 40
4.0
 40
4.0
 10
19.19706127050652
 20
6.825037052816102
 30
0.0
 10
19.97028226651392
 20
6.825009926062102
 30
0.0
 10
20.59710017118495
 20
6.198205584768072
 30
0.0
 10
20.59707304443095
 20
5.42501171551467
 30
0.0
 10
20.59707304443095
 20
4.651817846261269
 30
0.0
 10
19.97028226651392
 20
4.02498637821324
 30
0.0
 10
19.19706127050652
 20
4.025013504967239
 30
0.0
 10
18.42389452800711
 20
4.02498637821324
 30
0.0
 10
17.79706305995909
 20
4.651817846261269
 30
0.0
 10
17.79706305995909
 20
5.425038842268671
 30
0.0
 10
17.79704271489359
 20
6.198205584768072
 30
0.0
 10
18.42386740125312
 20
6.824996362685102
 30
0.0
 10
19.19706127050652
 20
6.825037052816102
 30
0.0
  0
SPLINE
  5
67
330
1F
100
AcDbEntity
  8
cut
 62
   250
370
    35
100
AcDbSpline
210
0.0
220
0.0
230
1.0
 70
    11
 71
     3
 72
    17
 73
    13
 74
     0
 42
0.0000000001
 43
0.0000000001
 40
0.0
 40
0.0
 40
0.0
 40
0.0
 40
1.0
 40
1.0
 40
1.0
 40
2.0
 40
2.0
 40
2.0
 40
3.0
 40
3.0
 40
3.0
 40
4.0
 40
4.0
 40
4.0
 40
4.0
 10
15.59710365564905
 20
3.224991276008136
 30
0.0
 10
16.37030430659095
 20
3.224991276008136
 30
0.0
 10
16.99709508450798
 20
2.598186934714107
 30
0.0
 10
16.99710864788498
 20
1.824965938706705
 30
0.0
 10
16.99709508450798
 20
1.051772069453304
 30
0.0
 10
16.37030430659095
 20
0.4249677281592741
 30
0.0
 10
15.59711721902605
 20
0.4249677281592741
 30
0.0
 10
14.82390300470715
 20
0.4249948549132738
 30
0.0
 10
14.19711222679012
 20
1.051772069453304
 30
0.0
 10
14.19711222679012
 20
1.824993065460705
 30
0.0
 10
14.19711222679012
 20
2.598173371337107
 30
0.0
 10
14.82391656808415
 20
3.224991276008136
 30
0.0
 10
15.59710365564905
 20
3.224991276008136
 30
0.0
  0
SPLINE
  5
68
330
1F
100
AcDbEntity
  8
cut
 62
   250
370
    35
100
AcDbSpline
210
0.0
220
0.0
230
1.0
 70
    11
 71
     3
 72
    17
 73
    13
 74
     0
 42
0.0000000001
 43
0.0000000001
 40
0.0
 40
0.0
 40
0.0
 40
0.0
 40
1.0
 40
1.0
 40
1.0
 40
2.0
 40
2.0
 40
2.0
 40
3.0
 40
3.0
 40
3.0
 40
4.0
 40
4.0
 40
4.0
 40
4.0
 10
15.59710365564905
 20
6.825023489439102
 30
0.0
 10
16.37029074321395
 20
6.825023489439102
 30
0.0
 10
16.99710186619648
 20
6.198205584768072
 30
0.0
 10
16.99708830281948
 20
5.42502527889167
 30
0.0
 10
16.99711542957348
 20
4.651817846261269
 30
0.0
 10
16.37030430659095
 20
4.02499994159024
 30
0.0
 10
15.59707652889505
 20
4.02499994159024
 30
0.0
 10
14.82390300470715
 20
4.025027068344239
 30
0.0
 10
14.19708510003612
 20
4.651831409638269
 30
0.0
 10
14.19708510003612
 20
5.42501171551467
 30
0.0
 10
14.19709866341312
 20
6.198205584768072
 30
0.0
 10
14.82393013146115
 20
6.825023489439102
 30
0.0
 10
15.59710365564905
 20
6.825023489439102
 30
0.0
  0
SPLINE
  5
69
330
1F
100
AcDbEntity
  8
cut
 62
   250
370
    35
100
AcDbSpline
210
0.0
220
0.0
230
1.0
 70
    11
 71
     3
 72
    89
 73
    85
 74
     0
 42
0.0000000001
 43
0.0000000001
 40
0.0
 40
0.0
 40
0.0
 40
0.0
 40
1.0
 40
1.0
 40
1.0
 40
2.0
 40
2.0
 40
2.0
 40
3.0
 40
3.0
 40
3.0
 40
4.0
 40
4.0
 40
4.0
 40
5.0
 40
5.0
 40
5.0
 40
6.0
 40
6.0
 40
6.0
 40
7.0
 40
7.0
 40
7.0
 40
8.0
 40
8.0
 40
8.0
 40
9.0
 40
9.0
 40
9.0
 40
10.0
 40
10.0
 40
10.0
 40
11.0
 40
11.0
 40
11.0
 40
12.0
 40
12.0
 40
12.0
 40
13.0
 40
13.0
 40
13.0
 40
14.0
 40
14.0
 40
14.0
 40
15.0
 40
15.0
 40
15.0
 40
16.0
 40
16.0
 40
16.0
 40
17.0
 40
17.0
 40
17.0
 40
18.0
 40
18.0
 40
18.0
 40
19.0
 40
19.0
 40
19.0
 40
20.0
 40
20.0
 40
20.0
 40
21.0
 40
21.0
 40
21.0
 40
22.0
 40
22.0
 40
22.0
 40
23.0
 40
23.0
 40
23.0
 40
24.0
 40
24.0
 40
24.0
 40
25.0
 40
25.0
 40
25.0
 40
26.0
 40
26.0
 40
26.0
 40
27.0
 40
27.0
 40
27.0
 40
28.0
 40
28.0
 40
28.0
 40
28.0
 10
19.6299093207027
 20
3.625165151011686
 30
0.0
 10
20.30730505820617
 20
3.865182670401017
 30
0.0
 10
20.79435236289375
 20
4.511097809887834
 30
0.0
 10
20.79690227776972
 20
5.269209203917403
 30
0.0
 10
20.79690227776972
 20
5.269209203917403
 30
0.0
 10
20.58766006079305
 20
5.05992629680973
 30
0.0
 10
20.58766006079305
 20
5.05992629680973
 30
0.0
 10
20.42602529708585
 20
4.442928277086592
 30
0.0
 10
19.86474563007809
 20
3.987632837955655
 30
0.0
 10
19.19700701699852
 20
3.987605711201656
 30
0.0
 10
18.40311543444335
 20
3.987646401332655
 30
0.0
 10
17.75950606904651
 20
4.631215076598498
 30
0.0
 10
17.7594925056695
 20
5.425133785907669
 30
0.0
 10
17.75950606904651
 20
6.080909500473377
 30
0.0
 10
18.19868821630162
 20
6.634091831412225
 30
0.0
 10
18.79893546542995
 20
6.806753620620305
 30
0.0
 10
18.79893546542995
 20
6.806753620620305
 30
0.0
 10
19.01693962394852
 20
7.02479846926988
 30
0.0
 10
19.01693962394852
 20
7.02479846926988
 30
0.0
 10
18.26938053722483
 20
7.012157401906021
 30
0.0
 10
17.63458736687789
 20
6.5284195612064
 30
0.0
 10
17.39698412859454
 20
5.858361610659852
 30
0.0
 10
17.15681741205821
 20
6.535865855179317
 30
0.0
 10
16.51053606139239
 20
7.022845342981902
 30
0.0
 10
15.75224834346183
 20
7.025123990317876
 30
0.0
 10
15.75224834346183
 20
7.025123990317876
 30
0.0
 10
15.9613956167995
 20
6.815976716980202
 30
0.0
 10
15.9613956167995
 20
6.815976716980202
 30
0.0
 10
16.57882766458663
 20
6.654653910943996
 30
0.0
 10
17.03450287827357
 20
6.093102976396241
 30
0.0
 10
17.03446218814257
 20
5.42514734928467
 30
0.0
 10
17.03447575151957
 20
4.631215076598498
 30
0.0
 10
16.39090707625372
 20
3.987605711201656
 30
0.0
 10
15.59696124019055
 20
3.987646401332655
 30
0.0
 10
14.94149748329584
 20
3.987632837955655
 30
0.0
 10
14.38853216638899
 20
4.426353830392777
 30
0.0
 10
14.21558554626391
 20
5.026248431719105
 30
0.0
 10
14.21558554626391
 20
5.026248431719105
 30
0.0
 10
13.99744575397534
 20
5.244415350761679
 30
0.0
 10
13.99744575397534
 20
5.244415350761679
 30
0.0
 10
14.0103716522562
 20
4.49708684144699
 30
0.0
 10
14.49409592957882
 20
3.862551375263046
 30
0.0
 10
15.16404537310937
 20
3.625165151011686
 30
0.0
 10
14.49393316905482
 20
3.387629729613328
 30
0.0
 10
14.0101003847162
 20
2.752822995889387
 30
0.0
 10
13.99741862722134
 20
2.005236782411701
 30
0.0
 10
13.99741862722134
 20
2.005236782411701
 30
0.0
 10
14.21535496885492
 20
2.223173124045277
 30
0.0
 10
14.21535496885492
 20
2.223173124045277
 30
0.0
 10
14.388003194686
 20
2.823433936550602
 30
0.0
 10
14.94118552562485
 20
3.262670337313717
 30
0.0
 10
15.59700193032155
 20
3.262670337313717
 30
0.0
 10
16.39087994949972
 20
3.262670337313717
 30
0.0
 10
17.03446218814257
 20
2.619074535293874
 30
0.0
 10
17.03448931489656
 20
1.825142262607703
 30
0.0
 10
17.03447575151957
 20
1.157471466413128
 30
0.0
 10
16.57924812927363
 20
0.5961646726513703
 30
0.0
 10
15.96223654617349
 20
0.4345705990751673
 30
0.0
 10
15.96223654617349
 20
0.4345705990751673
 30
0.0
 10
15.75287225880382
 20
0.2251791849514959
 30
0.0
 10
15.75287225880382
 20
0.2251791849514959
 30
0.0
 10
16.51091583594839
 20
0.227688409696468
 30
0.0
 10
17.15688522894321
 20
0.7146136439910531
 30
0.0
 10
17.39699769197154
 20
1.391955127986521
 30
0.0
 10
17.6345059866159
 20
0.7220192478329707
 30
0.0
 10
18.26906857955384
 20
0.238389914149349
 30
0.0
 10
19.01631570860653
 20
0.2255182693764921
 30
0.0
 10
19.01631570860653
 20
0.2255182693764921
 30
0.0
 10
18.79799959241695
 20
0.4438479489430641
 30
0.0
 10
18.79799959241695
 20
0.4438479489430641
 30
0.0
 10
18.19822706148362
 20
0.616781005691141
 30
0.0
 10
17.7595196324235
 20
1.169705632466992
 30
0.0
 10
17.75950606904651
 20
1.825169389361703
 30
0.0
 10
17.7595196324235
 20
2.619060971916875
 30
0.0
 10
18.40308830768935
 20
3.262670337313717
 30
0.0
 10
19.19700701699852
 20
3.262670337313717
 30
0.0
 10
19.86503046099509
 20
3.262670337313717
 30
0.0
 10
20.42658139554284
 20
2.806913743364785
 30
0.0
 10
20.58791776495605
 20
2.189454568823652
 30
0.0
 10
20.58791776495605
 20
2.189454568823652
 30
0.0
 10
20.79691584114673
 20
1.980442929255976
 30
0.0
 10
20.79691584114673
 20
1.980442929255976
 30
0.0
 10
20.79465075718775
 20
2.738771337317543
 30
0.0
 10
20.30752207223817
 20
3.384998434475357
 30
0.0
 10
19.6299093207027
 20
3.625165151011686
 30
0.0
  0
POLYLINE
  5
6A
330
1F
100
AcDbEntity
  8
cut
 62
   250
370
    35
100
AcDb2dPolyline
 66
     1
 10
0.0
 20
0.0
 30
0.0
  0
VERTEX
  5
6B
330
6A
100
AcDbEntity
  8
cut
 62
   250
370
    35
100
AcDbVertex
100
AcDb2dVertex
 10
17.18973572803684
 20
3.71472412934169
 30
0.0
  0
VERTEX
  5
BC
330
6A
100
AcDbEntity
  8
0
100
AcDbVertex
100
AcDb2dVertex
 10
17.18973572803684
 20
3.71472412934169
 30
0.0
  0
SEQEND
  5
6C
330
6A
100
AcDbEntity
  8
cut
370
    35
  0
POLYLINE
  5
6D
330
1F
100
AcDbEntity
  8
cut
 62
   250
370
    35
100
AcDb2dPolyline
 66
     1
 10
0.0
 20
0.0
 30
0.0
  0
VERTEX
  5
6E
330
6D
100
AcDbEntity
  8
cut
 62
   250
370
    35
100
AcDbVertex
100
AcDb2dVertex
 10
17.30758791078853
 20
3.417699736421993
 30
0.0
  0
VERTEX
  5
BD
330
6D
100
AcDbEntity
  8
0
100
AcDbVertex
100
AcDb2dVertex
 10
17.30758791078853
 20
3.417699736421993
 30
0.0
  0
SEQEND
  5
6F
330
6D
100
AcDbEntity
  8
cut
370
    35
  0
POLYLINE
  5
70
330
1F
100
AcDbEntity
  8
cut
 62
   250
370
    35
100
AcDb2dPolyline
 66
     1
 10
0.0
 20
0.0
 30
0.0
  0
VERTEX
  5
71
330
70
100
AcDbEntity
  8
cut
 62
   250
370
    35
100
AcDbVertex
100
AcDb2dVertex
 10
17.48673299420254
 20
3.83254918533938
 30
0.0
  0
VERTEX
  5
BE
330
70
100
AcDbEntity
  8
0
100
AcDbVertex
100
AcDb2dVertex
 10
17.48673299420254
 20
3.83254918533938
 30
0.0
  0
SEQEND
  5
72
330
70
100
AcDbEntity
  8
cut
370
    35
  0
POLYLINE
  5
73
330
1F
100
AcDbEntity
  8
cut
 62
   250
370
    35
100
AcDb2dPolyline
 66
     1
 10
0.0
 20
0.0
 30
0.0
  0
VERTEX
  5
74
330
73
100
AcDbEntity
  8
cut
 62
   250
370
    35
100
AcDbVertex
100
AcDb2dVertex
 10
17.48216213615359
 20
3.87749821671688
 30
0.0
  0
VERTEX
  5
BF
330
73
100
AcDbEntity
  8
0
100
AcDbVertex
100
AcDb2dVertex
 10
17.48216213615359
 20
3.87749821671688
 30
0.0
  0
SEQEND
  5
75
330
73
100
AcDbEntity
  8
cut
370
    35
  0
SPLINE
  5
76
330
1F
100
AcDbEntity
  8
cut
 62
   250
370
    35
100
AcDbSpline
210
0.0
220
0.0
230
1.0
 70
     8
 71
     3
 72
   110
 73
   106
 74
     0
 42
0.0000000001
 43
0.0000000001
 40
0.0
 40
0.0
 40
0.0
 40
0.0
 40
1.0
 40
1.0
 40
1.0
 40
2.0
 40
2.0
 40
2.0
 40
3.0
 40
3.0
 40
3.0
 40
4.0
 40
4.0
 40
4.0
 40
5.0
 40
5.0
 40
5.0
 40
6.0
 40
6.0
 40
6.0
 40
7.0
 40
7.0
 40
7.0
 40
8.0
 40
8.0
 40
8.0
 40
9.0
 40
9.0
 40
9.0
 40
10.0
 40
10.0
 40
10.0
 40
11.0
 40
11.0
 40
11.0
 40
12.0
 40
12.0
 40
12.0
 40
13.0
 40
13.0
 40
13.0
 40
14.0
 40
14.0
 40
14.0
 40
15.0
 40
15.0
 40
15.0
 40
16.0
 40
16.0
 40
16.0
 40
17.0
 40
17.0
 40
17.0
 40
18.0
 40
18.0
 40
18.0
 40
19.0
 40
19.0
 40
19.0
 40
20.0
 40
20.0
 40
20.0
 40
21.0
 40
21.0
 40
21.0
 40
22.0
 40
22.0
 40
22.0
 40
23.0
 40
23.0
 40
23.0
 40
24.0
 40
24.0
 40
24.0
 40
25.0
 40
25.0
 40
25.0
 40
26.0
 40
26.0
 40
26.0
 40
27.0
 40
27.0
 40
27.0
 40
28.0
 40
28.0
 40
28.0
 40
29.0
 40
29.0
 40
29.0
 40
30.0
 40
30.0
 40
30.0
 40
31.0
 40
31.0
 40
31.0
 40
32.0
 40
32.0
 40
32.0
 40
33.0
 40
33.0
 40
33.0
 40
34.0
 40
34.0
 40
34.0
 40
35.0
 40
35.0
 40
35.0
 40
35.0
 10
16.90376548737202
 20
3.70662679327278
 30
0.0
 10
16.91678632929187
 20
3.786175999376896
 30
0.0
 10
16.94860601173352
 20
3.859391108422081
 30
0.0
 10
16.99450447950101
 20
3.92157919196639
 30
0.0
 10
16.99450447950101
 20
3.92157919196639
 30
0.0
 10
16.98836026972008
 20
3.916099587658451
 30
0.0
 10
16.98836026972008
 20
3.916099587658451
 30
0.0
 10
16.98836026972008
 20
3.916099587658451
 30
0.0
 10
17.10621245247177
 20
4.03395177041014
 30
0.0
 10
17.10621245247177
 20
4.03395177041014
 30
0.0
 10
17.10621245247177
 20
4.03395177041014
 30
0.0
 10
17.30761503754253
 20
3.83257631209338
 30
0.0
 10
17.30761503754253
 20
3.83257631209338
 30
0.0
 10
17.30761503754253
 20
3.83257631209338
 30
0.0
 10
17.31213164208348
 20
3.826554172705447
 30
0.0
 10
17.31213164208348
 20
3.826554172705447
 30
0.0
 10
17.31213164208348
 20
3.826554172705447
 30
0.0
 10
17.31213164208348
 20
4.730064968173399
 30
0.0
 10
17.31211807870648
 20
4.730064968173399
 30
0.0
 10
17.31211807870648
 20
4.730064968173399
 30
0.0
 10
17.48213500939959
 20
4.730159911812398
 30
0.0
 10
17.48213500939959
 20
4.730159911812398
 30
0.0
 10
17.48213500939959
 20
4.730159911812398
 30
0.0
 10
17.48216213615359
 20
4.121652566091165
 30
0.0
 10
17.48216213615359
 20
4.121652566091165
 30
0.0
 10
17.48216213615359
 20
4.121652566091165
 30
0.0
 10
17.48194512212159
 20
4.117976890924206
 30
0.0
 10
17.48194512212159
 20
4.117976890924206
 30
0.0
 10
17.5621453703217
 20
4.104277880154358
 30
0.0
 10
17.63578094405388
 20
4.071481634568722
 30
0.0
 10
17.69809109799119
 20
4.024457406510246
 30
0.0
 10
17.69809109799119
 20
4.024457406510246
 30
0.0
 10
17.6881084525193
 20
4.033924643656141
 30
0.0
 10
17.6881084525193
 20
4.033924643656141
 30
0.0
 10
17.6881084525193
 20
4.033924643656141
 30
0.0
 10
17.80591994513999
 20
3.916113151035451
 30
0.0
 10
17.80591994513999
 20
3.916113151035451
 30
0.0
 10
17.80591994513999
 20
3.916113151035451
 30
0.0
 10
17.60454448682323
 20
3.71473769271869
 30
0.0
 10
17.60454448682323
 20
3.71473769271869
 30
0.0
 10
17.60454448682323
 20
3.71473769271869
 30
0.0
 10
17.59854947418929
 20
3.710180398046741
 30
0.0
 10
17.59854947418929
 20
3.710180398046741
 30
0.0
 10
17.59854947418929
 20
3.710180398046741
 30
0.0
 10
18.50212808654225
 20
3.710166834669741
 30
0.0
 10
18.50212808654225
 20
3.710166834669741
 30
0.0
 10
18.50212808654225
 20
3.710166834669741
 30
0.0
 10
18.50214164991925
 20
3.540149903976631
 30
0.0
 10
18.50214164991925
 20
3.540149903976631
 30
0.0
 10
18.50214164991925
 20
3.540149903976631
 30
0.0
 10
17.89196600882703
 20
3.540163467353631
 30
0.0
 10
17.89196600882703
 20
3.540163467353631
 30
0.0
 10
17.89196600882703
 20
3.540163467353631
 30
0.0
 10
17.89089450204404
 20
3.54571088854657
 30
0.0
 10
17.89089450204404
 20
3.54571088854657
 30
0.0
 10
17.87851113884318
 20
3.468114808730432
 30
0.0
 10
17.84826480813352
 20
3.396459488040229
 30
0.0
 10
17.804522917309
 20
3.335125897246912
 30
0.0
 10
17.804522917309
 20
3.335125897246912
 30
0.0
 10
17.80596063527099
 20
3.334203587610922
 30
0.0
 10
17.80596063527099
 20
3.334203587610922
 30
0.0
 10
17.80596063527099
 20
3.334203587610922
 30
0.0
 10
17.6881084525193
 20
3.216351404859232
 30
0.0
 10
17.6881084525193
 20
3.216351404859232
 30
0.0
 10
17.6881084525193
 20
3.216351404859232
 30
0.0
 10
17.48671943082554
 20
3.417699736421993
 30
0.0
 10
17.48671943082554
 20
3.417699736421993
 30
0.0
 10
17.48671943082554
 20
3.417699736421993
 30
0.0
 10
17.48216213615359
 20
3.416790990163003
 30
0.0
 10
17.48216213615359
 20
3.416790990163003
 30
0.0
 10
17.48216213615359
 20
3.416790990163003
 30
0.0
 10
17.48216213615359
 20
2.520170390210974
 30
0.0
 10
17.48216213615359
 20
2.520170390210974
 30
0.0
 10
17.48216213615359
 20
2.520170390210974
 30
0.0
 10
17.31214520546048
 20
2.520156826833974
 30
0.0
 10
17.31214520546048
 20
2.520156826833974
 30
0.0
 10
17.31214520546048
 20
2.520156826833974
 30
0.0
 10
17.31214520546048
 20
3.132651805393163
 30
0.0
 10
17.31214520546048
 20
3.132651805393163
 30
0.0
 10
17.31214520546048
 20
3.132651805393163
 30
0.0
 10
17.3104090932045
 20
3.132624678639163
 30
0.0
 10
17.3104090932045
 20
3.132624678639163
 30
0.0
 10
17.23212128116137
 20
3.146323689409011
 30
0.0
 10
17.16014043942317
 20
3.178224752112656
 30
0.0
 10
17.09894248239985
 20
3.22377057207815
 30
0.0
 10
17.09894248239985
 20
3.22377057207815
 30
0.0
 10
17.10619888909477
 20
3.216364968236232
 30
0.0
 10
17.10619888909477
 20
3.216364968236232
 30
0.0
 10
17.10619888909477
 20
3.216364968236232
 30
0.0
 10
16.98837383309708
 20
3.334190024233922
 30
0.0
 10
16.98837383309708
 20
3.334190024233922
 30
0.0
 10
16.98837383309708
 20
3.334190024233922
 30
0.0
 10
17.18973572803684
 20
3.535592609304682
 30
0.0
 10
17.18973572803684
 20
3.535592609304682
 30
0.0
 10
17.18973572803684
 20
3.535592609304682
 30
0.0
 10
17.19053596727983
 20
3.540149903976631
 30
0.0
 10
17.19053596727983
 20
3.540149903976631
 30
0.0
 10
17.19053596727983
 20
3.540149903976631
 30
0.0
 10
16.29213856494082
 20
3.540149903976631
 30
0.0
 10
16.29213856494082
 20
3.540149903976631
 30
0.0
 10
16.29213856494082
 20
3.540149903976631
 30
0.0
 10
16.29221994520282
 20
3.710153271292741
 30
0.0
 10
16.29221994520282
 20
3.710153271292741
 30
0.0
 10
16.29221994520282
 20
3.710153271292741
 30
0.0
 10
16.90641034588699
 20
3.710153271292741
 30
0.0
 10
16.90641034588699
 20
3.710153271292741
 30
0.0
  0
SPLINE
  5
77
330
1F
100
AcDbEntity
  8
cut
 62
   250
370
    35
100
AcDbSpline
210
0.0
220
0.0
230
1.0
 70
    11
 71
     3
 72
    17
 73
    13
 74
     0
 42
0.0000000001
 43
0.0000000001
 40
0.0
 40
0.0
 40
0.0
 40
0.0
 40
1.0
 40
1.0
 40
1.0
 40
2.0
 40
2.0
 40
2.0
 40
3.0
 40
3.0
 40
3.0
 40
4.0
 40
4.0
 40
4.0
 40
4.0
 10
26.0509204994473
 20
3.199993972197414
 30
0.0
 10
26.81027972416085
 20
3.199980408820414
 30
0.0
 10
27.42590784280701
 20
2.584352290174261
 30
0.0
 10
27.42590784280701
 20
1.824993065460705
 30
0.0
 10
27.42593496956101
 20
1.06559315061615
 30
0.0
 10
26.81030685091485
 20
0.4499650319699961
 30
0.0
 10
26.0508933726933
 20
0.4499921587239958
 30
0.0
 10
25.29153414797974
 20
0.4499650319699961
 30
0.0
 10
24.67589246595659
 20
1.06559315061615
 30
0.0
 10
24.67590602933359
 20
1.824993065460705
 30
0.0
 10
24.67589246595659
 20
2.58436585355126
 30
0.0
 10
25.29153414797974
 20
3.199980408820414
 30
0.0
 10
26.0509204994473
 20
3.199993972197414
 30
0.0
  0
SPLINE
  5
78
330
1F
100
AcDbEntity
  8
cut
 62
   250
370
    35
100
AcDbSpline
210
0.0
220
0.0
230
1.0
 70
    11
 71
     3
 72
    17
 73
    13
 74
     0
 42
0.0000000001
 43
0.0000000001
 40
0.0
 40
0.0
 40
0.0
 40
0.0
 40
1.0
 40
1.0
 40
1.0
 40
2.0
 40
2.0
 40
2.0
 40
3.0
 40
3.0
 40
3.0
 40
4.0
 40
4.0
 40
4.0
 40
4.0
 10
26.0508933726933
 20
6.800026185628379
 30
0.0
 10
26.81030685091485
 20
6.80001262225138
 30
0.0
 10
27.42593496956101
 20
6.184398066982226
 30
0.0
 10
27.42590784280701
 20
5.42501171551467
 30
0.0
 10
27.42590784280701
 20
4.665625364047115
 30
0.0
 10
26.81030685091485
 20
4.049997245400961
 30
0.0
 10
26.0508933726933
 20
4.050024372154962
 30
0.0
 10
25.29153414797974
 20
4.049997245400961
 30
0.0
 10
24.67590602933359
 20
4.665625364047115
 30
0.0
 10
24.67590602933359
 20
5.425038842268671
 30
0.0
 10
24.67587890257959
 20
6.184398066982226
 30
0.0
 10
25.29150702122574
 20
6.79999905887438
 30
0.0
 10
26.0508933726933
 20
6.800026185628379
 30
0.0
  0
SPLINE
  5
79
330
1F
100
AcDbEntity
  8
cut
 62
   250
370
    35
100
AcDbSpline
210
0.0
220
0.0
230
1.0
 70
    11
 71
     3
 72
    17
 73
    13
 74
     0
 42
0.0000000001
 43
0.0000000001
 40
0.0
 40
0.0
 40
0.0
 40
0.0
 40
1.0
 40
1.0
 40
1.0
 40
2.0
 40
2.0
 40
2.0
 40
3.0
 40
3.0
 40
3.0
 40
4.0
 40
4.0
 40
4.0
 40
4.0
 10
22.45094253952433
 20
3.199980408820414
 30
0.0
 10
23.21032889099189
 20
3.199980408820414
 30
0.0
 10
23.82594344626104
 20
2.58437941692826
 30
0.0
 10
23.82594344626104
 20
1.824965938706705
 30
0.0
 10
23.82594344626104
 20
1.06557958723915
 30
0.0
 10
23.21032889099189
 20
0.449978595346996
 30
0.0
 10
22.45094253952433
 20
0.449978595346996
 30
0.0
 10
21.69154262467978
 20
0.4499921587239958
 30
0.0
 10
21.07594163278762
 20
1.06557958723915
 30
0.0
 10
21.07594163278762
 20
1.824993065460705
 30
0.0
 10
21.07594163278762
 20
2.58436585355126
 30
0.0
 10
21.69155618805678
 20
3.199980408820414
 30
0.0
 10
22.45094253952433
 20
3.199980408820414
 30
0.0
  0
SPLINE
  5
7A
330
1F
100
AcDbEntity
  8
cut
 62
   250
370
    35
100
AcDbSpline
210
0.0
220
0.0
230
1.0
 70
    11
 71
     3
 72
    17
 73
    13
 74
     0
 42
0.0000000001
 43
0.0000000001
 40
0.0
 40
0.0
 40
0.0
 40
0.0
 40
1.0
 40
1.0
 40
1.0
 40
2.0
 40
2.0
 40
2.0
 40
3.0
 40
3.0
 40
3.0
 40
4.0
 40
4.0
 40
4.0
 40
4.0
 10
22.45094253952433
 20
6.800026185628379
 30
0.0
 10
23.21032889099189
 20
6.800026185628379
 30
0.0
 10
23.82594344626104
 20
6.184398066982226
 30
0.0
 10
23.82591631950704
 20
5.42502527889167
 30
0.0
 10
23.82594344626104
 20
4.665625364047115
 30
0.0
 10
23.21032889099189
 20
4.050010808777961
 30
0.0
 10
22.45091541277033
 20
4.050010808777961
 30
0.0
 10
21.69152906130278
 20
4.050024372154962
 30
0.0
 10
21.07591450603362
 20
4.665638927424116
 30
0.0
 10
21.07591450603362
 20
5.42501171551467
 30
0.0
 10
21.07594163278762
 20
6.184398066982226
 30
0.0
 10
21.69155618805678
 20
6.800026185628379
 30
0.0
 10
22.45094253952433
 20
6.800026185628379
 30
0.0
  0
SPLINE
  5
7B
330
1F
100
AcDbEntity
  8
cut
 62
   250
370
    35
100
AcDbSpline
210
0.0
220
0.0
230
1.0
 70
    11
 71
     3
 72
    89
 73
    85
 74
     0
 42
0.0000000001
 43
0.0000000001
 40
0.0
 40
0.0
 40
0.0
 40
0.0
 40
1.0
 40
1.0
 40
1.0
 40
2.0
 40
2.0
 40
2.0
 40
3.0
 40
3.0
 40
3.0
 40
4.0
 40
4.0
 40
4.0
 40
5.0
 40
5.0
 40
5.0
 40
6.0
 40
6.0
 40
6.0
 40
7.0
 40
7.0
 40
7.0
 40
8.0
 40
8.0
 40
8.0
 40
9.0
 40
9.0
 40
9.0
 40
10.0
 40
10.0
 40
10.0
 40
11.0
 40
11.0
 40
11.0
 40
12.0
 40
12.0
 40
12.0
 40
13.0
 40
13.0
 40
13.0
 40
14.0
 40
14.0
 40
14.0
 40
15.0
 40
15.0
 40
15.0
 40
16.0
 40
16.0
 40
16.0
 40
17.0
 40
17.0
 40
17.0
 40
18.0
 40
18.0
 40
18.0
 40
19.0
 40
19.0
 40
19.0
 40
20.0
 40
20.0
 40
20.0
 40
21.0
 40
21.0
 40
21.0
 40
22.0
 40
22.0
 40
22.0
 40
23.0
 40
23.0
 40
23.0
 40
24.0
 40
24.0
 40
24.0
 40
25.0
 40
25.0
 40
25.0
 40
26.0
 40
26.0
 40
26.0
 40
27.0
 40
27.0
 40
27.0
 40
28.0
 40
28.0
 40
28.0
 40
28.0
 10
26.48374142288948
 20
3.625165151011686
 30
0.0
 10
27.16113716039295
 20
3.865182670401017
 30
0.0
 10
27.64818446508054
 20
4.511097809887834
 30
0.0
 10
27.65073437995651
 20
5.269209203917403
 30
0.0
 10
27.65073437995651
 20
5.269209203917403
 30
0.0
 10
27.44149216297983
 20
5.05992629680973
 30
0.0
 10
27.44149216297983
 20
5.05992629680973
 30
0.0
 10
27.27985739927263
 20
4.442928277086592
 30
0.0
 10
26.71857773226487
 20
3.987632837955655
 30
0.0
 10
26.0508391191853
 20
3.987605711201656
 30
0.0
 10
25.25694753663013
 20
3.987646401332655
 30
0.0
 10
24.61333817123328
 20
4.631215076598498
 30
0.0
 10
24.61332460785628
 20
5.425133785907669
 30
0.0
 10
24.61333817123328
 20
6.080909500473377
 30
0.0
 10
25.0525203184884
 20
6.634091831412225
 30
0.0
 10
25.65276756761673
 20
6.806753620620305
 30
0.0
 10
25.65276756761673
 20
6.806753620620305
 30
0.0
 10
25.8707717261353
 20
7.02479846926988
 30
0.0
 10
25.8707717261353
 20
7.02479846926988
 30
0.0
 10
25.12321263941162
 20
7.012157401906021
 30
0.0
 10
24.48841946906467
 20
6.5284195612064
 30
0.0
 10
24.25081623078132
 20
5.858361610659852
 30
0.0
 10
24.01064951424499
 20
6.535865855179317
 30
0.0
 10
23.36436816357918
 20
7.022845342981902
 30
0.0
 10
22.60608044564861
 20
7.025123990317876
 30
0.0
 10
22.60608044564861
 20
7.025123990317876
 30
0.0
 10
22.81522771898628
 20
6.815976716980202
 30
0.0
 10
22.81522771898628
 20
6.815976716980202
 30
0.0
 10
23.43265976677342
 20
6.654653910943996
 30
0.0
 10
23.88833498046035
 20
6.093102976396241
 30
0.0
 10
23.88829429032935
 20
5.42514734928467
 30
0.0
 10
23.88830785370635
 20
4.631215076598498
 30
0.0
 10
23.2447391784405
 20
3.987605711201656
 30
0.0
 10
22.45079334237733
 20
3.987646401332655
 30
0.0
 10
21.79532958548262
 20
3.987632837955655
 30
0.0
 10
21.24236426857577
 20
4.426353830392777
 30
0.0
 10
21.0694176484507
 20
5.026248431719105
 30
0.0
 10
21.0694176484507
 20
5.026248431719105
 30
0.0
 10
20.85127785616212
 20
5.244415350761679
 30
0.0
 10
20.85127785616212
 20
5.244415350761679
 30
0.0
 10
20.86420375444298
 20
4.49708684144699
 30
0.0
 10
21.3479280317656
 20
3.862551375263046
 30
0.0
 10
22.01787747529615
 20
3.625165151011686
 30
0.0
 10
21.3477652712416
 20
3.387629729613328
 30
0.0
 10
20.86393248690298
 20
2.752822995889387
 30
0.0
 10
20.85125072940812
 20
2.005236782411701
 30
0.0
 10
20.85125072940812
 20
2.005236782411701
 30
0.0
 10
21.0691870710417
 20
2.223173124045277
 30
0.0
 10
21.0691870710417
 20
2.223173124045277
 30
0.0
 10
21.24183529687278
 20
2.823433936550602
 30
0.0
 10
21.79501762781163
 20
3.262670337313717
 30
0.0
 10
22.45083403250833
 20
3.262670337313717
 30
0.0
 10
23.24471205168651
 20
3.262670337313717
 30
0.0
 10
23.88829429032935
 20
2.619074535293874
 30
0.0
 10
23.88832141708335
 20
1.825142262607703
 30
0.0
 10
23.88830785370635
 20
1.157471466413128
 30
0.0
 10
23.43308023146041
 20
0.5961646726513703
 30
0.0
 10
22.81606864836027
 20
0.4345705990751673
 30
0.0
 10
22.81606864836027
 20
0.4345705990751673
 30
0.0
 10
22.6067043609906
 20
0.2251791849514959
 30
0.0
 10
22.6067043609906
 20
0.2251791849514959
 30
0.0
 10
23.36474793813517
 20
0.227688409696468
 30
0.0
 10
24.01071733112999
 20
0.7146136439910531
 30
0.0
 10
24.25082979415832
 20
1.391955127986521
 30
0.0
 10
24.48833808880267
 20
0.7220192478329707
 30
0.0
 10
25.12290068174062
 20
0.238389914149349
 30
0.0
 10
25.87014781079331
 20
0.2255182693764921
 30
0.0
 10
25.87014781079331
 20
0.2255182693764921
 30
0.0
 10
25.65183169460374
 20
0.4438479489430641
 30
0.0
 10
25.65183169460374
 20
0.4438479489430641
 30
0.0
 10
25.05205916367041
 20
0.616781005691141
 30
0.0
 10
24.61335173461028
 20
1.169705632466992
 30
0.0
 10
24.61333817123328
 20
1.825169389361703
 30
0.0
 10
24.61335173461028
 20
2.619060971916875
 30
0.0
 10
25.25692040987613
 20
3.262670337313717
 30
0.0
 10
26.0508391191853
 20
3.262670337313717
 30
0.0
 10
26.71886256318187
 20
3.262670337313717
 30
0.0
 10
27.28041349772963
 20
2.806913743364785
 30
0.0
 10
27.44174986714283
 20
2.189454568823652
 30
0.0
 10
27.44174986714283
 20
2.189454568823652
 30
0.0
 10
27.65074794333351
 20
1.980442929255976
 30
0.0
 10
27.65074794333351
 20
1.980442929255976
 30
0.0
 10
27.64848285937453
 20
2.738771337317543
 30
0.0
 10
27.16135417442495
 20
3.384998434475357
 30
0.0
 10
26.48374142288948
 20
3.625165151011686
 30
0.0
  0
POLYLINE
  5
7C
330
1F
100
AcDbEntity
  8
cut
 62
   250
370
    35
100
AcDb2dPolyline
 66
     1
 10
0.0
 20
0.0
 30
0.0
  0
VERTEX
  5
7D
330
7C
100
AcDbEntity
  8
cut
 62
   250
370
    35
100
AcDbVertex
100
AcDb2dVertex
 10
24.04356783022362
 20
3.71472412934169
 30
0.0
  0
VERTEX
  5
C0
330
7C
100
AcDbEntity
  8
0
100
AcDbVertex
100
AcDb2dVertex
 10
24.04356783022362
 20
3.71472412934169
 30
0.0
  0
SEQEND
  5
7E
330
7C
100
AcDbEntity
  8
cut
370
    35
  0
POLYLINE
  5
7F
330
1F
100
AcDbEntity
  8
cut
 62
   250
370
    35
100
AcDb2dPolyline
 66
     1
 10
0.0
 20
0.0
 30
0.0
  0
VERTEX
  5
80
330
7F
100
AcDbEntity
  8
cut
 62
   250
370
    35
100
AcDbVertex
100
AcDb2dVertex
 10
24.16142001297531
 20
3.417699736421993
 30
0.0
  0
VERTEX
  5
C1
330
7F
100
AcDbEntity
  8
0
100
AcDbVertex
100
AcDb2dVertex
 10
24.16142001297531
 20
3.417699736421993
 30
0.0
  0
SEQEND
  5
81
330
7F
100
AcDbEntity
  8
cut
370
    35
  0
POLYLINE
  5
82
330
1F
100
AcDbEntity
  8
cut
 62
   250
370
    35
100
AcDb2dPolyline
 66
     1
 10
0.0
 20
0.0
 30
0.0
  0
VERTEX
  5
83
330
82
100
AcDbEntity
  8
cut
 62
   250
370
    35
100
AcDbVertex
100
AcDb2dVertex
 10
24.34056509638932
 20
3.83254918533938
 30
0.0
  0
VERTEX
  5
C2
330
82
100
AcDbEntity
  8
0
100
AcDbVertex
100
AcDb2dVertex
 10
24.34056509638932
 20
3.83254918533938
 30
0.0
  0
SEQEND
  5
84
330
82
100
AcDbEntity
  8
cut
370
    35
  0
POLYLINE
  5
85
330
1F
100
AcDbEntity
  8
cut
 62
   250
370
    35
100
AcDb2dPolyline
 66
     1
 10
0.0
 20
0.0
 30
0.0
  0
VERTEX
  5
86
330
85
100
AcDbEntity
  8
cut
 62
   250
370
    35
100
AcDbVertex
100
AcDb2dVertex
 10
24.33599423834037
 20
3.87749821671688
 30
0.0
  0
VERTEX
  5
C3
330
85
100
AcDbEntity
  8
0
100
AcDbVertex
100
AcDb2dVertex
 10
24.33599423834037
 20
3.87749821671688
 30
0.0
  0
SEQEND
  5
87
330
85
100
AcDbEntity
  8
cut
370
    35
  0
SPLINE
  5
88
330
1F
100
AcDbEntity
  8
cut
 62
   250
370
    35
100
AcDbSpline
210
0.0
220
0.0
230
1.0
 70
     8
 71
     3
 72
   110
 73
   106
 74
     0
 42
0.0000000001
 43
0.0000000001
 40
0.0
 40
0.0
 40
0.0
 40
0.0
 40
1.0
 40
1.0
 40
1.0
 40
2.0
 40
2.0
 40
2.0
 40
3.0
 40
3.0
 40
3.0
 40
4.0
 40
4.0
 40
4.0
 40
5.0
 40
5.0
 40
5.0
 40
6.0
 40
6.0
 40
6.0
 40
7.0
 40
7.0
 40
7.0
 40
8.0
 40
8.0
 40
8.0
 40
9.0
 40
9.0
 40
9.0
 40
10.0
 40
10.0
 40
10.0
 40
11.0
 40
11.0
 40
11.0
 40
12.0
 40
12.0
 40
12.0
 40
13.0
 40
13.0
 40
13.0
 40
14.0
 40
14.0
 40
14.0
 40
15.0
 40
15.0
 40
15.0
 40
16.0
 40
16.0
 40
16.0
 40
17.0
 40
17.0
 40
17.0
 40
18.0
 40
18.0
 40
18.0
 40
19.0
 40
19.0
 40
19.0
 40
20.0
 40
20.0
 40
20.0
 40
21.0
 40
21.0
 40
21.0
 40
22.0
 40
22.0
 40
22.0
 40
23.0
 40
23.0
 40
23.0
 40
24.0
 40
24.0
 40
24.0
 40
25.0
 40
25.0
 40
25.0
 40
26.0
 40
26.0
 40
26.0
 40
27.0
 40
27.0
 40
27.0
 40
28.0
 40
28.0
 40
28.0
 40
29.0
 40
29.0
 40
29.0
 40
30.0
 40
30.0
 40
30.0
 40
31.0
 40
31.0
 40
31.0
 40
32.0
 40
32.0
 40
32.0
 40
33.0
 40
33.0
 40
33.0
 40
34.0
 40
34.0
 40
34.0
 40
35.0
 40
35.0
 40
35.0
 40
35.0
 10
23.7575975895588
 20
3.70662679327278
 30
0.0
 10
23.77061843147866
 20
3.786175999376896
 30
0.0
 10
23.8024381139203
 20
3.859391108422081
 30
0.0
 10
23.84833658168779
 20
3.92157919196639
 30
0.0
 10
23.84833658168779
 20
3.92157919196639
 30
0.0
 10
23.84219237190686
 20
3.916099587658451
 30
0.0
 10
23.84219237190686
 20
3.916099587658451
 30
0.0
 10
23.84219237190686
 20
3.916099587658451
 30
0.0
 10
23.96004455465855
 20
4.03395177041014
 30
0.0
 10
23.96004455465855
 20
4.03395177041014
 30
0.0
 10
23.96004455465855
 20
4.03395177041014
 30
0.0
 10
24.16144713972931
 20
3.83257631209338
 30
0.0
 10
24.16144713972931
 20
3.83257631209338
 30
0.0
 10
24.16144713972931
 20
3.83257631209338
 30
0.0
 10
24.16596374427026
 20
3.826554172705447
 30
0.0
 10
24.16596374427026
 20
3.826554172705447
 30
0.0
 10
24.16596374427026
 20
3.826554172705447
 30
0.0
 10
24.16596374427026
 20
4.730064968173399
 30
0.0
 10
24.16595018089326
 20
4.730064968173399
 30
0.0
 10
24.16595018089326
 20
4.730064968173399
 30
0.0
 10
24.33596711158637
 20
4.730159911812398
 30
0.0
 10
24.33596711158637
 20
4.730159911812398
 30
0.0
 10
24.33596711158637
 20
4.730159911812398
 30
0.0
 10
24.33599423834037
 20
4.121652566091165
 30
0.0
 10
24.33599423834037
 20
4.121652566091165
 30
0.0
 10
24.33599423834037
 20
4.121652566091165
 30
0.0
 10
24.33577722430837
 20
4.117976890924206
 30
0.0
 10
24.33577722430837
 20
4.117976890924206
 30
0.0
 10
24.41597747250848
 20
4.104277880154358
 30
0.0
 10
24.48961304624066
 20
4.071481634568722
 30
0.0
 10
24.55192320017797
 20
4.024457406510246
 30
0.0
 10
24.55192320017797
 20
4.024457406510246
 30
0.0
 10
24.54194055470608
 20
4.033924643656141
 30
0.0
 10
24.54194055470608
 20
4.033924643656141
 30
0.0
 10
24.54194055470608
 20
4.033924643656141
 30
0.0
 10
24.65975204732677
 20
3.916113151035451
 30
0.0
 10
24.65975204732677
 20
3.916113151035451
 30
0.0
 10
24.65975204732677
 20
3.916113151035451
 30
0.0
 10
24.45837658901001
 20
3.71473769271869
 30
0.0
 10
24.45837658901001
 20
3.71473769271869
 30
0.0
 10
24.45837658901001
 20
3.71473769271869
 30
0.0
 10
24.45238157637608
 20
3.710180398046741
 30
0.0
 10
24.45238157637608
 20
3.710180398046741
 30
0.0
 10
24.45238157637608
 20
3.710180398046741
 30
0.0
 10
25.35596018872902
 20
3.710166834669741
 30
0.0
 10
25.35596018872902
 20
3.710166834669741
 30
0.0
 10
25.35596018872902
 20
3.710166834669741
 30
0.0
 10
25.35597375210603
 20
3.540149903976631
 30
0.0
 10
25.35597375210603
 20
3.540149903976631
 30
0.0
 10
25.35597375210603
 20
3.540149903976631
 30
0.0
 10
24.74579811101381
 20
3.540163467353631
 30
0.0
 10
24.74579811101381
 20
3.540163467353631
 30
0.0
 10
24.74579811101381
 20
3.540163467353631
 30
0.0
 10
24.74472660423082
 20
3.54571088854657
 30
0.0
 10
24.74472660423082
 20
3.54571088854657
 30
0.0
 10
24.73234324102996
 20
3.468114808730432
 30
0.0
 10
24.7020969103203
 20
3.396459488040229
 30
0.0
 10
24.65835501949578
 20
3.335125897246912
 30
0.0
 10
24.65835501949578
 20
3.335125897246912
 30
0.0
 10
24.65979273745777
 20
3.334203587610922
 30
0.0
 10
24.65979273745777
 20
3.334203587610922
 30
0.0
 10
24.65979273745777
 20
3.334203587610922
 30
0.0
 10
24.54194055470608
 20
3.216351404859232
 30
0.0
 10
24.54194055470608
 20
3.216351404859232
 30
0.0
 10
24.54194055470608
 20
3.216351404859232
 30
0.0
 10
24.34055153301232
 20
3.417699736421993
 30
0.0
 10
24.34055153301232
 20
3.417699736421993
 30
0.0
 10
24.34055153301232
 20
3.417699736421993
 30
0.0
 10
24.33599423834037
 20
3.416790990163003
 30
0.0
 10
24.33599423834037
 20
3.416790990163003
 30
0.0
 10
24.33599423834037
 20
3.416790990163003
 30
0.0
 10
24.33599423834037
 20
2.520170390210974
 30
0.0
 10
24.33599423834037
 20
2.520170390210974
 30
0.0
 10
24.33599423834037
 20
2.520170390210974
 30
0.0
 10
24.16597730764726
 20
2.520156826833974
 30
0.0
 10
24.16597730764726
 20
2.520156826833974
 30
0.0
 10
24.16597730764726
 20
2.520156826833974
 30
0.0
 10
24.16597730764726
 20
3.132651805393163
 30
0.0
 10
24.16597730764726
 20
3.132651805393163
 30
0.0
 10
24.16597730764726
 20
3.132651805393163
 30
0.0
 10
24.16424119539128
 20
3.132624678639163
 30
0.0
 10
24.16424119539128
 20
3.132624678639163
 30
0.0
 10
24.08595338334815
 20
3.146323689409011
 30
0.0
 10
24.01397254160995
 20
3.178224752112656
 30
0.0
 10
23.95277458458663
 20
3.22377057207815
 30
0.0
 10
23.95277458458663
 20
3.22377057207815
 30
0.0
 10
23.96003099128155
 20
3.216364968236232
 30
0.0
 10
23.96003099128155
 20
3.216364968236232
 30
0.0
 10
23.96003099128155
 20
3.216364968236232
 30
0.0
 10
23.84220593528386
 20
3.334190024233922
 30
0.0
 10
23.84220593528386
 20
3.334190024233922
 30
0.0
 10
23.84220593528386
 20
3.334190024233922
 30
0.0
 10
24.04356783022362
 20
3.535592609304682
 30
0.0
 10
24.04356783022362
 20
3.535592609304682
 30
0.0
 10
24.04356783022362
 20
3.535592609304682
 30
0.0
 10
24.04436806946661
 20
3.540149903976631
 30
0.0
 10
24.04436806946661
 20
3.540149903976631
 30
0.0
 10
24.04436806946661
 20
3.540149903976631
 30
0.0
 10
23.1459706671276
 20
3.540149903976631
 30
0.0
 10
23.1459706671276
 20
3.540149903976631
 30
0.0
 10
23.1459706671276
 20
3.540149903976631
 30
0.0
 10
23.1460520473896
 20
3.710153271292741
 30
0.0
 10
23.1460520473896
 20
3.710153271292741
 30
0.0
 10
23.1460520473896
 20
3.710153271292741
 30
0.0
 10
23.76024244807377
 20
3.710153271292741
 30
0.0
 10
23.76024244807377
 20
3.710153271292741
 30
0.0
  0
SPLINE
  5
89
330
1F
100
AcDbEntity
  8
cut
 62
   250
370
    35
100
AcDbSpline
210
0.0
220
0.0
230
1.0
 70
    11
 71
     3
 72
    89
 73
    85
 74
     0
 42
0.0000000001
 43
0.0000000001
 40
0.0
 40
0.0
 40
0.0
 40
0.0
 40
1.0
 40
1.0
 40
1.0
 40
2.0
 40
2.0
 40
2.0
 40
3.0
 40
3.0
 40
3.0
 40
4.0
 40
4.0
 40
4.0
 40
5.0
 40
5.0
 40
5.0
 40
6.0
 40
6.0
 40
6.0
 40
7.0
 40
7.0
 40
7.0
 40
8.0
 40
8.0
 40
8.0
 40
9.0
 40
9.0
 40
9.0
 40
10.0
 40
10.0
 40
10.0
 40
11.0
 40
11.0
 40
11.0
 40
12.0
 40
12.0
 40
12.0
 40
13.0
 40
13.0
 40
13.0
 40
14.0
 40
14.0
 40
14.0
 40
15.0
 40
15.0
 40
15.0
 40
16.0
 40
16.0
 40
16.0
 40
17.0
 40
17.0
 40
17.0
 40
18.0
 40
18.0
 40
18.0
 40
19.0
 40
19.0
 40
19.0
 40
20.0
 40
20.0
 40
20.0
 40
21.0
 40
21.0
 40
21.0
 40
22.0
 40
22.0
 40
22.0
 40
23.0
 40
23.0
 40
23.0
 40
24.0
 40
24.0
 40
24.0
 40
25.0
 40
25.0
 40
25.0
 40
26.0
 40
26.0
 40
26.0
 40
27.0
 40
27.0
 40
27.0
 40
28.0
 40
28.0
 40
28.0
 40
28.0
 10
33.40007356629157
 20
3.625165151011686
 30
0.0
 10
34.07746930379504
 20
3.865182670401017
 30
0.0
 10
34.56451660848262
 20
4.511097809887834
 30
0.0
 10
34.56706652335859
 20
5.269209203917403
 30
0.0
 10
34.56706652335859
 20
5.269209203917403
 30
0.0
 10
34.35782430638192
 20
5.05992629680973
 30
0.0
 10
34.35782430638192
 20
5.05992629680973
 30
0.0
 10
34.19618954267472
 20
4.442928277086592
 30
0.0
 10
33.63490987566696
 20
3.987632837955655
 30
0.0
 10
32.96717126258739
 20
3.987605711201656
 30
0.0
 10
32.17327968003222
 20
3.987646401332655
 30
0.0
 10
31.52967031463537
 20
4.631215076598498
 30
0.0
 10
31.52965675125837
 20
5.425133785907669
 30
0.0
 10
31.52967031463537
 20
6.080909500473377
 30
0.0
 10
31.96885246189049
 20
6.634091831412225
 30
0.0
 10
32.56909971101881
 20
6.806753620620305
 30
0.0
 10
32.56909971101881
 20
6.806753620620305
 30
0.0
 10
32.78710386953739
 20
7.02479846926988
 30
0.0
 10
32.78710386953739
 20
7.02479846926988
 30
0.0
 10
32.0395447828137
 20
7.012157401906021
 30
0.0
 10
31.40475161246676
 20
6.5284195612064
 30
0.0
 10
31.1671483741834
 20
5.858361610659852
 30
0.0
 10
30.92698165764707
 20
6.535865855179317
 30
0.0
 10
30.28070030698126
 20
7.022845342981902
 30
0.0
 10
29.52241258905069
 20
7.025123990317876
 30
0.0
 10
29.52241258905069
 20
7.025123990317876
 30
0.0
 10
29.73155986238837
 20
6.815976716980202
 30
0.0
 10
29.73155986238837
 20
6.815976716980202
 30
0.0
 10
30.3489919101755
 20
6.654653910943996
 30
0.0
 10
30.80466712386243
 20
6.093102976396241
 30
0.0
 10
30.80462643373144
 20
5.42514734928467
 30
0.0
 10
30.80463999710843
 20
4.631215076598498
 30
0.0
 10
30.16107132184259
 20
3.987605711201656
 30
0.0
 10
29.36712548577942
 20
3.987646401332655
 30
0.0
 10
28.71166172888471
 20
3.987632837955655
 30
0.0
 10
28.15869641197786
 20
4.426353830392777
 30
0.0
 10
27.98574979185278
 20
5.026248431719105
 30
0.0
 10
27.98574979185278
 20
5.026248431719105
 30
0.0
 10
27.76760999956421
 20
5.244415350761679
 30
0.0
 10
27.76760999956421
 20
5.244415350761679
 30
0.0
 10
27.78053589784506
 20
4.49708684144699
 30
0.0
 10
28.26426017516768
 20
3.862551375263046
 30
0.0
 10
28.93420961869823
 20
3.625165151011686
 30
0.0
 10
28.26409741464369
 20
3.387629729613328
 30
0.0
 10
27.78026463030507
 20
2.752822995889387
 30
0.0
 10
27.76758287281021
 20
2.005236782411701
 30
0.0
 10
27.76758287281021
 20
2.005236782411701
 30
0.0
 10
27.98551921444378
 20
2.223173124045277
 30
0.0
 10
27.98551921444378
 20
2.223173124045277
 30
0.0
 10
28.15816744027487
 20
2.823433936550602
 30
0.0
 10
28.71134977121371
 20
3.262670337313717
 30
0.0
 10
29.36716617591042
 20
3.262670337313717
 30
0.0
 10
30.16104419508859
 20
3.262670337313717
 30
0.0
 10
30.80462643373144
 20
2.619074535293874
 30
0.0
 10
30.80465356048543
 20
1.825142262607703
 30
0.0
 10
30.80463999710843
 20
1.157471466413128
 30
0.0
 10
30.3494123748625
 20
0.5961646726513703
 30
0.0
 10
29.73240079176236
 20
0.4345705990751673
 30
0.0
 10
29.73240079176236
 20
0.4345705990751673
 30
0.0
 10
29.52303650439269
 20
0.2251791849514959
 30
0.0
 10
29.52303650439269
 20
0.2251791849514959
 30
0.0
 10
30.28108008153726
 20
0.227688409696468
 30
0.0
 10
30.92704947453207
 20
0.7146136439910531
 30
0.0
 10
31.1671619375604
 20
1.391955127986521
 30
0.0
 10
31.40467023220476
 20
0.7220192478329707
 30
0.0
 10
32.0392328251427
 20
0.238389914149349
 30
0.0
 10
32.78647995419539
 20
0.2255182693764921
 30
0.0
 10
32.78647995419539
 20
0.2255182693764921
 30
0.0
 10
32.56816383800582
 20
0.4438479489430641
 30
0.0
 10
32.56816383800582
 20
0.4438479489430641
 30
0.0
 10
31.96839130707249
 20
0.616781005691141
 30
0.0
 10
31.52968387801237
 20
1.169705632466992
 30
0.0
 10
31.52967031463537
 20
1.825169389361703
 30
0.0
 10
31.52968387801237
 20
2.619060971916875
 30
0.0
 10
32.17325255327822
 20
3.262670337313717
 30
0.0
 10
32.96717126258739
 20
3.262670337313717
 30
0.0
 10
33.63519470658396
 20
3.262670337313717
 30
0.0
 10
34.19674564113171
 20
2.806913743364785
 30
0.0
 10
34.35808201054492
 20
2.189454568823652
 30
0.0
 10
34.35808201054492
 20
2.189454568823652
 30
0.0
 10
34.56708008673559
 20
1.980442929255976
 30
0.0
 10
34.56708008673559
 20
1.980442929255976
 30
0.0
 10
34.56481500277662
 20
2.738771337317543
 30
0.0
 10
34.07768631782704
 20
3.384998434475357
 30
0.0
 10
33.40007356629157
 20
3.625165151011686
 30
0.0
  0
POLYLINE
  5
8A
330
1F
100
AcDbEntity
  8
cut
 62
   250
370
    35
100
AcDb2dPolyline
 66
     1
 10
0.0
 20
0.0
 30
0.0
  0
VERTEX
  5
8B
330
8A
100
AcDbEntity
  8
cut
 62
   250
370
    35
100
AcDbVertex
100
AcDb2dVertex
 10
30.95989997362571
 20
3.71472412934169
 30
0.0
  0
VERTEX
  5
C4
330
8A
100
AcDbEntity
  8
0
100
AcDbVertex
100
AcDb2dVertex
 10
30.95989997362571
 20
3.71472412934169
 30
0.0
  0
SEQEND
  5
8C
330
8A
100
AcDbEntity
  8
cut
370
    35
  0
POLYLINE
  5
8D
330
1F
100
AcDbEntity
  8
cut
 62
   250
370
    35
100
AcDb2dPolyline
 66
     1
 10
0.0
 20
0.0
 30
0.0
  0
VERTEX
  5
8E
330
8D
100
AcDbEntity
  8
cut
 62
   250
370
    35
100
AcDbVertex
100
AcDb2dVertex
 10
31.0777521563774
 20
3.417699736421993
 30
0.0
  0
VERTEX
  5
C5
330
8D
100
AcDbEntity
  8
0
100
AcDbVertex
100
AcDb2dVertex
 10
31.0777521563774
 20
3.417699736421993
 30
0.0
  0
SEQEND
  5
8F
330
8D
100
AcDbEntity
  8
cut
370
    35
  0
POLYLINE
  5
90
330
1F
100
AcDbEntity
  8
cut
 62
   250
370
    35
100
AcDb2dPolyline
 66
     1
 10
0.0
 20
0.0
 30
0.0
  0
VERTEX
  5
91
330
90
100
AcDbEntity
  8
cut
 62
   250
370
    35
100
AcDbVertex
100
AcDb2dVertex
 10
31.2568972397914
 20
3.83254918533938
 30
0.0
  0
VERTEX
  5
C6
330
90
100
AcDbEntity
  8
0
100
AcDbVertex
100
AcDb2dVertex
 10
31.2568972397914
 20
3.83254918533938
 30
0.0
  0
SEQEND
  5
92
330
90
100
AcDbEntity
  8
cut
370
    35
  0
POLYLINE
  5
93
330
1F
100
AcDbEntity
  8
cut
 62
   250
370
    35
100
AcDb2dPolyline
 66
     1
 10
0.0
 20
0.0
 30
0.0
  0
VERTEX
  5
94
330
93
100
AcDbEntity
  8
cut
 62
   250
370
    35
100
AcDbVertex
100
AcDb2dVertex
 10
31.25232638174246
 20
3.87749821671688
 30
0.0
  0
VERTEX
  5
C7
330
93
100
AcDbEntity
  8
0
100
AcDbVertex
100
AcDb2dVertex
 10
31.25232638174246
 20
3.87749821671688
 30
0.0
  0
SEQEND
  5
95
330
93
100
AcDbEntity
  8
cut
370
    35
  0
SPLINE
  5
96
330
1F
100
AcDbEntity
  8
cut
 62
   250
370
    35
100
AcDbSpline
210
0.0
220
0.0
230
1.0
 70
     8
 71
     3
 72
   110
 73
   106
 74
     0
 42
0.0000000001
 43
0.0000000001
 40
0.0
 40
0.0
 40
0.0
 40
0.0
 40
1.0
 40
1.0
 40
1.0
 40
2.0
 40
2.0
 40
2.0
 40
3.0
 40
3.0
 40
3.0
 40
4.0
 40
4.0
 40
4.0
 40
5.0
 40
5.0
 40
5.0
 40
6.0
 40
6.0
 40
6.0
 40
7.0
 40
7.0
 40
7.0
 40
8.0
 40
8.0
 40
8.0
 40
9.0
 40
9.0
 40
9.0
 40
10.0
 40
10.0
 40
10.0
 40
11.0
 40
11.0
 40
11.0
 40
12.0
 40
12.0
 40
12.0
 40
13.0
 40
13.0
 40
13.0
 40
14.0
 40
14.0
 40
14.0
 40
15.0
 40
15.0
 40
15.0
 40
16.0
 40
16.0
 40
16.0
 40
17.0
 40
17.0
 40
17.0
 40
18.0
 40
18.0
 40
18.0
 40
19.0
 40
19.0
 40
19.0
 40
20.0
 40
20.0
 40
20.0
 40
21.0
 40
21.0
 40
21.0
 40
22.0
 40
22.0
 40
22.0
 40
23.0
 40
23.0
 40
23.0
 40
24.0
 40
24.0
 40
24.0
 40
25.0
 40
25.0
 40
25.0
 40
26.0
 40
26.0
 40
26.0
 40
27.0
 40
27.0
 40
27.0
 40
28.0
 40
28.0
 40
28.0
 40
29.0
 40
29.0
 40
29.0
 40
30.0
 40
30.0
 40
30.0
 40
31.0
 40
31.0
 40
31.0
 40
32.0
 40
32.0
 40
32.0
 40
33.0
 40
33.0
 40
33.0
 40
34.0
 40
34.0
 40
34.0
 40
35.0
 40
35.0
 40
35.0
 40
35.0
 10
30.67392973296089
 20
3.70662679327278
 30
0.0
 10
30.68695057488074
 20
3.786175999376896
 30
0.0
 10
30.71877025732239
 20
3.859391108422081
 30
0.0
 10
30.76466872508988
 20
3.92157919196639
 30
0.0
 10
30.76466872508988
 20
3.92157919196639
 30
0.0
 10
30.75852451530895
 20
3.916099587658451
 30
0.0
 10
30.75852451530895
 20
3.916099587658451
 30
0.0
 10
30.75852451530895
 20
3.916099587658451
 30
0.0
 10
30.87637669806064
 20
4.03395177041014
 30
0.0
 10
30.87637669806064
 20
4.03395177041014
 30
0.0
 10
30.87637669806064
 20
4.03395177041014
 30
0.0
 10
31.0777792831314
 20
3.83257631209338
 30
0.0
 10
31.0777792831314
 20
3.83257631209338
 30
0.0
 10
31.0777792831314
 20
3.83257631209338
 30
0.0
 10
31.08229588767234
 20
3.826554172705447
 30
0.0
 10
31.08229588767234
 20
3.826554172705447
 30
0.0
 10
31.08229588767234
 20
3.826554172705447
 30
0.0
 10
31.08229588767234
 20
4.730064968173399
 30
0.0
 10
31.08228232429535
 20
4.730064968173399
 30
0.0
 10
31.08228232429535
 20
4.730064968173399
 30
0.0
 10
31.25229925498845
 20
4.730159911812398
 30
0.0
 10
31.25229925498845
 20
4.730159911812398
 30
0.0
 10
31.25229925498845
 20
4.730159911812398
 30
0.0
 10
31.25232638174246
 20
4.121652566091165
 30
0.0
 10
31.25232638174246
 20
4.121652566091165
 30
0.0
 10
31.25232638174246
 20
4.121652566091165
 30
0.0
 10
31.25210936771046
 20
4.117976890924206
 30
0.0
 10
31.25210936771046
 20
4.117976890924206
 30
0.0
 10
31.33230961591057
 20
4.104277880154358
 30
0.0
 10
31.40594518964275
 20
4.071481634568722
 30
0.0
 10
31.46825534358005
 20
4.024457406510246
 30
0.0
 10
31.46825534358005
 20
4.024457406510246
 30
0.0
 10
31.45827269810816
 20
4.033924643656141
 30
0.0
 10
31.45827269810816
 20
4.033924643656141
 30
0.0
 10
31.45827269810816
 20
4.033924643656141
 30
0.0
 10
31.57608419072886
 20
3.916113151035451
 30
0.0
 10
31.57608419072886
 20
3.916113151035451
 30
0.0
 10
31.57608419072886
 20
3.916113151035451
 30
0.0
 10
31.3747087324121
 20
3.71473769271869
 30
0.0
 10
31.3747087324121
 20
3.71473769271869
 30
0.0
 10
31.3747087324121
 20
3.71473769271869
 30
0.0
 10
31.36871371977816
 20
3.710180398046741
 30
0.0
 10
31.36871371977816
 20
3.710180398046741
 30
0.0
 10
31.36871371977816
 20
3.710180398046741
 30
0.0
 10
32.27229233213112
 20
3.710166834669741
 30
0.0
 10
32.27229233213112
 20
3.710166834669741
 30
0.0
 10
32.27229233213112
 20
3.710166834669741
 30
0.0
 10
32.27230589550811
 20
3.540149903976631
 30
0.0
 10
32.27230589550811
 20
3.540149903976631
 30
0.0
 10
32.27230589550811
 20
3.540149903976631
 30
0.0
 10
31.6621302544159
 20
3.540163467353631
 30
0.0
 10
31.6621302544159
 20
3.540163467353631
 30
0.0
 10
31.6621302544159
 20
3.540163467353631
 30
0.0
 10
31.66105874763291
 20
3.54571088854657
 30
0.0
 10
31.66105874763291
 20
3.54571088854657
 30
0.0
 10
31.64867538443205
 20
3.468114808730432
 30
0.0
 10
31.61842905372238
 20
3.396459488040229
 30
0.0
 10
31.57468716289787
 20
3.335125897246912
 30
0.0
 10
31.57468716289787
 20
3.335125897246912
 30
0.0
 10
31.57612488085985
 20
3.334203587610922
 30
0.0
 10
31.57612488085985
 20
3.334203587610922
 30
0.0
 10
31.57612488085985
 20
3.334203587610922
 30
0.0
 10
31.45827269810816
 20
3.216351404859232
 30
0.0
 10
31.45827269810816
 20
3.216351404859232
 30
0.0
 10
31.45827269810816
 20
3.216351404859232
 30
0.0
 10
31.2568836764144
 20
3.417699736421993
 30
0.0
 10
31.2568836764144
 20
3.417699736421993
 30
0.0
 10
31.2568836764144
 20
3.417699736421993
 30
0.0
 10
31.25232638174246
 20
3.416790990163003
 30
0.0
 10
31.25232638174246
 20
3.416790990163003
 30
0.0
 10
31.25232638174246
 20
3.416790990163003
 30
0.0
 10
31.25232638174246
 20
2.520170390210974
 30
0.0
 10
31.25232638174246
 20
2.520170390210974
 30
0.0
 10
31.25232638174246
 20
2.520170390210974
 30
0.0
 10
31.08230945104935
 20
2.520156826833974
 30
0.0
 10
31.08230945104935
 20
2.520156826833974
 30
0.0
 10
31.08230945104935
 20
2.520156826833974
 30
0.0
 10
31.08230945104935
 20
3.132651805393163
 30
0.0
 10
31.08230945104935
 20
3.132651805393163
 30
0.0
 10
31.08230945104935
 20
3.132651805393163
 30
0.0
 10
31.08057333879336
 20
3.132624678639163
 30
0.0
 10
31.08057333879336
 20
3.132624678639163
 30
0.0
 10
31.00228552675024
 20
3.146323689409011
 30
0.0
 10
30.93030468501204
 20
3.178224752112656
 30
0.0
 10
30.86910672798872
 20
3.22377057207815
 30
0.0
 10
30.86910672798872
 20
3.22377057207815
 30
0.0
 10
30.87636313468364
 20
3.216364968236232
 30
0.0
 10
30.87636313468364
 20
3.216364968236232
 30
0.0
 10
30.87636313468364
 20
3.216364968236232
 30
0.0
 10
30.75853807868595
 20
3.334190024233922
 30
0.0
 10
30.75853807868595
 20
3.334190024233922
 30
0.0
 10
30.75853807868595
 20
3.334190024233922
 30
0.0
 10
30.95989997362571
 20
3.535592609304682
 30
0.0
 10
30.95989997362571
 20
3.535592609304682
 30
0.0
 10
30.95989997362571
 20
3.535592609304682
 30
0.0
 10
30.9607002128687
 20
3.540149903976631
 30
0.0
 10
30.9607002128687
 20
3.540149903976631
 30
0.0
 10
30.9607002128687
 20
3.540149903976631
 30
0.0
 10
30.06230281052969
 20
3.540149903976631
 30
0.0
 10
30.06230281052969
 20
3.540149903976631
 30
0.0
 10
30.06230281052969
 20
3.540149903976631
 30
0.0
 10
30.06238419079169
 20
3.710153271292741
 30
0.0
 10
30.06238419079169
 20
3.710153271292741
 30
0.0
 10
30.06238419079169
 20
3.710153271292741
 30
0.0
 10
30.67657459147586
 20
3.710153271292741
 30
0.0
 10
30.67657459147586
 20
3.710153271292741
 30
0.0
  0
SPLINE
  5
98
330
1F
100
AcDbEntity
  8
score2
 62
   250
370
    35
100
AcDbSpline
210
0.0
220
0.0
230
1.0
 70
    11
 71
     3
 72
    17
 73
    13
 74
     0
 42
0.0000000001
 43
0.0000000001
 40
0.0
 40
0.0
 40
0.0
 40
0.0
 40
1.0
 40
1.0
 40
1.0
 40
2.0
 40
2.0
 40
2.0
 40
3.0
 40
3.0
 40
3.0
 40
4.0
 40
4.0
 40
4.0
 40
4.0
 10
2.544747229334701
 20
3.625083770749687
 30
0.0
 10
2.544692975826702
 20
4.235354355480901
 30
0.0
 10
3.039484968781199
 20
4.730146348435398
 30
0.0
 10
3.649796243643412
 20
4.730092094927398
 30
0.0
 10
4.259971884735626
 20
4.730146348435398
 30
0.0
 10
4.754736750936124
 20
4.2353814822349
 30
0.0
 10
4.754682497428125
 20
3.625192277765686
 30
0.0
 10
4.754736750936124
 20
3.014894566280473
 30
0.0
 10
4.260039701620626
 20
2.520156826833974
 30
0.0
 10
3.649660609873413
 20
2.520156826833974
 30
0.0
 10
3.0394578420272
 20
2.520116136702975
 30
0.0
 10
2.544692975826702
 20
3.014894566280473
 30
0.0
 10
2.544747229334701
 20
3.625083770749687
 30
0.0
  0
SPLINE
  5
99
330
1F
100
AcDbEntity
  8
score2
 62
   250
370
    35
100
AcDbSpline
210
0.0
220
0.0
230
1.0
 70
    11
 71
     3
 72
    17
 73
    13
 74
     0
 42
0.0000000001
 43
0.0000000001
 40
0.0
 40
0.0
 40
0.0
 40
0.0
 40
1.0
 40
1.0
 40
1.0
 40
2.0
 40
2.0
 40
2.0
 40
3.0
 40
3.0
 40
3.0
 40
4.0
 40
4.0
 40
4.0
 40
4.0
 10
2.587227726098229
 20
3.625083770749687
 30
0.0
 10
2.587173472590229
 20
4.211903276648161
 30
0.0
 10
3.062936047613938
 20
4.687665851671871
 30
0.0
 10
3.649782680266412
 20
4.687611598163871
 30
0.0
 10
4.236480115771887
 20
4.687665851671871
 30
0.0
 10
4.712256254172597
 20
4.211903276648161
 30
0.0
 10
4.712202000664598
 20
3.625165151011686
 30
0.0
 10
4.712256254172597
 20
3.038359208490212
 30
0.0
 10
4.236588622787886
 20
2.562637323597502
 30
0.0
 10
3.649674173250414
 20
2.562637323597502
 30
0.0
 10
3.062949610990938
 20
2.562596633466502
 30
0.0
 10
2.587187035967229
 20
3.038386335244212
 30
0.0
 10
2.587227726098229
 20
3.625083770749687
 30
0.0
  0
SPLINE
  5
9A
330
1F
100
AcDbEntity
  8
score2
 62
   250
370
    35
100
AcDbSpline
210
0.0
220
0.0
230
1.0
 70
    11
 71
     3
 72
    17
 73
    13
 74
     0
 42
0.0000000001
 43
0.0000000001
 40
0.0
 40
0.0
 40
0.0
 40
0.0
 40
1.0
 40
1.0
 40
1.0
 40
2.0
 40
2.0
 40
2.0
 40
3.0
 40
3.0
 40
3.0
 40
4.0
 40
4.0
 40
4.0
 40
4.0
 10
16.29216569169482
 20
3.625083770749687
 30
0.0
 10
16.29211143818682
 20
4.235354355480901
 30
0.0
 10
16.78690343114132
 20
4.730146348435398
 30
0.0
 10
17.39721470600353
 20
4.730092094927398
 30
0.0
 10
18.00739034709575
 20
4.730146348435398
 30
0.0
 10
18.50215521329624
 20
4.2353814822349
 30
0.0
 10
18.50210095978824
 20
3.625192277765686
 30
0.0
 10
18.50215521329624
 20
3.014894566280473
 30
0.0
 10
18.00745816398075
 20
2.520156826833974
 30
0.0
 10
17.39707907223353
 20
2.520156826833974
 30
0.0
 10
16.78687630438732
 20
2.520116136702975
 30
0.0
 10
16.29211143818682
 20
3.014894566280473
 30
0.0
 10
16.29216569169482
 20
3.625083770749687
 30
0.0
  0
SPLINE
  5
9B
330
1F
100
AcDbEntity
  8
score2
 62
   250
370
    35
100
AcDbSpline
210
0.0
220
0.0
230
1.0
 70
    11
 71
     3
 72
    17
 73
    13
 74
     0
 42
0.0000000001
 43
0.0000000001
 40
0.0
 40
0.0
 40
0.0
 40
0.0
 40
1.0
 40
1.0
 40
1.0
 40
2.0
 40
2.0
 40
2.0
 40
3.0
 40
3.0
 40
3.0
 40
4.0
 40
4.0
 40
4.0
 40
4.0
 10
23.1459977938816
 20
3.625083770749687
 30
0.0
 10
23.1459435403736
 20
4.235354355480901
 30
0.0
 10
23.6407355333281
 20
4.730146348435398
 30
0.0
 10
24.25104680819031
 20
4.730092094927398
 30
0.0
 10
24.86122244928253
 20
4.730146348435398
 30
0.0
 10
25.35598731548303
 20
4.2353814822349
 30
0.0
 10
25.35593306197503
 20
3.625192277765686
 30
0.0
 10
25.35598731548303
 20
3.014894566280473
 30
0.0
 10
24.86129026616753
 20
2.520156826833974
 30
0.0
 10
24.25091117442032
 20
2.520156826833974
 30
0.0
 10
23.6407084065741
 20
2.520116136702975
 30
0.0
 10
23.1459435403736
 20
3.014894566280473
 30
0.0
 10
23.1459977938816
 20
3.625083770749687
 30
0.0
  0
SPLINE
  5
9C
330
1F
100
AcDbEntity
  8
score2
 62
   250
370
    35
100
AcDbSpline
210
0.0
220
0.0
230
1.0
 70
    11
 71
     3
 72
    17
 73
    13
 74
     0
 42
0.0000000001
 43
0.0000000001
 40
0.0
 40
0.0
 40
0.0
 40
0.0
 40
1.0
 40
1.0
 40
1.0
 40
2.0
 40
2.0
 40
2.0
 40
3.0
 40
3.0
 40
3.0
 40
4.0
 40
4.0
 40
4.0
 40
4.0
 10
23.18846472726813
 20
3.625083770749687
 30
0.0
 10
23.18841047376013
 20
4.211903276648161
 30
0.0
 10
23.66418661216084
 20
4.68767941504887
 30
0.0
 10
24.25104680819031
 20
4.687625161540871
 30
0.0
 10
24.83777137044979
 20
4.68767941504887
 30
0.0
 10
25.3135203820965
 20
4.211930403402161
 30
0.0
 10
25.3134661285885
 20
3.625192277765686
 30
0.0
 10
25.3135203820965
 20
3.038345645113212
 30
0.0
 10
24.83782562395779
 20
2.562623760220502
 30
0.0
 10
24.25091117442032
 20
2.562623760220502
 30
0.0
 10
23.66415948540684
 20
2.562583070089503
 30
0.0
 10
23.18841047376013
 20
3.038345645113212
 30
0.0
 10
23.18846472726813
 20
3.625083770749687
 30
0.0
  0
SPLINE
  5
9D
330
1F
100
AcDbEntity
  8
score2
 62
   250
370
    35
100
AcDbSpline
210
0.0
220
0.0
230
1.0
 70
    11
 71
     3
 72
    17
 73
    13
 74
     0
 42
0.0000000001
 43
0.0000000001
 40
0.0
 40
0.0
 40
0.0
 40
0.0
 40
1.0
 40
1.0
 40
1.0
 40
2.0
 40
2.0
 40
2.0
 40
3.0
 40
3.0
 40
3.0
 40
4.0
 40
4.0
 40
4.0
 40
4.0
 10
30.06232993728369
 20
3.625083770749687
 30
0.0
 10
30.06227568377569
 20
4.235354355480901
 30
0.0
 10
30.55706767673019
 20
4.730146348435398
 30
0.0
 10
31.1673789515924
 20
4.730092094927398
 30
0.0
 10
31.77755459268462
 20
4.730146348435398
 30
0.0
 10
32.27231945888511
 20
4.2353814822349
 30
0.0
 10
32.27226520537711
 20
3.625192277765686
 30
0.0
 10
32.27231945888511
 20
3.014894566280473
 30
0.0
 10
31.77762240956961
 20
2.520156826833974
 30
0.0
 10
31.1672433178224
 20
2.520156826833974
 30
0.0
 10
30.55704054997619
 20
2.520116136702975
 30
0.0
 10
30.06227568377569
 20
3.014894566280473
 30
0.0
 10
30.06232993728369
 20
3.625083770749687
 30
0.0
  0
SPLINE
  5
9E
330
1F
100
AcDbEntity
  8
score2
 62
   250
370
    35
100
AcDbSpline
210
0.0
220
0.0
230
1.0
 70
    11
 71
     3
 72
    17
 73
    13
 74
     0
 42
0.0000000001
 43
0.0000000001
 40
0.0
 40
0.0
 40
0.0
 40
0.0
 40
1.0
 40
1.0
 40
1.0
 40
2.0
 40
2.0
 40
2.0
 40
3.0
 40
3.0
 40
3.0
 40
4.0
 40
4.0
 40
4.0
 40
4.0
 10
30.10479687067022
 20
3.625083770749687
 30
0.0
 10
30.10475618053922
 20
4.211903276648161
 30
0.0
 10
30.58051875556293
 20
4.68767941504887
 30
0.0
 10
31.1673653882154
 20
4.687625161540871
 30
0.0
 10
31.75410351385188
 20
4.68767941504887
 30
0.0
 10
32.22985252549859
 20
4.211930403402161
 30
0.0
 10
32.22979827199059
 20
3.625192277765686
 30
0.0
 10
32.22985252549859
 20
3.038345645113212
 30
0.0
 10
31.75415776735987
 20
2.562623760220502
 30
0.0
 10
31.1672568811994
 20
2.562623760220502
 30
0.0
 10
30.58049162880893
 20
2.562583070089503
 30
0.0
 10
30.10475618053922
 20
3.038345645113212
 30
0.0
 10
30.10479687067022
 20
3.625083770749687
 30
0.0
  0
SPLINE
  5
9F
330
1F
100
AcDbEntity
  8
score2
 62
   250
370
    35
100
AcDbSpline
210
0.0
220
0.0
230
1.0
 70
    11
 71
     3
 72
    17
 73
    13
 74
     0
 42
0.0000000001
 43
0.0000000001
 40
0.0
 40
0.0
 40
0.0
 40
0.0
 40
1.0
 40
1.0
 40
1.0
 40
2.0
 40
2.0
 40
2.0
 40
3.0
 40
3.0
 40
3.0
 40
4.0
 40
4.0
 40
4.0
 40
4.0
 10
2.587227726098229
 20
3.625083770749687
 30
0.0
 10
2.587173472590229
 20
4.211903276648161
 30
0.0
 10
3.062936047613938
 20
4.687665851671871
 30
0.0
 10
3.649782680266412
 20
4.687611598163871
 30
0.0
 10
4.236480115771887
 20
4.687665851671871
 30
0.0
 10
4.712256254172597
 20
4.211903276648161
 30
0.0
 10
4.712202000664598
 20
3.625165151011686
 30
0.0
 10
4.712256254172597
 20
3.038359208490212
 30
0.0
 10
4.236588622787886
 20
2.562637323597502
 30
0.0
 10
3.649674173250414
 20
2.562637323597502
 30
0.0
 10
3.062949610990938
 20
2.562596633466502
 30
0.0
 10
2.587187035967229
 20
3.038386335244212
 30
0.0
 10
2.587227726098229
 20
3.625083770749687
 30
0.0
  0
SPLINE
  5
A0
330
1F
100
AcDbEntity
  8
score2
 62
   250
370
    35
100
AcDbSpline
210
0.0
220
0.0
230
1.0
 70
    11
 71
     3
 72
    89
 73
    85
 74
     0
 42
0.0000000001
 43
0.0000000001
 40
0.0
 40
0.0
 40
0.0
 40
0.0
 40
1.0
 40
1.0
 40
1.0
 40
2.0
 40
2.0
 40
2.0
 40
3.0
 40
3.0
 40
3.0
 40
4.0
 40
4.0
 40
4.0
 40
5.0
 40
5.0
 40
5.0
 40
6.0
 40
6.0
 40
6.0
 40
7.0
 40
7.0
 40
7.0
 40
8.0
 40
8.0
 40
8.0
 40
9.0
 40
9.0
 40
9.0
 40
10.0
 40
10.0
 40
10.0
 40
11.0
 40
11.0
 40
11.0
 40
12.0
 40
12.0
 40
12.0
 40
13.0
 40
13.0
 40
13.0
 40
14.0
 40
14.0
 40
14.0
 40
15.0
 40
15.0
 40
15.0
 40
16.0
 40
16.0
 40
16.0
 40
17.0
 40
17.0
 40
17.0
 40
18.0
 40
18.0
 40
18.0
 40
19.0
 40
19.0
 40
19.0
 40
20.0
 40
20.0
 40
20.0
 40
21.0
 40
21.0
 40
21.0
 40
22.0
 40
22.0
 40
22.0
 40
23.0
 40
23.0
 40
23.0
 40
24.0
 40
24.0
 40
24.0
 40
25.0
 40
25.0
 40
25.0
 40
26.0
 40
26.0
 40
26.0
 40
27.0
 40
27.0
 40
27.0
 40
28.0
 40
28.0
 40
28.0
 40
28.0
 10
12.75749539202613
 20
3.636558387691559
 30
0.0
 10
13.4348911295296
 20
3.87657590708089
 30
0.0
 10
13.92193843421718
 20
4.522491046567708
 30
0.0
 10
13.92448834909315
 20
5.280602440597277
 30
0.0
 10
13.92448834909315
 20
5.280602440597277
 30
0.0
 10
13.71524613211648
 20
5.071319533489604
 30
0.0
 10
13.71524613211648
 20
5.071319533489604
 30
0.0
 10
13.55361136840928
 20
4.454321513766465
 30
0.0
 10
12.99233170140152
 20
3.999026074635529
 30
0.0
 10
12.32459308832194
 20
3.998998947881529
 30
0.0
 10
11.53070150576677
 20
3.999039638012528
 30
0.0
 10
10.88709214036993
 20
4.642608313278371
 30
0.0
 10
10.88707857699293
 20
5.436527022587542
 30
0.0
 10
10.88709214036993
 20
6.09230273715325
 30
0.0
 10
11.32627428762505
 20
6.645485068092098
 30
0.0
 10
11.92652153675337
 20
6.818146857300178
 30
0.0
 10
11.92652153675337
 20
6.818146857300178
 30
0.0
 10
12.14452569527195
 20
7.036191705949753
 30
0.0
 10
12.14452569527195
 20
7.036191705949753
 30
0.0
 10
11.39696660854826
 20
7.023550638585894
 30
0.0
 10
10.76217343820132
 20
6.539812797886273
 30
0.0
 10
10.52457019991796
 20
5.869754847339725
 30
0.0
 10
10.28440348338163
 20
6.547259091859191
 30
0.0
 10
9.638122132715818
 20
7.034238579661775
 30
0.0
 10
8.87983441478525
 20
7.036517226997749
 30
0.0
 10
8.87983441478525
 20
7.036517226997749
 30
0.0
 10
9.088981688122924
 20
6.827369953660075
 30
0.0
 10
9.088981688122924
 20
6.827369953660075
 30
0.0
 10
9.70641373591006
 20
6.666047147623869
 30
0.0
 10
10.16208894959699
 20
6.104496213076114
 30
0.0
 10
10.16204825946599
 20
5.436540585964543
 30
0.0
 10
10.16206182284299
 20
4.642608313278371
 30
0.0
 10
9.518493147577148
 20
3.998998947881529
 30
0.0
 10
8.724547311513978
 20
3.999039638012528
 30
0.0
 10
8.069083554619267
 20
3.999026074635529
 30
0.0
 10
7.516118237712416
 20
4.43774706707265
 30
0.0
 10
7.343171617587339
 20
5.037641668398979
 30
0.0
 10
7.343171617587339
 20
5.037641668398979
 30
0.0
 10
7.125031825298765
 20
5.255808587441552
 30
0.0
 10
7.125031825298765
 20
5.255808587441552
 30
0.0
 10
7.137957723579621
 20
4.508480078126863
 30
0.0
 10
7.621682000902243
 20
3.873944611942919
 30
0.0
 10
8.291631444432792
 20
3.636558387691559
 30
0.0
 10
7.621519240378245
 20
3.399022966293201
 30
0.0
 10
7.137686456039624
 20
2.76421623256926
 30
0.0
 10
7.125004698544766
 20
2.016630019091574
 30
0.0
 10
7.125004698544766
 20
2.016630019091574
 30
0.0
 10
7.342941040178342
 20
2.23456636072515
 30
0.0
 10
7.342941040178342
 20
2.23456636072515
 30
0.0
 10
7.515589266009422
 20
2.834827173230475
 30
0.0
 10
8.06877159694827
 20
3.27406357399359
 30
0.0
 10
8.724588001644978
 20
3.27406357399359
 30
0.0
 10
9.51846602082315
 20
3.27406357399359
 30
0.0
 10
10.16204825946599
 20
2.630467771973747
 30
0.0
 10
10.16207538621999
 20
1.836535499287577
 30
0.0
 10
10.16206182284299
 20
1.168864703093002
 30
0.0
 10
9.706834200597054
 20
0.6075579093312435
 30
0.0
 10
9.089822617496916
 20
0.4459638357550406
 30
0.0
 10
9.089822617496916
 20
0.4459638357550406
 30
0.0
 10
8.880458330127244
 20
0.2365724216313692
 30
0.0
 10
8.880458330127244
 20
0.2365724216313692
 30
0.0
 10
9.638501907271815
 20
0.2390816463763413
 30
0.0
 10
10.28447130026663
 20
0.7260068806709263
 30
0.0
 10
10.52458376329496
 20
1.403348364666394
 30
0.0
 10
10.76209205793932
 20
0.733412484512844
 30
0.0
 10
11.39665465087726
 20
0.2497831508292223
 30
0.0
 10
12.14390177992995
 20
0.2369115060563654
 30
0.0
 10
12.14390177992995
 20
0.2369115060563654
 30
0.0
 10
11.92558566374038
 20
0.4552411856229375
 30
0.0
 10
11.92558566374038
 20
0.4552411856229375
 30
0.0
 10
11.32581313280705
 20
0.6281742423710144
 30
0.0
 10
10.88710570374693
 20
1.181098869146866
 30
0.0
 10
10.88709214036993
 20
1.836562626041576
 30
0.0
 10
10.88710570374693
 20
2.630454208596748
 30
0.0
 10
11.53067437901277
 20
3.27406357399359
 30
0.0
 10
12.32459308832194
 20
3.27406357399359
 30
0.0
 10
12.99261653231851
 20
3.27406357399359
 30
0.0
 10
13.55416746686627
 20
2.818306980044659
 30
0.0
 10
13.71550383627948
 20
2.200847805503525
 30
0.0
 10
13.71550383627948
 20
2.200847805503525
 30
0.0
 10
13.92450191247015
 20
1.99183616593585
 30
0.0
 10
13.92450191247015
 20
1.99183616593585
 30
0.0
 10
13.92223682851118
 20
2.750164573997417
 30
0.0
 10
13.43510814356159
 20
3.39639167115523
 30
0.0
 10
12.75749539202613
 20
3.636558387691559
 30
0.0
  0
SPLINE
  5
A1
330
1F
100
AcDbEntity
  8
score2
 62
   250
370
    35
100
AcDbSpline
210
0.0
220
0.0
230
1.0
 70
    11
 71
     3
 72
    17
 73
    13
 74
     0
 42
0.0000000001
 43
0.0000000001
 40
0.0
 40
0.0
 40
0.0
 40
0.0
 40
1.0
 40
1.0
 40
1.0
 40
2.0
 40
2.0
 40
2.0
 40
3.0
 40
3.0
 40
3.0
 40
4.0
 40
4.0
 40
4.0
 40
4.0
 10
9.419751763018247
 20
3.63647700742956
 30
0.0
 10
9.419697509510247
 20
4.246747592160774
 30
0.0
 10
9.914489502464745
 20
4.741539585115271
 30
0.0
 10
10.52480077732696
 20
4.741485331607272
 30
0.0
 10
11.13497641841917
 20
4.741539585115271
 30
0.0
 10
11.62974128461967
 20
4.246774718914773
 30
0.0
 10
11.62968703111167
 20
3.636585514445559
 30
0.0
 10
11.62974128461967
 20
3.026287802960346
 30
0.0
 10
11.13504423530417
 20
2.531550063513848
 30
0.0
 10
10.52466514355696
 20
2.531550063513848
 30
0.0
 10
9.914462375710745
 20
2.531509373382848
 30
0.0
 10
9.419697509510247
 20
3.026287802960346
 30
0.0
 10
9.419751763018247
 20
3.63647700742956
 30
0.0
  0
SPLINE
  5
A2
330
1F
100
AcDbEntity
  8
score2
 62
   250
370
    35
100
AcDbSpline
210
0.0
220
0.0
230
1.0
 70
    11
 71
     3
 72
    17
 73
    13
 74
     0
 42
0.0000000001
 43
0.0000000001
 40
0.0
 40
0.0
 40
0.0
 40
0.0
 40
1.0
 40
1.0
 40
1.0
 40
2.0
 40
2.0
 40
2.0
 40
3.0
 40
3.0
 40
3.0
 40
4.0
 40
4.0
 40
4.0
 40
4.0
 10
9.462232259781775
 20
3.63647700742956
 30
0.0
 10
9.462178006273774
 20
4.223296513328035
 30
0.0
 10
9.937940581297484
 20
4.699059088351744
 30
0.0
 10
10.52478721394996
 20
4.699004834843744
 30
0.0
 10
11.11148464945543
 20
4.699059088351744
 30
0.0
 10
11.58726078785614
 20
4.223296513328035
 30
0.0
 10
11.58720653434814
 20
3.636558387691559
 30
0.0
 10
11.58726078785614
 20
3.049752445170085
 30
0.0
 10
11.11159315647143
 20
2.574030560277375
 30
0.0
 10
10.52467870693396
 20
2.574030560277375
 30
0.0
 10
9.937954144674483
 20
2.573989870146375
 30
0.0
 10
9.462191569650775
 20
3.049779571924085
 30
0.0
 10
9.462232259781775
 20
3.63647700742956
 30
0.0
  0
POLYLINE
  5
A3
330
1F
100
AcDbEntity
  8
score2
 62
   250
370
    35
100
AcDb2dPolyline
 66
     1
 10
0.0
 20
0.0
 30
0.0
  0
VERTEX
  5
A4
330
A3
100
AcDbEntity
  8
score2
 62
   250
370
    35
100
AcDbVertex
100
AcDb2dVertex
 10
10.31732179936026
 20
3.726117366021563
 30
0.0
  0
VERTEX
  5
C8
330
A3
100
AcDbEntity
  8
0
100
AcDbVertex
100
AcDb2dVertex
 10
10.31732179936026
 20
3.726117366021563
 30
0.0
  0
SEQEND
  5
A5
330
A3
100
AcDbEntity
  8
score2
370
    35
  0
POLYLINE
  5
A6
330
1F
100
AcDbEntity
  8
score2
 62
   250
370
    35
100
AcDb2dPolyline
 66
     1
 10
0.0
 20
0.0
 30
0.0
  0
VERTEX
  5
A7
330
A6
100
AcDbEntity
  8
score2
 62
   250
370
    35
100
AcDbVertex
100
AcDb2dVertex
 10
10.43517398211196
 20
3.429092973101866
 30
0.0
  0
VERTEX
  5
C9
330
A6
100
AcDbEntity
  8
0
100
AcDbVertex
100
AcDb2dVertex
 10
10.43517398211196
 20
3.429092973101866
 30
0.0
  0
SEQEND
  5
A8
330
A6
100
AcDbEntity
  8
score2
370
    35
  0
POLYLINE
  5
A9
330
1F
100
AcDbEntity
  8
score2
 62
   250
370
    35
100
AcDb2dPolyline
 66
     1
 10
0.0
 20
0.0
 30
0.0
  0
VERTEX
  5
AA
330
A9
100
AcDbEntity
  8
score2
 62
   250
370
    35
100
AcDbVertex
100
AcDb2dVertex
 10
10.61431906552596
 20
3.843942422019253
 30
0.0
  0
VERTEX
  5
CA
330
A9
100
AcDbEntity
  8
0
100
AcDbVertex
100
AcDb2dVertex
 10
10.61431906552596
 20
3.843942422019253
 30
0.0
  0
SEQEND
  5
AB
330
A9
100
AcDbEntity
  8
score2
370
    35
  0
POLYLINE
  5
AC
330
1F
100
AcDbEntity
  8
score2
 62
   250
370
    35
100
AcDb2dPolyline
 66
     1
 10
0.0
 20
0.0
 30
0.0
  0
VERTEX
  5
AD
330
AC
100
AcDbEntity
  8
score2
 62
   250
370
    35
100
AcDbVertex
100
AcDb2dVertex
 10
10.60974820747701
 20
3.888891453396753
 30
0.0
  0
VERTEX
  5
CB
330
AC
100
AcDbEntity
  8
0
100
AcDbVertex
100
AcDb2dVertex
 10
10.60974820747701
 20
3.888891453396753
 30
0.0
  0
SEQEND
  5
AE
330
AC
100
AcDbEntity
  8
score2
370
    35
  0
SPLINE
  5
AF
330
1F
100
AcDbEntity
  8
score2
 62
   250
370
    35
100
AcDbSpline
210
0.0
220
0.0
230
1.0
 70
    11
 71
     3
 72
    17
 73
    13
 74
     0
 42
0.0000000001
 43
0.0000000001
 40
0.0
 40
0.0
 40
0.0
 40
0.0
 40
1.0
 40
1.0
 40
1.0
 40
2.0
 40
2.0
 40
2.0
 40
3.0
 40
3.0
 40
3.0
 40
4.0
 40
4.0
 40
4.0
 40
4.0
 10
16.33463262508135
 20
3.625083770749687
 30
0.0
 10
16.33457837157335
 20
4.211903276648161
 30
0.0
 10
16.81035450997406
 20
4.68767941504887
 30
0.0
 10
17.39721470600353
 20
4.687625161540871
 30
0.0
 10
17.98393926826301
 20
4.68767941504887
 30
0.0
 10
18.45968827990972
 20
4.211930403402161
 30
0.0
 10
18.45963402640172
 20
3.625192277765686
 30
0.0
 10
18.45968827990972
 20
3.038345645113212
 30
0.0
 10
17.98399352177101
 20
2.562623760220502
 30
0.0
 10
17.39707907223353
 20
2.562623760220502
 30
0.0
 10
16.81032738322006
 20
2.562583070089503
 30
0.0
 10
16.33457837157335
 20
3.038345645113212
 30
0.0
 10
16.33463262508135
 20
3.625083770749687
 30
0.0
  0
POLYLINE
  5
B1
330
1F
100
AcDbEntity
  8
place
 62
   250
370
    35
100
AcDb2dPolyline
 66
     1
 10
0.0
 20
0.0
 30
0.0
  0
VERTEX
  5
B2
330
B1
100
AcDbEntity
  8
place
 62
   250
370
    35
100
AcDbVertex
100
AcDb2dVertex
 10
35.51402081535706
 20
0.1250000824306099
 30
0.0
  0
VERTEX
  5
B3
330
B1
100
AcDbEntity
  8
place
 62
   250
370
    35
100
AcDbVertex
100
AcDb2dVertex
 10
0.1250000824306099
 20
0.1250000824306099
 30
0.0
  0
VERTEX
  5
B4
330
B1
100
AcDbEntity
  8
place
 62
   250
370
    35
100
AcDbVertex
100
AcDb2dVertex
 10
0.1250000824306099
 20
7.125004698544766
 30
0.0
  0
VERTEX
  5
B5
330
B1
100
AcDbEntity
  8
place
 62
   250
370
    35
100
AcDbVertex
100
AcDb2dVertex
 10
35.51402081535706
 20
7.125004698544766
 30
0.0
  0
VERTEX
  5
B6
330
B1
100
AcDbEntity
  8
place
 62
   250
370
    35
100
AcDbVertex
100
AcDb2dVertex
 10
35.51402081535706
 20
0.1250000824306099
 30
0.0
  0
SEQEND
  5
B7
330
B1
100
AcDbEntity
  8
place
370
    35
  0
ENDSEC
  0
SECTION
  2
OBJECTS
  0
DICTIONARY
  5
C
330
0
100
AcDbDictionary
281
     1
  3
ACAD_GROUP
350
D
  3
ACAD_LAYOUT
350
1A
  3
ACAD_MLINESTYLE
350
17
  3
ACAD_PLOTSETTINGS
350
19
  3
ACAD_PLOTSTYLENAME
350
E
  3
ACAD_TABLESTYLE
350
CC
  3
ACAD_VISUALSTYLE
350
2A
  0
DICTIONARY
  5
D
102
{ACAD_REACTORS
330
C
102
}
330
C
100
AcDbDictionary
281
     1
  0
DICTIONARY
  5
1A
102
{ACAD_REACTORS
330
C
102
}
330
C
100
AcDbDictionary
281
     1
  3
Layout1
350
1E
  3
Layout2
350
26
  3
Model
350
22
  0
DICTIONARY
  5
17
102
{ACAD_REACTORS
330
C
102
}
330
C
100
AcDbDictionary
281
     1
  3
Standard
350
18
  0
DICTIONARY
  5
19
102
{ACAD_REACTORS
330
C
102
}
330
C
100
AcDbDictionary
281
     1
  0
ACDBDICTIONARYWDFLT
  5
E
102
{ACAD_REACTORS
330
C
102
}
330
C
100
AcDbDictionary
281
     1
  3
Normal
350
F
100
AcDbDictionaryWithDefault
340
F
  0
DICTIONARY
  5
CC
102
{ACAD_REACTORS
330
C
102
}
330
C
100
AcDbDictionary
281
     1
  0
DICTIONARY
  5
2A
102
{ACAD_REACTORS
330
C
102
}
330
C
100
AcDbDictionary
281
     1
  3
2dWireframe
350
2F
  3
3D Hidden
350
31
  3
3dWireframe
350
30
  3
Basic
350
32
  3
Brighten
350
36
  3
ColorChange
350
3A
  3
Conceptual
350
34
  3
Dim
350
35
  3
Facepattern
350
39
  3
Flat
350
2B
  3
FlatWithEdges
350
2C
  3
Gouraud
350
2D
  3
GouraudWithEdges
350
2E
  3
Linepattern
350
38
  3
Realistic
350
33
  3
Thicken
350
37
  0
LAYOUT
  5
1E
102
{ACAD_REACTORS
330
1A
102
}
330
1A
100
AcDbPlotSettings
  1

  2
none_device
  4

  6

 40
0.0
 41
0.0
 42
0.0
 43
0.0
 44
0.0
 45
0.0
 46
0.0
 47
0.0
 48
0.0
 49
0.0
140
0.0
141
0.0
142
1.0
143
1.0
 70
   688
 72
     0
 73
     0
 74
     5
  7

 75
    16
147
1.0
148
0.0
149
0.0
100
AcDbLayout
  1
Layout1
 70
     1
 71
     1
 10
0.0
 20
0.0
 11
12.0
 21
9.0
 12
0.0
 22
0.0
 32
0.0
 14
1.000000000000000E+20
 24
1.000000000000000E+20
 34
1.000000000000000E+20
 15
-1.000000000000000E+20
 25
-1.000000000000000E+20
 35
-1.000000000000000E+20
146
0.0
 13
0.0
 23
0.0
 33
0.0
 16
1.0
 26
0.0
 36
0.0
 17
0.0
 27
1.0
 37
0.0
 76
     0
330
1B
  0
LAYOUT
  5
26
102
{ACAD_REACTORS
330
1A
102
}
330
1A
100
AcDbPlotSettings
  1

  2
none_device
  4

  6

 40
0.0
 41
0.0
 42
0.0
 43
0.0
 44
0.0
 45
0.0
 46
0.0
 47
0.0
 48
0.0
 49
0.0
140
0.0
141
0.0
142
1.0
143
1.0
 70
   688
 72
     0
 73
     0
 74
     5
  7

 75
    16
147
1.0
148
0.0
149
0.0
100
AcDbLayout
  1
Layout2
 70
     1
 71
     2
 10
0.0
 20
0.0
 11
0.0
 21
0.0
 12
0.0
 22
0.0
 32
0.0
 14
0.0
 24
0.0
 34
0.0
 15
0.0
 25
0.0
 35
0.0
146
0.0
 13
0.0
 23
0.0
 33
0.0
 16
1.0
 26
0.0
 36
0.0
 17
0.0
 27
1.0
 37
0.0
 76
     0
330
23
  0
LAYOUT
  5
22
102
{ACAD_REACTORS
330
1A
102
}
330
1A
100
AcDbPlotSettings
  1

  2
none_device
  4

  6

 40
0.0
 41
0.0
 42
0.0
 43
0.0
 44
0.0
 45
0.0
 46
0.0
 47
0.0
 48
0.0
 49
0.0
140
0.0
141
0.0
142
1.0
143
1.0
 70
  1712
 72
     0
 73
     0
 74
     0
  7

 75
     0
147
1.0
148
0.0
149
0.0
100
AcDbLayout
  1
Model
 70
     1
 71
     0
 10
0.0
 20
0.0
 11
12.0
 21
9.0
 12
0.0
 22
0.0
 32
0.0
 14
1.000000000000000E+20
 24
1.000000000000000E+20
 34
1.000000000000000E+20
 15
-1.000000000000000E+20
 25
-1.000000000000000E+20
 35
-1.000000000000000E+20
146
0.0
 13
0.0
 23
0.0
 33
0.0
 16
1.0
 26
0.0
 36
0.0
 17
0.0
 27
1.0
 37
0.0
 76
     0
330
1F
331
29
  0
MLINESTYLE
  5
18
102
{ACAD_REACTORS
330
17
102
}
330
17
100
AcDbMlineStyle
  2
Standard
 70
     0
  3

 62
   256
 51
90.0
 52
90.0
 71
     2
 49
0.5
 62
   256
  6
BYLAYER
 49
-0.5
 62
   256
  6
BYLAYER
  0
ACDBPLACEHOLDER
  5
F
102
{ACAD_REACTORS
330
E
102
}
330
E
  0
VISUALSTYLE
  5
2F
102
{ACAD_REACTORS
330
2A
102
}
330
2A
100
AcDbVisualStyle
  2
2dWireframe
 70
     4
 71
     0
 72
     2
 73
     0
 90
        0
 40
-0.6
 41
-30.0
 62
     5
 63
     7
 74
     1
 91
        4
 64
     7
 65
   257
 75
     1
175
     1
 42
1.0
 92
        0
 66
   257
 43
1.0
 76
     1
 77
     6
 78
     2
 67
     7
 79
     5
170
     0
171
     0
290
     0
174
     0
 93
        1
 44
0.0
173
     0
291
     0
 45
0.0
1001
ACAD
1000
AcDbSavedByObjectVersion
1070
     0
  0
VISUALSTYLE
  5
31
102
{ACAD_REACTORS
330
2A
102
}
330
2A
100
AcDbVisualStyle
  2
3D Hidden
 70
     6
 71
     1
 72
     2
 73
     2
 90
        0
 40
-0.6
 41
-30.0
 62
     5
 63
     7
 74
     2
 91
        2
 64
     7
 65
   257
 75
     2
175
     1
 42
40.0
 92
        0
 66
   257
 43
1.0
 76
     1
 77
     6
 78
     2
 67
     7
 79
     3
170
     0
171
     0
290
     0
174
     0
 93
        1
 44
0.0
173
     0
291
     0
 45
0.0
1001
ACAD
1000
AcDbSavedByObjectVersion
1070
     0
  0
VISUALSTYLE
  5
30
102
{ACAD_REACTORS
330
2A
102
}
330
2A
100
AcDbVisualStyle
  2
3dWireframe
 70
     5
 71
     0
 72
     2
 73
     0
 90
        0
 40
-0.6
 41
-30.0
 62
     5
 63
     7
 74
     1
 91
        4
 64
     7
 65
   257
 75
     1
175
     1
 42
1.0
 92
        0
 66
   257
 43
1.0
 76
     1
 77
     6
 78
     2
 67
     7
 79
     5
170
     0
171
     0
290
     0
174
     0
 93
        1
 44
0.0
173
     0
291
     0
 45
0.0
1001
ACAD
1000
AcDbSavedByObjectVersion
1070
     0
  0
VISUALSTYLE
  5
32
102
{ACAD_REACTORS
330
2A
102
}
330
2A
100
AcDbVisualStyle
  2
Basic
 70
     7
 71
     1
 72
     0
 73
     1
 90
        0
 40
-0.6
 41
-30.0
 62
     5
 63
     7
 74
     0
 91
        4
 64
     7
 65
   257
 75
     1
175
     1
 42
1.0
 92
        8
 66
     7
 43
1.0
 76
     1
 77
     6
 78
     2
 67
     7
 79
     5
170
     0
171
     0
290
     0
174
     0
 93
        1
 44
0.0
173
     0
291
     1
 45
0.0
1001
ACAD
1000
AcDbSavedByObjectVersion
1070
     0
  0
VISUALSTYLE
  5
36
102
{ACAD_REACTORS
330
2A
102
}
330
2A
100
AcDbVisualStyle
  2
Brighten
 70
    12
 71
     2
 72
     2
 73
     0
 90
        0
 40
-0.6
 41
-30.0
 62
     5
 63
     7
 74
     1
 91
        4
 64
     7
 65
   257
 75
     1
175
     1
 42
1.0
 92
        8
 66
     7
 43
1.0
 76
     1
 77
     6
 78
     2
 67
     7
 79
     5
170
     0
171
     0
290
     0
174
     0
 93
        1
 44
50.0
173
     0
291
     1
 45
0.0
1001
ACAD
1000
AcDbSavedByObjectVersion
1070
     0
  0
VISUALSTYLE
  5
3A
102
{ACAD_REACTORS
330
2A
102
}
330
2A
100
AcDbVisualStyle
  2
ColorChange
 70
    16
 71
     2
 72
     2
 73
     3
 90
        0
 40
-0.6
 41
-30.0
 62
     5
 63
     8
 74
     1
 91
        4
 64
     7
 65
   257
 75
     1
175
     1
 42
1.0
 92
        8
 66
     8
 43
1.0
 76
     1
 77
     6
 78
     2
 67
     7
 79
     5
170
     0
171
     0
290
     0
174
     0
 93
        1
 44
0.0
173
     0
291
     1
 45
0.0
1001
ACAD
1000
AcDbSavedByObjectVersion
1070
     0
  0
VISUALSTYLE
  5
34
102
{ACAD_REACTORS
330
2A
102
}
330
2A
100
AcDbVisualStyle
  2
Conceptual
 70
     9
 71
     3
 72
     2
 73
     0
 90
        0
 40
-0.6
 41
-30.0
 62
     5
 63
     7
 74
     2
 91
        2
 64
     7
 65
   257
 75
     1
175
     1
 42
40.0
 92
        8
 66
     7
 43
1.0
 76
     1
 77
     6
 78
     2
 67
     7
 79
     3
170
     0
171
     0
290
     0
174
     0
 93
        1
 44
0.0
173
     0
291
     0
 45
0.0
1001
ACAD
1000
AcDbSavedByObjectVersion
1070
     0
  0
VISUALSTYLE
  5
35
102
{ACAD_REACTORS
330
2A
102
}
330
2A
100
AcDbVisualStyle
  2
Dim
 70
    11
 71
     2
 72
     2
 73
     0
 90
        0
 40
-0.6
 41
-30.0
 62
     5
 63
     7
 74
     1
 91
        4
 64
     7
 65
   257
 75
     1
175
     1
 42
1.0
 92
        8
 66
     7
 43
1.0
 76
     1
 77
     6
 78
     2
 67
     7
 79
     5
170
     0
171
     0
290
     0
174
     0
 93
        1
 44
-50.0
173
     0
291
     1
 45
0.0
1001
ACAD
1000
AcDbSavedByObjectVersion
1070
     0
  0
VISUALSTYLE
  5
39
102
{ACAD_REACTORS
330
2A
102
}
330
2A
100
AcDbVisualStyle
  2
Facepattern
 70
    15
 71
     2
 72
     2
 73
     0
 90
        0
 40
-0.6
 41
-30.0
 62
     5
 63
     7
 74
     1
 91
        4
 64
     7
 65
   257
 75
     1
175
     1
 42
1.0
 92
        8
 66
     7
 43
1.0
 76
     1
 77
     6
 78
     2
 67
     7
 79
     5
170
     0
171
     0
290
     0
174
     0
 93
        1
 44
0.0
173
     0
291
     1
 45
0.0
1001
ACAD
1000
AcDbSavedByObjectVersion
1070
     0
  0
VISUALSTYLE
  5
2B
102
{ACAD_REACTORS
330
2A
102
}
330
2A
100
AcDbVisualStyle
  2
Flat
 70
     0
 71
     2
 72
     1
 73
     1
 90
        2
 40
-0.6
 41
30.0
 62
     5
 63
     7
 74
     0
 91
        4
 64
     7
 65
   257
 75
     1
175
     1
 42
1.0
 92
        8
 66
     7
 43
1.0
 76
     1
 77
     6
 78
     2
 67
     7
 79
     5
170
     0
171
     0
290
     0
174
     0
 93
       13
 44
0.0
173
     0
291
     1
 45
0.0
1001
ACAD
1000
AcDbSavedByObjectVersion
1070
     0
  0
VISUALSTYLE
  5
2C
102
{ACAD_REACTORS
330
2A
102
}
330
2A
100
AcDbVisualStyle
  2
FlatWithEdges
 70
     1
 71
     2
 72
     1
 73
     1
 90
        2
 40
-0.6
 41
30.0
 62
     5
 63
     7
 74
     1
 91
        4
 64
     7
 65
   257
 75
     1
175
     1
 42
1.0
 92
        0
 66
   257
 43
1.0
 76
     1
 77
     6
 78
     2
 67
     7
 79
     5
170
     0
171
     0
290
     0
174
     0
 93
       13
 44
0.0
173
     0
291
     1
 45
0.0
1001
ACAD
1000
AcDbSavedByObjectVersion
1070
     0
  0
VISUALSTYLE
  5
2D
102
{ACAD_REACTORS
330
2A
102
}
330
2A
100
AcDbVisualStyle
  2
Gouraud
 70
     2
 71
     2
 72
     2
 73
     1
 90
        2
 40
-0.6
 41
30.0
 62
     5
 63
     7
 74
     0
 91
        4
 64
     7
 65
   257
 75
     1
175
     1
 42
1.0
 92
        0
 66
     7
 43
1.0
 76
     1
 77
     6
 78
     2
 67
     7
 79
     5
170
     0
171
     0
290
     0
174
     0
 93
       13
 44
0.0
173
     0
291
     1
 45
0.0
1001
ACAD
1000
AcDbSavedByObjectVersion
1070
     0
  0
VISUALSTYLE
  5
2E
102
{ACAD_REACTORS
330
2A
102
}
330
2A
100
AcDbVisualStyle
  2
GouraudWithEdges
 70
     3
 71
     2
 72
     2
 73
     1
 90
        2
 40
-0.6
 41
30.0
 62
     5
 63
     7
 74
     1
 91
        4
 64
     7
 65
   257
 75
     1
175
     1
 42
1.0
 92
        0
 66
   257
 43
1.0
 76
     1
 77
     6
 78
     2
 67
     7
 79
     5
170
     0
171
     0
290
     0
174
     0
 93
       13
 44
0.0
173
     0
291
     1
 45
0.0
1001
ACAD
1000
AcDbSavedByObjectVersion
1070
     0
  0
VISUALSTYLE
  5
38
102
{ACAD_REACTORS
330
2A
102
}
330
2A
100
AcDbVisualStyle
  2
Linepattern
 70
    14
 71
     2
 72
     2
 73
     0
 90
        0
 40
-0.6
 41
-30.0
 62
     5
 63
     7
 74
     1
 91
        4
 64
     7
 65
   257
 75
     7
175
     7
 42
1.0
 92
        8
 66
     7
 43
1.0
 76
     1
 77
     6
 78
     2
 67
     7
 79
     5
170
     0
171
     0
290
     0
174
     0
 93
        1
 44
0.0
173
     0
291
     1
 45
0.0
1001
ACAD
1000
AcDbSavedByObjectVersion
1070
     0
  0
VISUALSTYLE
  5
33
102
{ACAD_REACTORS
330
2A
102
}
330
2A
100
AcDbVisualStyle
  2
Realistic
 70
     8
 71
     2
 72
     2
 73
     0
 90
        0
 40
-0.6
 41
-30.0
 62
     5
 63
     7
 74
     1
 91
        0
 64
     7
 65
   257
 75
     1
175
     1
 42
1.0
 92
        8
 66
     8
 43
1.0
 76
     1
 77
     6
 78
     2
 67
     7
 79
     5
170
     0
171
     0
290
     0
174
     0
 93
       13
 44
0.0
173
     0
291
     0
 45
0.0
1001
ACAD
1000
AcDbSavedByObjectVersion
1070
     0
  0
VISUALSTYLE
  5
37
102
{ACAD_REACTORS
330
2A
102
}
330
2A
100
AcDbVisualStyle
  2
Thicken
 70
    13
 71
     2
 72
     2
 73
     0
 90
        0
 40
-0.6
 41
-30.0
 62
     5
 63
     7
 74
     1
 91
        4
 64
     7
 65
   257
 75
     1
175
     1
 42
1.0
 92
       12
 66
     7
 43
1.0
 76
     1
 77
     6
 78
     2
 67
     7
 79
     5
170
     0
171
     0
290
     0
174
     0
 93
        1
 44
0.0
173
     0
291
     1
 45
0.0
1001
ACAD
1000
AcDbSavedByObjectVersion
1070
     0
  0
ENDSEC
  0
EOF
