  0
SECTION
  2
HEADER
  9
$ACADVER
  1
AC1015
  9
$ACADMAINTVER
 70
     6
  9
$DWGCODEPAGE
  3
DOS850
  9
$INSBASE
 10
0.0
 20
0.0
 30
0.0
  9
$EXTMIN
 10
-11.759815
 20
-6.805343
 30
1.000000E+20
  9
$EXTMAX
 10
11.743185
 20
6.668209
 30
-1.000000E+20
  9
$LIMMIN
 10
0.0
 20
0.0
  9
$LIMMAX
 10
0.0
 20
0.0
  9
$ORTHOMODE
 70
     0
  9
$REGENMODE
 70
     1
  9
$FILLMODE
 70
     1
  9
$QTEXTMODE
 70
     0
  9
$MIRRTEXT
 70
     1
  9
$LTSCALE
 40
1.0
  9
$ATTMODE
 70
     1
  9
$TEXTSIZE
 40
0.2
  9
$TRACEWID
 40
0.05
  9
$TEXTSTYLE
  7
Standard
  9
$CLAYER
  8
0
  9
$CELTYPE
  6
Continuous
  9
$CECOLOR
 62
   256
  9
$CELTSCALE
 40
1.0
  9
$DISPSILH
 70
     0
  9
$DIMSCALE
 40
1.0
  9
$DIMASZ
 40
0.18
  9
$DIMEXO
 40
0.0625
  9
$DIMDLI
 40
0.38
  9
$DIMRND
 40
0.0
  9
$DIMDLE
 40
0.0
  9
$DIMEXE
 40
0.18
  9
$DIMTP
 40
0.0
  9
$DIMTM
 40
0.0
  9
$DIMTXT
 40
0.18
  9
$DIMCEN
 40
0.09
  9
$DIMTSZ
 40
0.0
  9
$DIMTOL
 70
     0
  9
$DIMLIM
 70
     0
  9
$DIMTIH
 70
     1
  9
$DIMTOH
 70
     1
  9
$DIMSE1
 70
     0
  9
$DIMSE2
 70
     0
  9
$DIMTAD
 70
     0
  9
$DIMZIN
 70
     0
  9
$DIMBLK
  1

  9
$DIMASO
 70
     1
  9
$DIMSHO
 70
     1
  9
$DIMPOST
  1

  9
$DIMAPOST
  1

  9
$DIMALT
 70
     0
  9
$DIMALTD
 70
     2
  9
$DIMALTF
 40
25.4
  9
$DIMLFAC
 40
1.0
  9
$DIMTOFL
 70
     0
  9
$DIMTVP
 40
0.0
  9
$DIMTIX
 70
     0
  9
$DIMSOXD
 70
     0
  9
$DIMSAH
 70
     0
  9
$DIMBLK1
  1

  9
$DIMBLK2
  1

  9
$DIMSTYLE
  2
Standard
  9
$DIMCLRD
 70
     0
  9
$DIMCLRE
 70
     0
  9
$DIMCLRT
 70
     0
  9
$DIMTFAC
 40
1.0
  9
$DIMGAP
 40
0.09
  9
$DIMJUST
 70
     0
  9
$DIMSD1
 70
     0
  9
$DIMSD2
 70
     0
  9
$DIMTOLJ
 70
     1
  9
$DIMTZIN
 70
     0
  9
$DIMALTZ
 70
     0
  9
$DIMALTTZ
 70
     0
  9
$DIMUPT
 70
     0
  9
$DIMDEC
 70
     4
  9
$DIMTDEC
 70
     4
  9
$DIMALTU
 70
     2
  9
$DIMALTTD
 70
     2
  9
$DIMTXSTY
  7
Standard
  9
$DIMAUNIT
 70
     0
  9
$DIMADEC
 70
     0
  9
$DIMALTRND
 40
0.0
  9
$DIMAZIN
 70
     0
  9
$DIMDSEP
 70
     0
  9
$DIMATFIT
 70
     3
  9
$DIMFRAC
 70
     0
  9
$DIMLDRBLK
  1

  9
$DIMLUNIT
 70
     2
  9
$DIMLWD
 70
     0
  9
$DIMLWE
 70
     0
  9
$DIMTMOVE
 70
     0
  9
$LUNITS
 70
     2
  9
$LUPREC
 70
     4
  9
$SKETCHINC
 40
0.1
  9
$FILLETRAD
 40
0.0
  9
$AUNITS
 70
     0
  9
$AUPREC
 70
     0
  9
$MENU
  1
acad
  9
$ELEVATION
 40
0.0
  9
$PELEVATION
 40
0.0
  9
$THICKNESS
 40
0.0
  9
$LIMCHECK
 70
     0
  9
$CHAMFERA
 40
0.0
  9
$CHAMFERB
 40
0.0
  9
$CHAMFERC
 40
0.0
  9
$CHAMFERD
 40
0.0
  9
$SKPOLY
 70
     0
  9
$TDCREATE
 40
0.000000000
  9
$TDUCREATE
 40
0.000000000
  9
$TDUPDATE
 40
0.000000000
  9
$TDUUPDATE
 40
0.000000000
  9
$TDINDWG
 40
0.0000000000
  9
$TDUSRTIMER
 40
0.0000000000
  9
$USRTIMER
 70
     1
  9
$ANGBASE
 50
0.0
  9
$ANGDIR
 70
     0
  9
$PDMODE
 70
     0
  9
$PDSIZE
 40
0.0
  9
$PLINEWID
 40
0.0
  9
$SPLFRAME
 70
     0
  9
$SPLINETYPE
 70
     6
  9
$SPLINESEGS
 70
     8
  9
$HANDSEED
  5
30
  9
$SURFTAB1
 70
     6
  9
$SURFTAB2
 70
     6
  9
$SURFTYPE
 70
     6
  9
$SURFU
 70
     6
  9
$SURFV
 70
     6
  9
$UCSBASE
  2

  9
$UCSNAME
  2

  9
$UCSORG
 10
0.0
 20
0.0
 30
0.0
  9
$UCSXDIR
 10
1.0
 20
0.0
 30
0.0
  9
$UCSYDIR
 10
0.0
 20
1.0
 30
0.0
  9
$UCSORTHOREF
  2

  9
$UCSORTHOVIEW
 70
     0
  9
$UCSORGTOP
 10
0.0
 20
0.0
 30
0.0
  9
$UCSORGBOTTOM
 10
0.0
 20
0.0
 30
0.0
  9
$UCSORGLEFT
 10
0.0
 20
0.0
 30
0.0
  9
$UCSORGRIGHT
 10
0.0
 20
0.0
 30
0.0
  9
$UCSORGFRONT
 10
0.0
 20
0.0
 30
0.0
  9
$UCSORGBACK
 10
0.0
 20
0.0
 30
0.0
  9
$PUCSBASE
  2

  9
$PUCSNAME
  2

  9
$PUCSORG
 10
0.0
 20
0.0
 30
0.0
  9
$PUCSXDIR
 10
1.0
 20
0.0
 30
0.0
  9
$PUCSYDIR
 10
0.0
 20
1.0
 30
0.0
  9
$PUCSORTHOREF
  2

  9
$PUCSORTHOVIEW
 70
     0
  9
$PUCSORGTOP
 10
0.0
 20
0.0
 30
0.0
  9
$PUCSORGBOTTOM
 10
0.0
 20
0.0
 30
0.0
  9
$PUCSORGLEFT
 10
0.0
 20
0.0
 30
0.0
  9
$PUCSORGRIGHT
 10
0.0
 20
0.0
 30
0.0
  9
$PUCSORGFRONT
 10
0.0
 20
0.0
 30
0.0
  9
$PUCSORGBACK
 10
0.0
 20
0.0
 30
0.0
  9
$USERI1
 70
     0
  9
$USERI2
 70
     0
  9
$USERI3
 70
     0
  9
$USERI4
 70
     0
  9
$USERI5
 70
     0
  9
$USERR1
 40
0.0
  9
$USERR2
 40
0.0
  9
$USERR3
 40
0.0
  9
$USERR4
 40
0.0
  9
$USERR5
 40
0.0
  9
$WORLDVIEW
 70
     1
  9
$SHADEDGE
 70
     3
  9
$SHADEDIF
 70
    70
  9
$TILEMODE
 70
     1
  9
$MAXACTVP
 70
    16
  9
$PINSBASE
 10
0.0
 20
0.0
 30
0.0
  9
$PLIMCHECK
 70
     0
  9
$PEXTMIN
 10
1.000000E+20
 20
1.000000E+20
 30
1.000000E+20
  9
$PEXTMAX
 10
-1.000000E+20
 20
-1.000000E+20
 30
-1.000000E+20
  9
$PLIMMIN
 10
0.0
 20
0.0
  9
$PLIMMAX
 10
12.0
 20
9.0
  9
$UNITMODE
 70
     0
  9
$VISRETAIN
 70
     0
  9
$PLINEGEN
 70
     1
  9
$PSLTSCALE
 70
     0
  9
$TREEDEPTH
 70
  3020
  9
$CMLSTYLE
  2
Standard
  9
$CMLJUST
 70
     0
  9
$CMLSCALE
 40
1.0
  9
$PROXYGRAPHICS
 70
     0
  9
$MEASUREMENT
 70
     0
  9
$CELWEIGHT
370
     0
  9
$ENDCAPS
280
     0
  9
$JOINSTYLE
280
     0
  9
$LWDISPLAY
290
     0
  9
$INSUNITS
 70
     1
  9
$HYPERLINKBASE
  1

  9
$XEDIT
290
     1
  9
$CEPSNTYPE
380
     0
  9
$PSTYLEMODE
290
     1
  9
$FINGERPRINTGUID
  2

  9
$VERSIONGUID
  2

  9
$EXTNAMES
290
     1
  9
$PSVPSCALE
 40
0.0
  0
ENDSEC
  0
SECTION
  2
CLASSES
  0
CLASS
  1
LWPOLYLINE
  2
AcDbPolyline
  3
AutoCAD 2000
 90
    32768
280
     0
281
     1
  0
CLASS
  1
IMAGE
  2
AcDbRasterImage
  3
ISM
 90
    32895
280
     0
281
     1
  0
CLASS
  1
OLE2FRAME
  2
AcDbOle2Frame
  3
AutoCAD 2000
 90
    32768
280
     0
281
     1
  0
CLASS
  1
HATCH
  2
AcDbHatch
  3
AutoCAD 2000
 90
    32768
280
     0
281
     1
  0
CLASS
  1
DICTIONARYVAR
  2
AcDbDictionaryVar
  3
AutoCAD 2000
 90
    32768
280
     0
281
     0
  0
CLASS
  1
RASTERVARIABLES
  2
AcDbRasterVariables
  3
ISM
 90
    32768
280
     0
281
     0
  0
CLASS
  1
IMAGEDEF
  2
AcDbRasterImageDef
  3
ISM
 90
    32768
280
     0
281
     0
  0
CLASS
  1
IMAGEDEF_REACTOR
  2
AcDbRasterImageDefReactor
  3
ISM
 90
    32769
280
     0
281
     0
  0
CLASS
  1
IDBUFFER
  2
AcDbIdBuffer
  3
AutoCAD 2000
 90
    32768
280
     0
281
     0
  0
CLASS
  1
SPATIAL_FILTER
  2
AcDbSpatialFilter
  3
AutoCAD 2000
 90
    32768
280
     0
281
     0
  0
CLASS
  1
XRECORD
  2
AcDbXrecord
  3
AutoCAD 2000
 90
    32768
280
     0
281
     0
  0
CLASS
  1
SORTENTSTABLE
  2
AcDbSortentsTable
  3
AutoCAD 2000
 90
    32768
280
     0
281
     0
  0
CLASS
  1
LAYER_INDEX
  2
AcDbLayerIndex
  3
AutoCAD 2000
 90
    32768
280
     0
281
     0
  0
CLASS
  1
SPATIAL_INDEX
  2
AcDbSpatialIndex
  3
AutoCAD 2000
 90
    32768
280
     0
281
     0
  0
CLASS
  1
OBJECT_PTR
  2
CAseDLPNTableRecord
  3
"ASE-LPNTableRecord"
 90
    32769
280
     0
281
     0
  0
CLASS
  1
LAYOUT
  2
AcDbLayout
  3
AutoCAD 2000
 90
        0
280
     0
281
     0
  0
CLASS
  1
PLOTSETTINGS
  2
AcDbPlotSettings
  3
AutoCAD 2000
 90
    32768
280
     0
281
     0
  0
CLASS
  1
ACDBDICTIONARYWDFLT
  2
AcDbDictionaryWithDefault
  3
AutoCAD 2000
 90
        0
280
     0
281
     0
  0
CLASS
  1
ACDBPLACEHOLDER
  2
AcDbPlaceHolder
  3
AutoCAD 2000
 90
        0
280
     0
281
     0
  0
CLASS
  1
VBA_PROJECT
  2
AcDbVbaProject
  3
acadvba
 90
    32768
280
     0
281
     0
  0
CLASS
  1
WIPEOUT
  2
AcDbWipeout
  3
WipeOut|AutoCAD Express Tool|expresstools@autodesk.com
 90
    32895
280
     0
281
     1
  0
CLASS
  1
WIPEOUTVARIABLES
  2
AcDbWipeoutVariables
  3
WipeOut|AutoCAD Express Tool|expresstools@autodesk.com
 90
        0
280
     0
281
     0
  0
CLASS
  1
RTEXT
  2
RText
  3
RText|AutoCAD Express Tool|expresstools@autodesk.com
 90
    32768
280
     0
281
     1
  0
CLASS
  1
ARCALIGNEDTEXT
  2
AcDbArcAlignedText
  3
ATEXT|AutoCAD Express Tool|expresstools@autodesk.com
 90
    32768
280
     0
281
     1
  0
ENDSEC
  0
SECTION
  2
TABLES
  0
TABLE
  2
VPORT
  5
7
100
AcDbSymbolTable
 70
     1
  0
VPORT
  5
15
100
AcDbSymbolTableRecord
100
AcDbViewportTableRecord
  2
*ACTIVE
 70
     0
 10
0.0
 20
0.0
 11
1.0
 21
1.0
 12
6.591288
 22
4.579184
 13
0.0
 23
0.0
 14
1.0
 24
1.0
 15
0.0
 25
0.0
 16
0.0
 26
0.0
 36
1.0
 17
0.0
 27
0.0
 37
0.0
 40
9.158369
 41
0.688564
 42
50.0
 43
0.0
 44
0.0
 50
0.0
 51
0.0
 71
     0
 72
   100
 73
     1
 74
     1
 75
     0
 76
     0
 77
     0
 78
     0
281
     0
 65
     0
110
0.0
120
0.0
130
0.0
111
1.0
121
0.0
131
0.0
112
0.0
122
1.0
132
0.0
345
0
346
0
 79
     0
146
0.0
  0
ENDTAB
  0
TABLE
  2
LTYPE
  5
4
100
AcDbSymbolTable
 70
     3
  0
LTYPE
  5
11
100
AcDbSymbolTableRecord
100
AcDbLinetypeTableRecord
  2
ByBlock
 70
    64
  3

 72
    65
 73
     0
 40
0.0
  0
LTYPE
  5
12
100
AcDbSymbolTableRecord
100
AcDbLinetypeTableRecord
  2
ByLayer
 70
    64
  3

 72
    65
 73
     0
 40
0.0
  0
LTYPE
  5
13
100
AcDbSymbolTableRecord
100
AcDbLinetypeTableRecord
  2
Continuous
 70
    64
  3
Solid line
 72
    65
 73
     0
 40
0.0
  0
ENDTAB
  0
TABLE
  2
LAYER
  5
2
100
AcDbSymbolTable
 70
     2
  0
LAYER
  5
14
100
AcDbSymbolTableRecord
100
AcDbLayerTableRecord
  2
0
 70
     0
 62
     7
  6
Continuous
290
     1
370
    -3
390
1D
  0
LAYER
  5
24
100
AcDbSymbolTableRecord
100
AcDbLayerTableRecord
  2
Layer 1
 70
     0
 62
     7
  6
Continuous
290
     1
370
    -3
390
1F
  0
ENDTAB
  0
TABLE
  2
STYLE
  5
3
100
AcDbSymbolTable
 70
     1
  0
STYLE
  5
17
100
AcDbSymbolTableRecord
100
AcDbTextStyleTableRecord
  2
Standard
 70
     0
 40
0.0
 41
1.0
 50
0.0
 71
     0
 42
0.0
  3
txt
  4

  0
ENDTAB
  0
TABLE
  2
VIEW
  5
5
100
AcDbSymbolTable
 70
     0
  0
ENDTAB
  0
TABLE
  2
UCS
  5
6
100
AcDbSymbolTable
 70
     0
  0
ENDTAB
  0
TABLE
  2
APPID
  5
8
100
AcDbSymbolTable
 70
     1
  0
APPID
  5
16
100
AcDbSymbolTableRecord
100
AcDbRegAppTableRecord
  2
ACAD
 70
     0
  0
ENDTAB
  0
TABLE
  2
DIMSTYLE
  5
9
100
AcDbSymbolTable
 70
     1
100
AcDbDimStyleTable
 71
     0
  0
DIMSTYLE
105
18
100
AcDbSymbolTableRecord
100
AcDbDimStyleTableRecord
  2
Standard
 70
     0
  3

  4

 40
1.0
 41
0.18
 42
0.0625
 43
0.38
 44
0.18
 45
0.0
 46
0.0
 47
0.0
 48
0.0
 71
     0
 72
     0
 73
     1
 74
     1
 75
     0
 76
     0
 77
     0
 78
     0
 79
     0
140
0.18
141
0.09
142
0.0
143
25.4
144
1.0
145
0.0
146
1.0
147
0.09
148
0.0
170
     0
171
     2
172
     0
173
     0
174
     0
175
     0
176
     0
177
     0
178
     0
179
     0
271
     4
272
     4
273
     2
274
     2
275
     0
276
     0
277
     2
278
    46
279
     0
280
     0
281
     0
282
     0
283
     1
284
     0
285
     0
286
     0
288
     0
340
17
341
0
342
0
343
0
344
0
371
    -2
372
    -2
  0
ENDTAB
  0
TABLE
  2
BLOCK_RECORD
  5
1
100
AcDbSymbolTable
 70
     0
  0
BLOCK_RECORD
  5
A
100
AcDbSymbolTableRecord
100
AcDbBlockTableRecord
  2
*MODEL_SPACE
340
20
  0
BLOCK_RECORD
  5
B
100
AcDbSymbolTableRecord
100
AcDbBlockTableRecord
  2
*PAPER_SPACE
340
21
  0
ENDTAB
  0
ENDSEC
  0
SECTION
  2
BLOCKS
  0
BLOCK
  5
D
100
AcDbEntity
  8
0
100
AcDbBlockBegin
  2
*MODEL_SPACE
 70
     0
 10
0.0
 20
0.0
 30
0.0
  3
*MODEL_SPACE
  1

  0
ENDBLK
  5
E
100
AcDbEntity
  8
0
100
AcDbBlockEnd
  0
BLOCK
  5
F
100
AcDbEntity
 67
     1
  8
0
100
AcDbBlockBegin
  2
*PAPER_SPACE
 70
     0
 10
0.0
 20
0.0
 30
0.0
  3
*PAPER_SPACE
  1

  0
ENDBLK
  5
10
100
AcDbEntity
 67
     1
  8
0
100
AcDbBlockEnd
  0
ENDSEC
  0
SECTION
  2
ENTITIES
  0
ELLIPSE
  5
25
100
AcDbEntity
  8
Layer 1
370
     5
100
AcDbEllipse
 10
-5.794531
 20
0.869571
 30
0.0
 11
0.0
 21
5.75
 31
0.0
210
0.0
220
0.0
230
1.0
 40
1.0
 41
0.0
 42
6.2831799999999998
  0
ELLIPSE
  5
26
100
AcDbEntity
  8
Layer 1
370
     5
100
AcDbEllipse
 10
-5.794539
 20
0.869571
 30
0.0
 11
0.0
 21
3.0
 31
0.0
210
0.0
220
0.0
230
1.0
 40
1.0
 41
0.0
 42
6.2831799999999998
  0
ELLIPSE
  5
27
100
AcDbEntity
  8
Layer 1
370
     5
100
AcDbEllipse
 10
4.423811
 20
2.264709
 30
0.0
 11
0.0
 21
3.4020000000000001
 31
0.0
210
0.0
220
0.0
230
1.0
 40
0.999975
 41
0.0
 42
6.2831799999999998
  0
ELLIPSE
  5
28
100
AcDbEntity
  8
Layer 1
370
     5
100
AcDbEllipse
 10
4.423811
 20
2.264709
 30
0.0
 11
0.0
 21
4.4020000000000001
 31
0.0
210
0.0
220
0.0
230
1.0
 40
0.999999
 41
0.0
 42
6.2831799999999998
  0
ELLIPSE
  5
29
100
AcDbEntity
  8
Layer 1
370
     5
 62
     1
100
AcDbEllipse
 10
-5.794539
 20
0.869571
 30
0.0
 11
0.0
 21
3.4020000000000001
 31
0.0
210
0.0
220
0.0
230
1.0
 40
0.999975
 41
0.0
 42
6.2831799999999998
  0
ELLIPSE
  5
2A
100
AcDbEntity
  8
Layer 1
370
     5
100
AcDbEllipse
 10
-5.794531
 20
0.869571
 30
0.0
 11
0.0
 21
5.75
 31
0.0
210
0.0
220
0.0
230
1.0
 40
1.0
 41
0.0
 42
6.2831799999999998
  0
ELLIPSE
  5
2B
100
AcDbEntity
  8
Layer 1
370
     5
100
AcDbEllipse
 10
-5.794539
 20
0.869571
 30
0.0
 11
0.0
 21
3.0
 31
0.0
210
0.0
220
0.0
230
1.0
 40
1.0
 41
0.0
 42
6.2831799999999998
  0
ELLIPSE
  5
2C
100
AcDbEntity
  8
Layer 1
370
     5
100
AcDbEllipse
 10
4.423811
 20
2.264709
 30
0.0
 11
0.0
 21
3.4020000000000001
 31
0.0
210
0.0
220
0.0
230
1.0
 40
0.999975
 41
0.0
 42
6.2831799999999998
  0
ELLIPSE
  5
2D
100
AcDbEntity
  8
Layer 1
370
     5
100
AcDbEllipse
 10
4.423811
 20
2.264709
 30
0.0
 11
0.0
 21
4.4020000000000001
 31
0.0
210
0.0
220
0.0
230
1.0
 40
0.999999
 41
0.0
 42
6.2831799999999998
  0
SPLINE
  5
2E
100
AcDbEntity
  8
Layer 1
370
     5
100
AcDbSpline
210
0.0
220
0.0
230
1.0
 70
     1
 71
     3
 72
   280
 73
   276
 74
     0
 42
0.0000000001
 43
0.0000000001
 40
0.0
 40
0.0
 40
0.0
 40
0.0
 40
0.0144927536231884
 40
0.0144927536231884
 40
0.0144927536231884
 40
0.0144927536231884
 40
0.0289855072463768
 40
0.0289855072463768
 40
0.0289855072463768
 40
0.0289855072463768
 40
0.0434782608695652
 40
0.0434782608695652
 40
0.0434782608695652
 40
0.0434782608695652
 40
0.0579710144927536
 40
0.0579710144927536
 40
0.0579710144927536
 40
0.0579710144927536
 40
0.072463768115942
 40
0.072463768115942
 40
0.072463768115942
 40
0.072463768115942
 40
0.0869565217391304
 40
0.0869565217391304
 40
0.0869565217391304
 40
0.0869565217391304
 40
0.1014492753623188
 40
0.1014492753623188
 40
0.1014492753623188
 40
0.1014492753623188
 40
0.1159420289855072
 40
0.1159420289855072
 40
0.1159420289855072
 40
0.1159420289855072
 40
0.1304347826086957
 40
0.1304347826086957
 40
0.1304347826086957
 40
0.1304347826086957
 40
0.1449275362318841
 40
0.1449275362318841
 40
0.1449275362318841
 40
0.1449275362318841
 40
0.1594202898550725
 40
0.1594202898550725
 40
0.1594202898550725
 40
0.1594202898550725
 40
0.1739130434782609
 40
0.1739130434782609
 40
0.1739130434782609
 40
0.1739130434782609
 40
0.1884057971014493
 40
0.1884057971014493
 40
0.1884057971014493
 40
0.1884057971014493
 40
0.2028985507246377
 40
0.2028985507246377
 40
0.2028985507246377
 40
0.2028985507246377
 40
0.2173913043478261
 40
0.2173913043478261
 40
0.2173913043478261
 40
0.2173913043478261
 40
0.2318840579710146
 40
0.2318840579710146
 40
0.2318840579710146
 40
0.2318840579710146
 40
0.246376811594203
 40
0.246376811594203
 40
0.246376811594203
 40
0.246376811594203
 40
0.2608695652173914
 40
0.2608695652173914
 40
0.2608695652173914
 40
0.2608695652173914
 40
0.2753623188405798
 40
0.2753623188405798
 40
0.2753623188405798
 40
0.2753623188405798
 40
0.2898550724637682
 40
0.2898550724637682
 40
0.2898550724637682
 40
0.2898550724637682
 40
0.3043478260869566
 40
0.3043478260869566
 40
0.3043478260869566
 40
0.3043478260869566
 40
0.318840579710145
 40
0.318840579710145
 40
0.318840579710145
 40
0.318840579710145
 40
0.3333333333333334
 40
0.3333333333333334
 40
0.3333333333333334
 40
0.3333333333333334
 40
0.3478260869565218
 40
0.3478260869565218
 40
0.3478260869565218
 40
0.3478260869565218
 40
0.3623188405797103
 40
0.3623188405797103
 40
0.3623188405797103
 40
0.3623188405797103
 40
0.3768115942028987
 40
0.3768115942028987
 40
0.3768115942028987
 40
0.3768115942028987
 40
0.3913043478260871
 40
0.3913043478260871
 40
0.3913043478260871
 40
0.3913043478260871
 40
0.4057971014492755
 40
0.4057971014492755
 40
0.4057971014492755
 40
0.4057971014492755
 40
0.4202898550724639
 40
0.4202898550724639
 40
0.4202898550724639
 40
0.4202898550724639
 40
0.4347826086956523
 40
0.4347826086956523
 40
0.4347826086956523
 40
0.4347826086956523
 40
0.4492753623188407
 40
0.4492753623188407
 40
0.4492753623188407
 40
0.4492753623188407
 40
0.4637681159420292
 40
0.4637681159420292
 40
0.4637681159420292
 40
0.4637681159420292
 40
0.4782608695652176
 40
0.4782608695652176
 40
0.4782608695652176
 40
0.4782608695652176
 40
0.492753623188406
 40
0.492753623188406
 40
0.492753623188406
 40
0.492753623188406
 40
0.5072463768115944
 40
0.5072463768115944
 40
0.5072463768115944
 40
0.5072463768115944
 40
0.5217391304347827
 40
0.5217391304347827
 40
0.5217391304347827
 40
0.5217391304347827
 40
0.5362318840579711
 40
0.5362318840579711
 40
0.5362318840579711
 40
0.5362318840579711
 40
0.5507246376811594
 40
0.5507246376811594
 40
0.5507246376811594
 40
0.5507246376811594
 40
0.5652173913043478
 40
0.5652173913043478
 40
0.5652173913043478
 40
0.5652173913043478
 40
0.5797101449275361
 40
0.5797101449275361
 40
0.5797101449275361
 40
0.5797101449275361
 40
0.5942028985507245
 40
0.5942028985507245
 40
0.5942028985507245
 40
0.5942028985507245
 40
0.6086956521739129
 40
0.6086956521739129
 40
0.6086956521739129
 40
0.6086956521739129
 40
0.6231884057971012
 40
0.6231884057971012
 40
0.6231884057971012
 40
0.6231884057971012
 40
0.6376811594202896
 40
0.6376811594202896
 40
0.6376811594202896
 40
0.6376811594202896
 40
0.6521739130434779
 40
0.6521739130434779
 40
0.6521739130434779
 40
0.6521739130434779
 40
0.6666666666666663
 40
0.6666666666666663
 40
0.6666666666666663
 40
0.6666666666666663
 40
0.6811594202898547
 40
0.6811594202898547
 40
0.6811594202898547
 40
0.6811594202898547
 40
0.695652173913043
 40
0.695652173913043
 40
0.695652173913043
 40
0.695652173913043
 40
0.7101449275362314
 40
0.7101449275362314
 40
0.7101449275362314
 40
0.7101449275362314
 40
0.7246376811594197
 40
0.7246376811594197
 40
0.7246376811594197
 40
0.7246376811594197
 40
0.7391304347826081
 40
0.7391304347826081
 40
0.7391304347826081
 40
0.7391304347826081
 40
0.7536231884057965
 40
0.7536231884057965
 40
0.7536231884057965
 40
0.7536231884057965
 40
0.7681159420289848
 40
0.7681159420289848
 40
0.7681159420289848
 40
0.7681159420289848
 40
0.7826086956521732
 40
0.7826086956521732
 40
0.7826086956521732
 40
0.7826086956521732
 40
0.7971014492753615
 40
0.7971014492753615
 40
0.7971014492753615
 40
0.7971014492753615
 40
0.8115942028985499
 40
0.8115942028985499
 40
0.8115942028985499
 40
0.8115942028985499
 40
0.8260869565217383
 40
0.8260869565217383
 40
0.8260869565217383
 40
0.8260869565217383
 40
0.8405797101449266
 40
0.8405797101449266
 40
0.8405797101449266
 40
0.8405797101449266
 40
0.855072463768115
 40
0.855072463768115
 40
0.855072463768115
 40
0.855072463768115
 40
0.8695652173913033
 40
0.8695652173913033
 40
0.8695652173913033
 40
0.8695652173913033
 40
0.8840579710144917
 40
0.8840579710144917
 40
0.8840579710144917
 40
0.8840579710144917
 40
0.89855072463768
 40
0.89855072463768
 40
0.89855072463768
 40
0.89855072463768
 40
0.9130434782608684
 40
0.9130434782608684
 40
0.9130434782608684
 40
0.9130434782608684
 40
0.9275362318840568
 40
0.9275362318840568
 40
0.9275362318840568
 40
0.9275362318840568
 40
0.9420289855072451
 40
0.9420289855072451
 40
0.9420289855072451
 40
0.9420289855072451
 40
0.9565217391304335
 40
0.9565217391304335
 40
0.9565217391304335
 40
0.9565217391304335
 40
0.9710144927536218
 40
0.9710144927536218
 40
0.9710144927536218
 40
0.9710144927536218
 40
0.9855072463768102
 40
0.9855072463768102
 40
0.9855072463768102
 40
0.9855072463768102
 40
1.0
 40
1.0
 40
1.0
 40
1.0
 10
11.741685039370079
 20
-5.8038425196850394
 30
0.0
 10
11.741685039370079
 20
-5.8038425196850394
 30
0.0
 10
11.741685039370079
 20
-6.8038425196850394
 30
0.0
 10
11.741685039370079
 20
-6.8038425196850394
 30
0.0
 10
11.741685039370079
 20
-6.8038425196850394
 30
0.0
 10
11.741685039370079
 20
-6.8038425196850394
 30
0.0
 10
-11.758314960629921
 20
-6.8038425196850394
 30
0.0
 10
-11.758314960629921
 20
-6.8038425196850394
 30
0.0
 10
-11.758314960629921
 20
-6.8038425196850394
 30
0.0
 10
-11.758314960629921
 20
-6.8038425196850394
 30
0.0
 10
-11.758314960629921
 20
-5.8038425196850394
 30
0.0
 10
-11.758314960629921
 20
-5.8038425196850394
 30
0.0
 10
-11.758314960629921
 20
-5.8038425196850394
 30
0.0
 10
-11.758314960629921
 20
-5.8038425196850394
 30
0.0
 10
-11.491267716535434
 20
-5.3038425196850394
 30
0.0
 10
-11.491267716535434
 20
-5.3038425196850394
 30
0.0
 10
-11.491267716535434
 20
-5.3038425196850394
 30
0.0
 10
-11.491267716535434
 20
-5.3038425196850394
 30
0.0
 10
-10.957177165354331
 20
-5.3038425196850394
 30
0.0
 10
-10.957177165354331
 20
-5.3038425196850394
 30
0.0
 10
-10.957177165354331
 20
-5.3038425196850394
 30
0.0
 10
-10.957177165354331
 20
-5.3038425196850394
 30
0.0
 10
-10.690133858267718
 20
-5.8038425196850394
 30
0.0
 10
-10.690133858267718
 20
-5.8038425196850394
 30
0.0
 10
-10.690133858267718
 20
-5.8038425196850394
 30
0.0
 10
-10.690133858267718
 20
-5.8038425196850394
 30
0.0
 10
-10.423086614173229
 20
-5.3038425196850394
 30
0.0
 10
-10.423086614173229
 20
-5.3038425196850394
 30
0.0
 10
-10.423086614173229
 20
-5.3038425196850394
 30
0.0
 10
-10.423086614173229
 20
-5.3038425196850394
 30
0.0
 10
-9.8889960629921259
 20
-5.3038425196850394
 30
0.0
 10
-9.8889960629921259
 20
-5.3038425196850394
 30
0.0
 10
-9.8889960629921259
 20
-5.3038425196850394
 30
0.0
 10
-9.8889960629921259
 20
-5.3038425196850394
 30
0.0
 10
-9.6219488188976374
 20
-5.8038425196850394
 30
0.0
 10
-9.6219488188976374
 20
-5.8038425196850394
 30
0.0
 10
-9.6219488188976374
 20
-5.8038425196850394
 30
0.0
 10
-9.6219488188976374
 20
-5.8038425196850394
 30
0.0
 10
-9.3549055118110243
 20
-5.3038425196850394
 30
0.0
 10
-9.3549055118110243
 20
-5.3038425196850394
 30
0.0
 10
-9.3549055118110243
 20
-5.3038425196850394
 30
0.0
 10
-9.3549055118110243
 20
-5.3038425196850394
 30
0.0
 10
-8.8208149606299209
 20
-5.3038425196850394
 30
0.0
 10
-8.8208149606299209
 20
-5.3038425196850394
 30
0.0
 10
-8.8208149606299209
 20
-5.3038425196850394
 30
0.0
 10
-8.8208149606299209
 20
-5.3038425196850394
 30
0.0
 10
-8.5537716535433077
 20
-5.8038425196850394
 30
0.0
 10
-8.5537716535433077
 20
-5.8038425196850394
 30
0.0
 10
-8.5537716535433077
 20
-5.8038425196850394
 30
0.0
 10
-8.5537716535433077
 20
-5.8038425196850394
 30
0.0
 10
-8.2867244094488193
 20
-5.3038425196850394
 30
0.0
 10
-8.2867244094488193
 20
-5.3038425196850394
 30
0.0
 10
-8.2867244094488193
 20
-5.3038425196850394
 30
0.0
 10
-8.2867244094488193
 20
-5.3038425196850394
 30
0.0
 10
-7.7526338582677168
 20
-5.3038425196850394
 30
0.0
 10
-7.7526338582677168
 20
-5.3038425196850394
 30
0.0
 10
-7.7526338582677168
 20
-5.3038425196850394
 30
0.0
 10
-7.7526338582677168
 20
-5.3038425196850394
 30
0.0
 10
-7.4855866141732283
 20
-5.8038425196850394
 30
0.0
 10
-7.4855866141732283
 20
-5.8038425196850394
 30
0.0
 10
-7.4855866141732283
 20
-5.8038425196850394
 30
0.0
 10
-7.4855866141732283
 20
-5.8038425196850394
 30
0.0
 10
-7.2185433070866143
 20
-5.3038425196850394
 30
0.0
 10
-7.2185433070866143
 20
-5.3038425196850394
 30
0.0
 10
-7.2185433070866143
 20
-5.3038425196850394
 30
0.0
 10
-7.2185433070866143
 20
-5.3038425196850394
 30
0.0
 10
-6.6844488188976383
 20
-5.3038425196850394
 30
0.0
 10
-6.6844488188976383
 20
-5.3038425196850394
 30
0.0
 10
-6.6844488188976383
 20
-5.3038425196850394
 30
0.0
 10
-6.6844488188976383
 20
-5.3038425196850394
 30
0.0
 10
-6.4174055118110243
 20
-5.8038425196850394
 30
0.0
 10
-6.4174055118110243
 20
-5.8038425196850394
 30
0.0
 10
-6.4174055118110243
 20
-5.8038425196850394
 30
0.0
 10
-6.4174055118110243
 20
-5.8038425196850394
 30
0.0
 10
-6.1503582677165358
 20
-5.3038425196850394
 30
0.0
 10
-6.1503582677165358
 20
-5.3038425196850394
 30
0.0
 10
-6.1503582677165358
 20
-5.3038425196850394
 30
0.0
 10
-6.1503582677165358
 20
-5.3038425196850394
 30
0.0
 10
-5.6162677165354333
 20
-5.3038425196850394
 30
0.0
 10
-5.6162677165354333
 20
-5.3038425196850394
 30
0.0
 10
-5.6162677165354333
 20
-5.3038425196850394
 30
0.0
 10
-5.6162677165354333
 20
-5.3038425196850394
 30
0.0
 10
-5.3492204724409449
 20
-5.8038425196850394
 30
0.0
 10
-5.3492204724409449
 20
-5.8038425196850394
 30
0.0
 10
-5.3492204724409449
 20
-5.8038425196850394
 30
0.0
 10
-5.3492204724409449
 20
-5.8038425196850394
 30
0.0
 10
-5.0821771653543308
 20
-5.3038425196850394
 30
0.0
 10
-5.0821771653543308
 20
-5.3038425196850394
 30
0.0
 10
-5.0821771653543308
 20
-5.3038425196850394
 30
0.0
 10
-5.0821771653543308
 20
-5.3038425196850394
 30
0.0
 10
-4.5480826771653549
 20
-5.3038425196850394
 30
0.0
 10
-4.5480826771653549
 20
-5.3038425196850394
 30
0.0
 10
-4.5480826771653549
 20
-5.3038425196850394
 30
0.0
 10
-4.5480826771653549
 20
-5.3038425196850394
 30
0.0
 10
-4.2810433070866143
 20
-5.8038425196850394
 30
0.0
 10
-4.2810433070866143
 20
-5.8038425196850394
 30
0.0
 10
-4.2810433070866143
 20
-5.8038425196850394
 30
0.0
 10
-4.2810433070866143
 20
-5.8038425196850394
 30
0.0
 10
-4.0140000000000002
 20
-5.3038425196850394
 30
0.0
 10
-4.0140000000000002
 20
-5.3038425196850394
 30
0.0
 10
-4.0140000000000002
 20
-5.3038425196850394
 30
0.0
 10
-4.0140000000000002
 20
-5.3038425196850394
 30
0.0
 10
-3.4799055118110238
 20
-5.3038425196850394
 30
0.0
 10
-3.4799055118110238
 20
-5.3038425196850394
 30
0.0
 10
-3.4799055118110238
 20
-5.3038425196850394
 30
0.0
 10
-3.4799055118110238
 20
-5.3038425196850394
 30
0.0
 10
-3.2128582677165354
 20
-5.8038425196850394
 30
0.0
 10
-3.2128582677165354
 20
-5.8038425196850394
 30
0.0
 10
-3.2128582677165354
 20
-5.8038425196850394
 30
0.0
 10
-3.2128582677165354
 20
-5.8038425196850394
 30
0.0
 10
-2.9458149606299213
 20
-5.3038425196850394
 30
0.0
 10
-2.9458149606299213
 20
-5.3038425196850394
 30
0.0
 10
-2.9458149606299213
 20
-5.3038425196850394
 30
0.0
 10
-2.9458149606299213
 20
-5.3038425196850394
 30
0.0
 10
-2.4117204724409449
 20
-5.3038425196850394
 30
0.0
 10
-2.4117204724409449
 20
-5.3038425196850394
 30
0.0
 10
-2.4117204724409449
 20
-5.3038425196850394
 30
0.0
 10
-2.4117204724409449
 20
-5.3038425196850394
 30
0.0
 10
-2.1446771653543308
 20
-5.8038425196850394
 30
0.0
 10
-2.1446771653543308
 20
-5.8038425196850394
 30
0.0
 10
-2.1446771653543308
 20
-5.8038425196850394
 30
0.0
 10
-2.1446771653543308
 20
-5.8038425196850394
 30
0.0
 10
-1.8776338582677166
 20
-5.3038425196850394
 30
0.0
 10
-1.8776338582677166
 20
-5.3038425196850394
 30
0.0
 10
-1.8776338582677166
 20
-5.3038425196850394
 30
0.0
 10
-1.8776338582677166
 20
-5.3038425196850394
 30
0.0
 10
-1.3435433070866143
 20
-5.3038425196850394
 30
0.0
 10
-1.3435433070866143
 20
-5.3038425196850394
 30
0.0
 10
-1.3435433070866143
 20
-5.3038425196850394
 30
0.0
 10
-1.3435433070866143
 20
-5.3038425196850394
 30
0.0
 10
-1.0764921259842519
 20
-5.8038425196850394
 30
0.0
 10
-1.0764921259842519
 20
-5.8038425196850394
 30
0.0
 10
-1.0764921259842519
 20
-5.8038425196850394
 30
0.0
 10
-1.0764921259842519
 20
-5.8038425196850394
 30
0.0
 10
-0.8094488188976379
 20
-5.3038425196850394
 30
0.0
 10
-0.8094488188976379
 20
-5.3038425196850394
 30
0.0
 10
-0.8094488188976379
 20
-5.3038425196850394
 30
0.0
 10
-0.8094488188976379
 20
-5.3038425196850394
 30
0.0
 10
-0.2753582677165354
 20
-5.3038425196850394
 30
0.0
 10
-0.2753582677165354
 20
-5.3038425196850394
 30
0.0
 10
-0.2753582677165354
 20
-5.3038425196850394
 30
0.0
 10
-0.2753582677165354
 20
-5.3038425196850394
 30
0.0
 10
-0.0083110236220472
 20
-5.8038425196850394
 30
0.0
 10
-0.0083110236220472
 20
-5.8038425196850394
 30
0.0
 10
-0.0083110236220472
 20
-5.8038425196850394
 30
0.0
 10
-0.0083110236220472
 20
-5.8038425196850394
 30
0.0
 10
0.258732283464567
 20
-5.3038425196850394
 30
0.0
 10
0.258732283464567
 20
-5.3038425196850394
 30
0.0
 10
0.258732283464567
 20
-5.3038425196850394
 30
0.0
 10
0.258732283464567
 20
-5.3038425196850394
 30
0.0
 10
0.7928188976377953
 20
-5.3038425196850394
 30
0.0
 10
0.7928188976377953
 20
-5.3038425196850394
 30
0.0
 10
0.7928188976377953
 20
-5.3038425196850394
 30
0.0
 10
0.7928188976377953
 20
-5.3038425196850394
 30
0.0
 10
1.0598661417322834
 20
-5.8038425196850394
 30
0.0
 10
1.0598661417322834
 20
-5.8038425196850394
 30
0.0
 10
1.0598661417322834
 20
-5.8038425196850394
 30
0.0
 10
1.0598661417322834
 20
-5.8038425196850394
 30
0.0
 10
1.3269133858267717
 20
-5.3038425196850394
 30
0.0
 10
1.3269133858267717
 20
-5.3038425196850394
 30
0.0
 10
1.3269133858267717
 20
-5.3038425196850394
 30
0.0
 10
1.3269133858267717
 20
-5.3038425196850394
 30
0.0
 10
1.8610039370078741
 20
-5.3038425196850394
 30
0.0
 10
1.8610039370078741
 20
-5.3038425196850394
 30
0.0
 10
1.8610039370078741
 20
-5.3038425196850394
 30
0.0
 10
1.8610039370078741
 20
-5.3038425196850394
 30
0.0
 10
2.1280511811023621
 20
-5.8038425196850394
 30
0.0
 10
2.1280511811023621
 20
-5.8038425196850394
 30
0.0
 10
2.1280511811023621
 20
-5.8038425196850394
 30
0.0
 10
2.1280511811023621
 20
-5.8038425196850394
 30
0.0
 10
2.3950944881889766
 20
-5.3038425196850394
 30
0.0
 10
2.3950944881889766
 20
-5.3038425196850394
 30
0.0
 10
2.3950944881889766
 20
-5.3038425196850394
 30
0.0
 10
2.3950944881889766
 20
-5.3038425196850394
 30
0.0
 10
2.9291850393700787
 20
-5.3038425196850394
 30
0.0
 10
2.9291850393700787
 20
-5.3038425196850394
 30
0.0
 10
2.9291850393700787
 20
-5.3038425196850394
 30
0.0
 10
2.9291850393700787
 20
-5.3038425196850394
 30
0.0
 10
3.1962283464566932
 20
-5.8038425196850394
 30
0.0
 10
3.1962283464566932
 20
-5.8038425196850394
 30
0.0
 10
3.1962283464566932
 20
-5.8038425196850394
 30
0.0
 10
3.1962283464566932
 20
-5.8038425196850394
 30
0.0
 10
3.4632795275590551
 20
-5.3038425196850394
 30
0.0
 10
3.4632795275590551
 20
-5.3038425196850394
 30
0.0
 10
3.4632795275590551
 20
-5.3038425196850394
 30
0.0
 10
3.4632795275590551
 20
-5.3038425196850394
 30
0.0
 10
3.9973700787401576
 20
-5.3038425196850394
 30
0.0
 10
3.9973700787401576
 20
-5.3038425196850394
 30
0.0
 10
3.9973700787401576
 20
-5.3038425196850394
 30
0.0
 10
3.9973700787401576
 20
-5.3038425196850394
 30
0.0
 10
4.2644133858267717
 20
-5.8038425196850394
 30
0.0
 10
4.2644133858267717
 20
-5.8038425196850394
 30
0.0
 10
4.2644133858267717
 20
-5.8038425196850394
 30
0.0
 10
4.2644133858267717
 20
-5.8038425196850394
 30
0.0
 10
4.5314606299212601
 20
-5.3038425196850394
 30
0.0
 10
4.5314606299212601
 20
-5.3038425196850394
 30
0.0
 10
4.5314606299212601
 20
-5.3038425196850394
 30
0.0
 10
4.5314606299212601
 20
-5.3038425196850394
 30
0.0
 10
5.0655511811023626
 20
-5.3038425196850394
 30
0.0
 10
5.0655511811023626
 20
-5.3038425196850394
 30
0.0
 10
5.0655511811023626
 20
-5.3038425196850394
 30
0.0
 10
5.0655511811023626
 20
-5.3038425196850394
 30
0.0
 10
5.3325905511811023
 20
-5.8038425196850394
 30
0.0
 10
5.3325905511811023
 20
-5.8038425196850394
 30
0.0
 10
5.3325905511811023
 20
-5.8038425196850394
 30
0.0
 10
5.3325905511811023
 20
-5.8038425196850394
 30
0.0
 10
5.5996417322834651
 20
-5.3038425196850394
 30
0.0
 10
5.5996417322834651
 20
-5.3038425196850394
 30
0.0
 10
5.5996417322834651
 20
-5.3038425196850394
 30
0.0
 10
5.5996417322834651
 20
-5.3038425196850394
 30
0.0
 10
6.1337283464566932
 20
-5.3038425196850394
 30
0.0
 10
6.1337283464566932
 20
-5.3038425196850394
 30
0.0
 10
6.1337283464566932
 20
-5.3038425196850394
 30
0.0
 10
6.1337283464566932
 20
-5.3038425196850394
 30
0.0
 10
6.4007755905511816
 20
-5.8038425196850394
 30
0.0
 10
6.4007755905511816
 20
-5.8038425196850394
 30
0.0
 10
6.4007755905511816
 20
-5.8038425196850394
 30
0.0
 10
6.4007755905511816
 20
-5.8038425196850394
 30
0.0
 10
6.6678228346456692
 20
-5.3038425196850394
 30
0.0
 10
6.6678228346456692
 20
-5.3038425196850394
 30
0.0
 10
6.6678228346456692
 20
-5.3038425196850394
 30
0.0
 10
6.6678228346456692
 20
-5.3038425196850394
 30
0.0
 10
7.2019133858267717
 20
-5.3038425196850394
 30
0.0
 10
7.2019133858267717
 20
-5.3038425196850394
 30
0.0
 10
7.2019133858267717
 20
-5.3038425196850394
 30
0.0
 10
7.2019133858267717
 20
-5.3038425196850394
 30
0.0
 10
7.4689566929133857
 20
-5.8038425196850394
 30
0.0
 10
7.4689566929133857
 20
-5.8038425196850394
 30
0.0
 10
7.4689566929133857
 20
-5.8038425196850394
 30
0.0
 10
7.4689566929133857
 20
-5.8038425196850394
 30
0.0
 10
7.7360039370078741
 20
-5.3038425196850394
 30
0.0
 10
7.7360039370078741
 20
-5.3038425196850394
 30
0.0
 10
7.7360039370078741
 20
-5.3038425196850394
 30
0.0
 10
7.7360039370078741
 20
-5.3038425196850394
 30
0.0
 10
8.2700944881889775
 20
-5.3038425196850394
 30
0.0
 10
8.2700944881889775
 20
-5.3038425196850394
 30
0.0
 10
8.2700944881889775
 20
-5.3038425196850394
 30
0.0
 10
8.2700944881889775
 20
-5.3038425196850394
 30
0.0
 10
8.5371417322834642
 20
-5.8038425196850394
 30
0.0
 10
8.5371417322834642
 20
-5.8038425196850394
 30
0.0
 10
8.5371417322834642
 20
-5.8038425196850394
 30
0.0
 10
8.5371417322834642
 20
-5.8038425196850394
 30
0.0
 10
8.8041850393700791
 20
-5.3038425196850394
 30
0.0
 10
8.8041850393700791
 20
-5.3038425196850394
 30
0.0
 10
8.8041850393700791
 20
-5.3038425196850394
 30
0.0
 10
8.8041850393700791
 20
-5.3038425196850394
 30
0.0
 10
9.338279527559056
 20
-5.3038425196850394
 30
0.0
 10
9.338279527559056
 20
-5.3038425196850394
 30
0.0
 10
9.338279527559056
 20
-5.3038425196850394
 30
0.0
 10
9.338279527559056
 20
-5.3038425196850394
 30
0.0
 10
9.6053228346456692
 20
-5.8038425196850394
 30
0.0
 10
9.6053228346456692
 20
-5.8038425196850394
 30
0.0
 10
9.6053228346456692
 20
-5.8038425196850394
 30
0.0
 10
9.6053228346456692
 20
-5.8038425196850394
 30
0.0
 10
9.8723700787401576
 20
-5.3038425196850394
 30
0.0
 10
9.8723700787401576
 20
-5.3038425196850394
 30
0.0
 10
9.8723700787401576
 20
-5.3038425196850394
 30
0.0
 10
9.8723700787401576
 20
-5.3038425196850394
 30
0.0
 10
10.406456692913386
 20
-5.3038425196850394
 30
0.0
 10
10.406456692913386
 20
-5.3038425196850394
 30
0.0
 10
10.406456692913386
 20
-5.3038425196850394
 30
0.0
 10
10.406456692913386
 20
-5.3038425196850394
 30
0.0
 10
10.673503937007874
 20
-5.8038425196850394
 30
0.0
 10
10.673503937007874
 20
-5.8038425196850394
 30
0.0
 10
10.673503937007874
 20
-5.8038425196850394
 30
0.0
 10
10.673503937007874
 20
-5.8038425196850394
 30
0.0
 10
10.940547244094489
 20
-5.3038425196850394
 30
0.0
 10
10.940547244094489
 20
-5.3038425196850394
 30
0.0
 10
10.940547244094489
 20
-5.3038425196850394
 30
0.0
 10
10.940547244094489
 20
-5.3038425196850394
 30
0.0
 10
11.474641732283464
 20
-5.3038425196850394
 30
0.0
 10
11.474641732283464
 20
-5.3038425196850394
 30
0.0
 10
11.474641732283464
 20
-5.3038425196850394
 30
0.0
 10
11.474641732283464
 20
-5.3038425196850394
 30
0.0
 10
11.741685039370079
 20
-5.8038425196850394
 30
0.0
 10
11.741685039370079
 20
-5.8038425196850394
 30
0.0
  0
SPLINE
  5
2F
100
AcDbEntity
  8
Layer 1
370
     5
 62
     1
100
AcDbSpline
210
0.0
220
0.0
230
1.0
 70
     0
 71
     3
 72
     8
 73
     4
 74
     0
 42
0.0000000001
 43
0.0000000001
 40
0.0
 40
0.0
 40
0.0
 40
0.0
 40
1.0
 40
1.0
 40
1.0
 40
1.0
 10
-11.758314960629921
 20
-5.8038425196850394
 30
0.0
 10
-11.758314960629921
 20
-5.8038425196850394
 30
0.0
 10
11.741685039370079
 20
-5.8038425196850394
 30
0.0
 10
11.741685039370079
 20
-5.8038425196850394
 30
0.0
  0
ENDSEC
  0
SECTION
  2
OBJECTS
  0
DICTIONARY
  5
19
100
AcDbDictionary
280
     0
281
     1
  3
ACAD_GROUP
350
1A
  3
ACAD_MLINESTYLE
350
1B
  3
ACAD_LAYOUT
350
1E
  3
ACAD_PLOTSETTINGS
350
22
  3
ACAD_PLOTSTYLENAME
350
1F
  3
ACAD_WIPEOUT_VARS
350
23
  0
DICTIONARY
  5
1A
102
{ACAD_REACTORS
330
19
102
}
100
AcDbDictionary
280
     0
281
     1
  0
DICTIONARY
  5
1B
102
{ACAD_REACTORS
330
19
102
}
100
AcDbDictionary
280
     0
281
     1
  3
Standard
350
1C
  0
MLINESTYLE
  5
1C
102
{ACAD_REACTORS
330
1B
102
}
100
AcDbMlineStyle
  2
Standard
 70
     0
  3

 62
     0
 51
90.0
 52
90.0
 71
     2
 49
0.5
 62
   256
  6
BYLAYER
 49
-0.5
 62
   256
  6
BYLAYER
  0
ACDBDICTIONARYWDFLT
  5
1F
102
{ACAD_REACTORS
330
19
102
}
100
AcDbDictionary
281
     1
  3
Normal
350
1D
100
AcDbDictionaryWithDefault
340
1D
  0
ACDBPLACEHOLDER
  5
1D
102
{ACAD_REACTORS
330
1F
102
}
  0
LAYOUT
  5
20
102
{ACAD_REACTORS
330
1E
102
}
100
AcDbPlotSettings
  1

  2

  4

  6

 40
0.0
 41
0.0
 42
0.0
 43
0.0
 44
0.0
 45
0.0
 46
0.0
 47
0.0
 48
0.0
 49
0.0
140
0.0
141
0.0
142
1.0
143
1.0
 70
  1024
 72
     0
 73
     0
 74
     0
  7

 75
     0
147
1.0
148
0.0
149
0.0
100
AcDbLayout
  1
Model
 70
     0
 71
     0
 10
0.0
 20
0.0
 11
0.0
 21
0.0
 12
0.0
 22
0.0
 32
0.0
 14
0.0
 24
0.0
 34
0.0
 15
0.0
 25
0.0
 35
0.0
146
0.0
 13
0.0
 23
0.0
 33
0.0
 16
0.0
 26
0.0
 36
0.0
 17
0.0
 27
0.0
 37
0.0
 76
     0
330
A
331
0
345
0
346
0
  0
LAYOUT
  5
21
102
{ACAD_REACTORS
330
1E
102
}
100
AcDbPlotSettings
  1

  2

  4

  6

 40
0.0
 41
0.0
 42
0.0
 43
0.0
 44
0.0
 45
0.0
 46
0.0
 47
0.0
 48
0.0
 49
0.0
140
0.0
141
0.0
142
1.0
143
1.0
 70
     0
 72
     0
 73
     0
 74
     0
  7

 75
     0
147
1.0
148
0.0
149
0.0
100
AcDbLayout
  1
Layout1
 70
     0
 71
     0
 10
0.0
 20
0.0
 11
0.0
 21
0.0
 12
0.0
 22
0.0
 32
0.0
 14
0.0
 24
0.0
 34
0.0
 15
0.0
 25
0.0
 35
0.0
146
0.0
 13
0.0
 23
0.0
 33
0.0
 16
0.0
 26
0.0
 36
0.0
 17
0.0
 27
0.0
 37
0.0
 76
     0
330
B
331
0
345
0
346
0
  0
DICTIONARY
  5
1E
102
{ACAD_REACTORS
330
19
102
}
100
AcDbDictionary
280
     0
281
     1
  3
Layout1
350
21
  3
Model
350
20
  0
DICTIONARY
  5
22
102
{ACAD_REACTORS
330
19
102
}
100
AcDbDictionary
280
     0
281
     1
  0
WIPEOUTVARIABLES
  5
23
100
AcDbWipeoutVariables
 70
     1
  0
ENDSEC
  0
EOF
