0
SECTION
2
HEADER
9
$INSUNITS
70
4
9
$ACADVER
1
AC1014
9
$HANDSEED
5
FFFF
0
ENDSEC
0
SECTION
2
TABLES
0
TABLE
2
VPORT
5
8
100
AcDbSymbolTable
0
ENDTAB
0
TABLE
2
LTYPE
5
5
100
AcDbSymbolTable
0
LTYPE
5
14
100
AcDbSymbolTableRecord
100
AcDbLinetypeTableRecord
2
BYBLOCK
70
0
0
LTYPE
5
15
100
AcDbSymbolTableRecord
100
AcDbLinetypeTableRecord
2
BYLAYER
70
0
0
ENDTAB
0
TABLE
2
LAYER
5
2
100
AcDbSymbolTable
70
2
0
LAYER
5
50
100
AcDbSymbolTableRecord
100
AcDbLayerTableRecord
2
0
70
0
6
CONTINUOUS
0
ENDTAB
0
TABLE
2
STYLE
5
3
100
AcDbSymbolTable
70
1
0
STYLE
5
11
100
AcDbSymbolTableRecord
100
AcDbTextStyleTableRecord
2
STANDARD
70
0
0
ENDTAB
0
TABLE
2
VIEW
5
6
100
AcDbSymbolTable
70
0
0
ENDTAB
0
TABLE
2
UCS
5
7
100
AcDbSymbolTable
70
0
0
ENDTAB
0
TABLE
2
APPID
5
9
100
AcDbSymbolTable
70
2
0
APPID
5
12
100
AcDbSymbolTableRecord
100
AcDbRegAppTableRecord
2
ACAD
70
0
0
ENDTAB
0
TABLE
2
DIMSTYLE
5
A
100
AcDbSymbolTable
70
1
0
ENDTAB
0
TABLE
2
BLOCK_RECORD
5
1
100
AcDbSymbolTable
70
1
0
BLOCK_RECORD
5
1F
100
AcDbSymbolTableRecord
100
AcDbBlockTableRecord
2
*MODEL_SPACE
0
BLOCK_RECORD
5
1B
100
AcDbSymbolTableRecord
100
AcDbBlockTableRecord
2
*PAPER_SPACE
0
ENDTAB
0
ENDSEC
0
SECTION
2
BLOCKS
0
BLOCK
5
20
100
AcDbEntity
100
AcDbBlockBegin
2
*MODEL_SPACE
0
ENDBLK
5
21
100
AcDbEntity
100
AcDbBlockEnd
0
BLOCK
5
1C
100
AcDbEntity
100
AcDbBlockBegin
2
*PAPER_SPACE
0
ENDBLK
5
1D
100
AcDbEntity
100
AcDbBlockEnd
0
ENDSEC
0
SECTION
2
ENTITIES
0
CIRCLE
5
100
100
AcDbEntity
8
0
100
AcDbCircle
10
0
20
0
30
0
40
45
0
CIRCLE
5
101
100
AcDbEntity
8
0
100
AcDbCircle
10
0
20
35
30
0
40
3.5000000000000004
0
CIRCLE
5
102
100
AcDbEntity
8
0
100
AcDbCircle
10
-15
20
15
30
0
40
5
0
CIRCLE
5
103
100
AcDbEntity
8
0
100
AcDbCircle
10
-15
20
-15.000000000000009
30
0
40
5
0
CIRCLE
5
104
100
AcDbEntity
8
0
100
AcDbCircle
10
14.999999999999998
20
-15.000000000000002
30
0
40
5
0
CIRCLE
5
105
100
AcDbEntity
8
0
100
AcDbCircle
10
15.000000000000004
20
14.999999999999996
30
0
40
5
0
CIRCLE
5
106
100
AcDbEntity
8
0
100
AcDbCircle
10
-17.499999999999996
20
30.310889132455358
30
0
40
3.5000000000000004
0
CIRCLE
5
107
100
AcDbEntity
8
0
100
AcDbCircle
10
-30.310889132455351
20
17.500000000000004
30
0
40
3.5000000000000004
0
CIRCLE
5
108
100
AcDbEntity
8
0
100
AcDbCircle
10
-35.000000000000007
20
-7.7715611723760958e-15
30
0
40
3.5000000000000004
0
CIRCLE
5
109
100
AcDbEntity
8
0
100
AcDbCircle
10
-30.310889132455358
20
-17.499999999999993
30
0
40
3.5000000000000004
0
CIRCLE
5
110
100
AcDbEntity
8
0
100
AcDbCircle
10
-17.500000000000011
20
-30.310889132455344
30
0
40
3.5000000000000004
0
CIRCLE
5
111
100
AcDbEntity
8
0
100
AcDbCircle
10
-4.2862637970157365e-15
20
-35
30
0
40
3.5000000000000004
0
CIRCLE
5
112
100
AcDbEntity
8
0
100
AcDbCircle
10
17.499999999999993
20
-30.310889132455358
30
0
40
3.5000000000000004
0
CIRCLE
5
113
100
AcDbEntity
8
0
100
AcDbCircle
10
30.310889132455344
20
-17.500000000000007
30
0
40
3.5000000000000004
0
CIRCLE
5
114
100
AcDbEntity
8
0
100
AcDbCircle
10
35
20
-7.7715611723760958e-15
30
0
40
3.5000000000000004
0
CIRCLE
5
115
100
AcDbEntity
8
0
100
AcDbCircle
10
30.310889132455365
20
17.499999999999979
30
0
40
3.5000000000000004
0
CIRCLE
5
116
100
AcDbEntity
8
0
100
AcDbCircle
10
17.500000000000014
20
30.310889132455344
30
0
40
3.5000000000000004
0
LINE
5
117
100
AcDbEntity
8
0
100
AcDbLine
10
22
20
1.5000000000000016
30
0
11
22
21
1.3471114790620888e-15
31
0
0
LINE
5
118
100
AcDbEntity
8
0
100
AcDbLine
10
16
20
1.500000000000004
30
0
11
22
21
1.5000000000000016
31
0
0
LINE
5
119
100
AcDbEntity
8
0
100
AcDbLine
10
0
20
1.499999999999998
30
0
11
10
21
1.5000000000000009
31
0
0
LINE
5
120
100
AcDbEntity
8
0
100
AcDbLine
10
16
20
9.7971743931788257e-16
30
0
11
16
21
1.500000000000004
31
0
0
LINE
5
121
100
AcDbEntity
8
0
100
AcDbLine
10
0
20
0
30
0
11
0
21
16.000000238418579
31
0
0
LINE
5
122
100
AcDbEntity
8
0
100
AcDbLine
10
-1.499999999999998
20
9.1848509936051312e-17
30
0
11
-1.5000000000000002
21
10
31
0
0
LINE
5
123
100
AcDbEntity
8
0
100
AcDbLine
10
10
20
1.5000000000000009
30
0
11
10
21
6.1232339957367663e-16
31
0
0
LINE
5
124
100
AcDbEntity
8
0
100
AcDbLine
10
-16
20
1.500000000000004
30
0
11
-22
21
1.5000000000000016
31
0
0
LINE
5
125
100
AcDbEntity
8
0
100
AcDbLine
10
1.499999999999998
20
-9.1848509936051386e-17
30
0
11
1.5000000000000002
21
10
31
0
0
LINE
5
126
100
AcDbEntity
8
0
100
AcDbLine
10
0
20
-1.499999999999998
30
0
11
10
21
-1.4999999999999996
31
0
0
LINE
5
127
100
AcDbEntity
8
0
100
AcDbLine
10
1.5000000000000031
20
16
30
0
11
1.5
21
22
31
0
0
LINE
5
128
100
AcDbEntity
8
0
100
AcDbLine
10
-10
20
1.5000000000000009
30
0
11
-10
21
6.1232339957367663e-16
31
0
0
LINE
5
129
100
AcDbEntity
8
0
100
AcDbLine
10
-10
20
-1.4999999999999996
30
0
11
-10
21
6.1232339957367663e-16
31
0
0
LINE
5
130
100
AcDbEntity
8
0
100
AcDbLine
10
-16
20
9.7971743931788276e-16
30
0
11
-16
21
1.500000000000004
31
0
0
LINE
5
131
100
AcDbEntity
8
0
100
AcDbLine
10
1.8369701987210277e-16
20
1.499999999999998
30
0
11
-10
21
1.5000000000000009
31
0
0
LINE
5
132
100
AcDbEntity
8
0
100
AcDbLine
10
-22
20
1.5000000000000016
30
0
11
-22
21
1.3471114790620882e-15
31
0
0
LINE
5
133
100
AcDbEntity
8
0
100
AcDbLine
10
-16
20
-1.5000000000000018
30
0
11
-22
21
-1.4999999999999989
31
0
0
LINE
5
134
100
AcDbEntity
8
0
100
AcDbLine
10
-22
20
-1.4999999999999989
30
0
11
-22
21
1.347111479062089e-15
31
0
0
LINE
5
135
100
AcDbEntity
8
0
100
AcDbLine
10
-16
20
9.7971743931788276e-16
30
0
11
-16
21
-1.5000000000000018
31
0
0
LINE
5
136
100
AcDbEntity
8
0
100
AcDbLine
10
-1.499999999999998
20
2.7554552980815408e-16
30
0
11
-1.5000000000000009
21
-10
31
0
0
LINE
5
137
100
AcDbEntity
8
0
100
AcDbLine
10
-1.5000000000000009
20
-10
30
0
11
-1.2246467991473531e-15
21
-10
31
0
0
LINE
5
138
100
AcDbEntity
8
0
100
AcDbLine
10
-1.9594348786357647e-15
20
-16
30
0
11
-1.5000000000000053
21
-16
31
0
0
LINE
5
139
100
AcDbEntity
8
0
100
AcDbLine
10
1.499999999999998
20
-2.7554552980815418e-16
30
0
11
1.4999999999999991
21
-10
31
0
0
LINE
5
140
100
AcDbEntity
8
0
100
AcDbLine
10
1.4999999999999991
20
-10
30
0
11
-1.2246467991473531e-15
21
-10
31
0
0
LINE
5
141
100
AcDbEntity
8
0
100
AcDbLine
10
-1.5
20
22
30
0
11
0
21
22
31
0
0
LINE
5
142
100
AcDbEntity
8
0
100
AcDbLine
10
-1.5000000000000031
20
16
30
0
11
-1.5
21
22
31
0
0
LINE
5
143
100
AcDbEntity
8
0
100
AcDbLine
10
-1.5000000000000002
20
10
30
0
11
0
21
10
31
0
0
LINE
5
144
100
AcDbEntity
8
0
100
AcDbLine
10
0
20
16
30
0
11
-1.5000000000000031
21
16
31
0
0
LINE
5
145
100
AcDbEntity
8
0
100
AcDbLine
10
0
20
0
30
0
11
30.000000447034836
21
0
31
0
0
LINE
5
146
100
AcDbEntity
8
0
100
AcDbLine
10
-1.8369701987210277e-16
20
-1.499999999999998
30
0
11
-10
21
-1.4999999999999996
31
0
0
LINE
5
147
100
AcDbEntity
8
0
100
AcDbLine
10
-1.5000000000000053
20
-16
30
0
11
-1.5000000000000033
21
-22.000000000000007
31
0
0
LINE
5
148
100
AcDbEntity
8
0
100
AcDbLine
10
-1.5000000000000033
20
-22.000000000000007
30
0
11
-2.6942229581241772e-15
21
-22
31
0
0
LINE
5
149
100
AcDbEntity
8
0
100
AcDbLine
10
-1.9594348786357651e-15
20
-16
30
0
11
1.5000000000000009
21
-16
31
0
0
LINE
5
150
100
AcDbEntity
8
0
100
AcDbLine
10
1.4999999999999971
20
-22
30
0
11
-2.6942229581241772e-15
21
-22
31
0
0
LINE
5
151
100
AcDbEntity
8
0
100
AcDbLine
10
1.5000000000000009
20
-16
30
0
11
1.4999999999999971
21
-22
31
0
0
LINE
5
152
100
AcDbEntity
8
0
100
AcDbLine
10
10
20
-1.4999999999999996
30
0
11
10
21
6.1232339957367663e-16
31
0
0
LINE
5
153
100
AcDbEntity
8
0
100
AcDbLine
10
16
20
-1.5000000000000018
30
0
11
22
21
-1.4999999999999989
31
0
0
LINE
5
154
100
AcDbEntity
8
0
100
AcDbLine
10
22
20
-1.4999999999999989
30
0
11
22
21
1.3471114790620888e-15
31
0
0
LINE
5
155
100
AcDbEntity
8
0
100
AcDbLine
10
1.5000000000000002
20
10
30
0
11
0
21
10
31
0
0
LINE
5
156
100
AcDbEntity
8
0
100
AcDbLine
10
1.5
20
22
30
0
11
0
21
22
31
0
0
LINE
5
157
100
AcDbEntity
8
0
100
AcDbLine
10
0
20
16
30
0
11
1.5000000000000031
21
16
31
0
0
LINE
5
158
100
AcDbEntity
8
0
100
AcDbLine
10
16
20
9.7971743931788257e-16
30
0
11
16
21
-1.5000000000000018
31
0
0
ENDSEC
0
SECTION
2
OBJECTS
0
DICTIONARY
5
C
100
AcDbDictionary
3
ACAD_GROUP
350
D
3
ACAD_MLINESTYLE
350
17
0
DICTIONARY
5
D
100
AcDbDictionary
0
DICTIONARY
5
1A
330
C
100
AcDbDictionary
0
DICTIONARY
5
17
100
AcDbDictionary
0
ENDSEC
0
EOF
