  0
SECTION
  2
HEADER
  9
$ACADVER
  1
AC1014
  9
$HANDSEED
  5
FFFF
  9
$MEASUREMENT
 70
     1
  0
ENDSEC
  0
SECTION
  2
TABLES
  0
TABLE
  2
VPORT
  5
8
330
0
100
AcDbSymbolTable
 70
     4
  0
VPORT
  5
2E
330
8
100
AcDbSymbolTableRecord
100
AcDbViewportTableRecord
  2
*ACTIVE
 70
     0
 10
0.0
 20
0.0
 11
1.0
 21
1.0
 12
210.0
 22
148.5
 13
0.0
 23
0.0
 14
10.0
 24
10.0
 15
10.0
 25
10.0
 16
0.0
 26
0.0
 36
1.0
 17
0.0
 27
0.0
 37
0.0
 40
341.0
 41
1.24
 42
50.0
 43
0.0
 44
0.0
 50
0.0
 51
0.0
 71
     0
 72
   100
 73
     1
 74
     3
 75
     0
 76
     0
 77
     0
 78
     0
  0
ENDTAB
  0
TABLE
  2
LTYPE
  5
5
330
0
100
AcDbSymbolTable
 70
     1
  0
LTYPE
  5
14
330
5
100
AcDbSymbolTableRecord
100
AcDbLinetypeTableRecord
  2
BYBLOCK
 70
     0
  3

 72
    65
 73
     0
 40
0.0
  0
LTYPE
  5
15
330
5
100
AcDbSymbolTableRecord
100
AcDbLinetypeTableRecord
  2
BYLAYER
 70
     0
  3

 72
    65
 73
     0
 40
0.0
  0
LTYPE
  5
16
330
5
100
AcDbSymbolTableRecord
100
AcDbLinetypeTableRecord
  2
CONTINUOUS
 70
     0
  3
Solid line
 72
    65
 73
     0
 40
0.0
  0
ENDTAB
  0
TABLE
  2
LAYER
  5
2
100
AcDbSymbolTable
 70
2
  0
LAYER
  5
50
100
AcDbSymbolTableRecord
100
AcDbLayerTableRecord
  2
0
 70
0
  6
CONTINUOUS
  0
LAYER
  5
51
100
AcDbSymbolTableRecord
100
AcDbLayerTableRecord
  2
Layer_1
 70
0
  6
CONTINUOUS
  0
ENDTAB
  0
TABLE
  2
STYLE
  5
3
330
0
100
AcDbSymbolTable
 70
     1
  0
STYLE
  5
11
330
3
100
AcDbSymbolTableRecord
100
AcDbTextStyleTableRecord
  2
STANDARD
 70
     0
 40
0.0
 41
1.0
 50
0.0
 71
     0
 42
2.5
  3
txt
  4

  0
ENDTAB
  0
TABLE
  2
VIEW
  5
6
330
0
100
AcDbSymbolTable
 70
     0
  0
ENDTAB
  0
TABLE
  2
UCS
  5
7
330
0
100
AcDbSymbolTable
 70
     0
  0
ENDTAB
  0
TABLE
  2
APPID
  5
9
330
0
100
AcDbSymbolTable
 70
     2
  0
APPID
  5
12
330
9
100
AcDbSymbolTableRecord
100
AcDbRegAppTableRecord
  2
ACAD
 70
     0
  0
ENDTAB
  0
TABLE
  2
DIMSTYLE
  5
A
330
0
100
AcDbSymbolTable
 70
     1
  0
DIMSTYLE
105
27
330
A
100
AcDbSymbolTableRecord
100
AcDbDimStyleTableRecord
  2
ISO-25
 70
     0
  3

  4

  5

  6

  7

 40
1.0
 41
2.5
 42
0.625
 43
3.75
 44
1.25
 45
0.0
 46
0.0
 47
0.0
 48
0.0
140
2.5
141
2.5
142
0.0
143
0.03937007874016
144
1.0
145
0.0
146
1.0
147
0.625
 71
     0
 72
     0
 73
     0
 74
     0
 75
     0
 76
     0
 77
     1
 78
     8
170
     0
171
     3
172
     1
173
     0
174
     0
175
     0
176
     0
177
     0
178
     0
270
     2
271
     2
272
     2
273
     2
274
     3
340
11
275
     0
280
     0
281
     0
282
     0
283
     0
284
     8
285
     0
286
     0
287
     3
288
     0
  0
ENDTAB
  0
TABLE
  2
BLOCK_RECORD
  5
1
330
0
100
AcDbSymbolTable
 70
     1
  0
BLOCK_RECORD
  5
1F
330
1
100
AcDbSymbolTableRecord
100
AcDbBlockTableRecord
  2
*MODEL_SPACE
  0
BLOCK_RECORD
  5
1B
330
1
100
AcDbSymbolTableRecord
100
AcDbBlockTableRecord
  2
*PAPER_SPACE
  0
ENDTAB
  0
ENDSEC
  0
SECTION
  2
BLOCKS
  0
BLOCK
  5
20
330
1F
100
AcDbEntity
  8
0
100
AcDbBlockBegin
  2
*MODEL_SPACE
 70
     0
 10
0.0
 20
0.0
 30
0.0
  3
*MODEL_SPACE
  1

  0
ENDBLK
  5
21
330
1F
100
AcDbEntity
  8
0
100
AcDbBlockEnd
  0
BLOCK
  5
1C
330
1B
100
AcDbEntity
 67
     1
  8
0
100
AcDbBlockBegin
  2
*PAPER_SPACE
  1

  0
ENDBLK
  5
1D
330
1B
100
AcDbEntity
 67
     1
  8
0
100
AcDbBlockEnd
  0
ENDSEC
  0
SECTION
  2
ENTITIES
  0
LWPOLYLINE
  5
100
100
AcDbEntity
  8
Layer_1
 62
7
100
AcDbPolyline
 90
4
 70
1
 10
107.708120
 20
316.696640
 30
0.0
 10
124.868792
 20
316.696640
 30
0.0
 10
124.868792
 20
307.771120
 30
0.0
 10
109.138176
 20
307.771120
 30
0.0
  0
SPLINE
  5
101
100
AcDbEntity
  8
Layer_1
 62
7
100
AcDbSpline
 70
0
 71
3
 72
10
 73
6
 74
4
 40
0.000000
 40
0.000000
 40
0.000000
 40
0.000000
 40
14.086462
 40
30.841980
 40
49.805571
 40
49.805571
 40
49.805571
 40
49.805571
 10
109.138176
 20
307.771120
 30
0.0
 10
112.984968
 20
305.034321
 30
0.0
 10
121.407429
 20
299.042162
 30
0.0
 10
137.684080
 20
294.401622
 30
0.0
 10
149.573838
 20
293.729019
 30
0.0
 10
155.886216
 20
293.371928
 30
0.0
 11
109.138176
 21
307.771120
 31
0.0
 11
121.024168
 21
300.211251
 31
0.0
 11
137.010139
 21
295.191680
 31
0.0
 11
155.886216
 21
293.371928
 31
0.0
  0
LWPOLYLINE
  5
102
100
AcDbEntity
  8
Layer_1
 62
7
100
AcDbPolyline
 90
4
 70
1
 10
155.886216
 20
293.371928
 30
0.0
 10
235.673488
 20
293.569176
 30
0.0
 10
235.673488
 20
351.757680
 30
0.0
 10
155.886216
 20
351.757680
 30
0.0
  0
SPLINE
  5
103
100
AcDbEntity
  8
Layer_1
 62
7
100
AcDbSpline
 70
0
 71
3
 72
13
 73
9
 74
7
 40
0.000000
 40
0.000000
 40
0.000000
 40
0.000000
 40
0.033004
 40
0.065631
 40
0.098624
 40
19.148432
 40
35.963249
 40
50.075592
 40
50.075592
 40
50.075592
 40
50.075592
 10
155.886216
 20
351.757680
 30
0.0
 10
155.875215
 20
351.757682
 30
0.0
 10
155.853338
 20
351.757686
 30
0.0
 10
155.820463
 20
351.757699
 30
0.0
 10
149.448642
 20
351.754310
 30
0.0
 10
137.514041
 20
350.549485
 30
0.0
 10
121.184392
 20
346.020712
 30
0.0
 10
112.777204
 20
339.937201
 30
0.0
 10
108.940928
 20
337.161240
 30
0.0
 11
155.886216
 21
351.757680
 31
0.0
 11
155.853212
 21
351.757687
 31
0.0
 11
155.820585
 21
351.757694
 31
0.0
 11
155.787592
 21
351.757680
 31
0.0
 11
136.828856
 21
349.897169
 31
0.0
 11
120.803323
 21
344.805965
 31
0.0
 11
108.940928
 21
337.161240
 31
0.0
  0
LWPOLYLINE
  5
104
100
AcDbEntity
  8
Layer_1
 62
7
100
AcDbPolyline
 90
6
 70
1
 10
108.940928
 20
337.161240
 30
0.0
 10
124.868792
 20
337.161240
 30
0.0
 10
124.868792
 20
328.038472
 30
0.0
 10
107.708120
 20
328.038472
 30
0.0
 10
107.708120
 20
316.696640
 30
0.0
 10
107.708120
 20
316.696640
 30
0.0
  0
SPLINE
  5
105
100
AcDbEntity
  8
Layer_1
 62
7
100
AcDbSpline
 70
0
 71
3
 72
10
 73
6
 74
4
 40
0.000000
 40
0.000000
 40
0.000000
 40
0.000000
 40
17.108831
 40
35.424621
 40
52.414721
 40
52.414721
 40
52.414721
 40
52.414721
 10
119.360472
 20
256.792264
 30
0.0
 10
121.015575
 20
251.141197
 30
0.0
 10
124.442541
 20
239.440401
 30
0.0
 10
140.872711
 20
229.960701
 30
0.0
 10
152.516588
 20
228.499708
 30
0.0
 10
158.119920
 20
227.796640
 30
0.0
 11
119.360472
 21
256.792264
 31
0.0
 11
126.116571
 21
241.073892
 31
0.0
 11
141.443480
 21
231.046229
 31
0.0
 11
158.119920
 21
227.796640
 31
0.0
  0
LWPOLYLINE
  5
106
100
AcDbEntity
  8
Layer_1
 62
7
100
AcDbPolyline
 90
4
 70
1
 10
158.119920
 20
227.796640
 30
0.0
 10
235.392272
 20
227.796640
 30
0.0
 10
235.392272
 20
286.034448
 30
0.0
 10
155.506368
 20
286.034448
 30
0.0
  0
LWPOLYLINE
  5
107
100
AcDbEntity
  8
Layer_1
 62
7
100
AcDbPolyline
 90
2
 70
1
 10
119.360472
 20
256.792264
 30
0.0
 10
119.360472
 20
256.792264
 30
0.0
  0
LWPOLYLINE
  5
108
100
AcDbEntity
  8
Layer_1
 62
7
100
AcDbPolyline
 90
10
 70
1
 10
153.453504
 20
36.252592
 30
0.0
 10
233.290104
 20
36.252592
 30
0.0
 10
233.290104
 20
94.490368
 30
0.0
 10
153.453504
 20
94.490368
 30
0.0
 10
153.453504
 20
76.787256
 30
0.0
 10
170.614176
 20
76.787256
 30
0.0
 10
170.614176
 20
54.300832
 30
0.0
 10
153.453504
 20
54.300832
 30
0.0
 10
153.453504
 20
36.252592
 30
0.0
 10
153.453504
 20
36.252592
 30
0.0
  0
LWPOLYLINE
  5
109
100
AcDbEntity
  8
Layer_1
 62
7
100
AcDbPolyline
 90
5
 70
1
 10
248.679624
 20
495.280560
 30
0.0
 10
248.679624
 20
536.788216
 30
0.0
 10
307.397776
 20
536.788216
 30
0.0
 10
307.397776
 20
495.280560
 30
0.0
 10
248.679624
 20
495.280560
 30
0.0
  0
LWPOLYLINE
  5
10a
100
AcDbEntity
  8
Layer_1
 62
7
100
AcDbPolyline
 90
7
 70
1
 10
235.396456
 20
422.763968
 30
0.0
 10
235.207048
 20
474.435720
 30
0.0
 10
183.008128
 20
449.581240
 30
0.0
 10
183.580752
 20
479.818936
 30
0.0
 10
172.037480
 20
479.925448
 30
0.0
 10
155.824472
 20
422.471424
 30
0.0
 10
235.396456
 20
422.763968
 30
0.0
  0
LWPOLYLINE
  5
10b
100
AcDbEntity
  8
Layer_1
 62
7
100
AcDbPolyline
 90
9
 70
1
 10
155.061212
 20
221.126016
 30
0.0
 10
234.947108
 20
221.126016
 30
0.0
 10
234.947108
 20
162.888200
 30
0.0
 10
167.290660
 20
162.888200
 30
0.0
 10
191.059180
 20
186.114288
 30
0.0
 10
178.533860
 20
198.935480
 30
0.0
 10
155.061212
 20
176.005264
 30
0.0
 10
155.061212
 20
221.126016
 30
0.0
 10
155.061212
 20
221.126016
 30
0.0
  0
SPLINE
  5
10c
100
AcDbEntity
  8
Layer_1
 62
7
100
AcDbSpline
 70
0
 71
3
 72
10
 73
6
 74
4
 40
0.000000
 40
0.000000
 40
0.000000
 40
0.000000
 40
17.165087
 40
34.533128
 40
50.760554
 40
50.760554
 40
50.760554
 40
50.760554
 10
155.506368
 20
286.034448
 30
0.0
 10
149.770325
 20
285.448183
 30
0.0
 10
138.230419
 20
284.268721
 30
0.0
 10
123.443959
 20
273.288925
 30
0.0
 10
120.690473
 20
262.165263
 30
0.0
 10
119.360472
 20
256.792264
 30
0.0
 11
155.506368
 21
286.034448
 31
0.0
 11
138.664019
 21
282.721520
 31
0.0
 11
124.991317
 21
272.011427
 31
0.0
 11
119.360472
 21
256.792264
 31
0.0
  0
LWPOLYLINE
  5
10d
100
AcDbEntity
  8
Layer_1
 62
5
100
AcDbPolyline
 90
8
 70
1
 10
159.969388
 20
215.098776
 30
0.0
 10
229.879396
 20
215.098776
 30
0.0
 10
229.879396
 20
168.041800
 30
0.0
 10
180.837588
 20
168.041800
 30
0.0
 10
199.492628
 20
185.550672
 30
0.0
 10
177.994580
 20
207.233552
 30
0.0
 10
159.969388
 20
188.960624
 30
0.0
 10
159.969388
 20
215.098776
 30
0.0
  0
SPLINE
  5
10e
100
AcDbEntity
  8
Layer_1
 62
5
100
AcDbSpline
 70
0
 71
3
 72
10
 73
6
 74
4
 40
0.000000
 40
0.000000
 40
0.000000
 40
0.000000
 40
14.735947
 40
31.252034
 40
46.894004
 40
46.894004
 40
46.894004
 40
46.894004
 10
124.442496
 20
256.663168
 30
0.0
 10
126.023834
 20
251.836271
 30
0.0
 10
129.377539
 20
241.599376
 30
0.0
 10
144.489850
 20
233.865215
 30
0.0
 10
155.077330
 20
232.634055
 30
0.0
 10
160.227176
 20
232.035208
 30
0.0
 11
124.442496
 21
256.663168
 31
0.0
 11
130.680070
 21
243.312483
 31
0.0
 11
144.830648
 21
234.795307
 31
0.0
 11
160.227176
 21
232.035208
 31
0.0
  0
LWPOLYLINE
  5
10f
100
AcDbEntity
  8
Layer_1
 62
5
100
AcDbPolyline
 90
4
 70
1
 10
160.227176
 20
232.035208
 30
0.0
 10
231.568904
 20
232.035208
 30
0.0
 10
231.568904
 20
281.500544
 30
0.0
 10
157.814216
 20
281.500544
 30
0.0
  0
SPLINE
  5
110
100
AcDbEntity
  8
Layer_1
 62
5
100
AcDbSpline
 70
0
 71
3
 72
10
 73
6
 74
4
 40
0.000000
 40
0.000000
 40
0.000000
 40
0.000000
 40
15.802256
 40
31.361834
 40
45.294712
 40
45.294712
 40
45.294712
 40
45.294712
 10
157.814216
 20
281.500544
 30
0.0
 10
152.549839
 20
281.011370
 30
0.0
 10
142.101930
 20
280.040534
 30
0.0
 10
128.397193
 20
270.979316
 30
0.0
 10
125.711348
 20
261.256458
 30
0.0
 10
124.442496
 20
256.663168
 30
0.0
 11
157.814216
 21
281.500544
 31
0.0
 11
142.264513
 21
278.686648
 31
0.0
 11
129.641181
 21
269.589837
 31
0.0
 11
124.442496
 21
256.663168
 31
0.0
  0
LWPOLYLINE
  5
111
100
AcDbEntity
  8
Layer_1
 62
5
100
AcDbPolyline
 90
2
 70
1
 10
124.442496
 20
256.663168
 30
0.0
 10
124.442496
 20
256.663168
 30
0.0
  0
SPLINE
  5
112
100
AcDbEntity
  8
Layer_1
 62
5
100
AcDbSpline
 70
0
 71
3
 72
10
 73
6
 74
4
 40
0.000000
 40
0.000000
 40
0.000000
 40
0.000000
 40
8.990786
 40
19.789787
 40
29.531254
 40
29.531254
 40
29.531254
 40
29.531254
 10
130.496176
 20
304.813232
 30
0.0
 10
133.174323
 20
303.439243
 30
0.0
 10
139.069242
 20
300.414929
 30
0.0
 10
148.891706
 20
298.668912
 30
0.0
 10
155.726685
 20
298.409462
 30
0.0
 10
158.968224
 20
298.286416
 30
0.0
 11
130.496176
 21
304.813232
 31
0.0
 11
138.672499
 21
301.073985
 31
0.0
 11
149.244274
 21
298.870351
 31
0.0
 11
158.968224
 21
298.286416
 31
0.0
  0
LWPOLYLINE
  5
113
100
AcDbEntity
  8
Layer_1
 62
5
100
AcDbPolyline
 90
4
 70
1
 10
158.968224
 20
298.286416
 30
0.0
 10
230.309936
 20
298.286416
 30
0.0
 10
230.309936
 20
347.751760
 30
0.0
 10
156.555272
 20
347.751760
 30
0.0
  0
LWPOLYLINE
  5
114
100
AcDbEntity
  8
Layer_1
 62
5
100
AcDbPolyline
 90
2
 70
1
 10
129.972664
 20
340.048072
 30
0.0
 10
130.496176
 20
304.813232
 30
0.0
  0
LWPOLYLINE
  5
115
100
AcDbEntity
  8
Layer_1
 62
5
100
AcDbPolyline
 90
6
 70
1
 10
230.642624
 20
428.492936
 30
0.0
 10
230.734624
 20
464.603560
 30
0.0
 10
176.928360
 20
441.365072
 30
0.0
 10
177.778160
 20
476.186336
 30
0.0
 10
164.250624
 20
428.248840
 30
0.0
 10
230.642624
 20
428.492936
 30
0.0
  0
LWPOLYLINE
  5
116
100
AcDbEntity
  8
Layer_1
 62
5
100
AcDbPolyline
 90
10
 70
1
 10
158.959184
 20
41.287232
 30
0.0
 10
228.982640
 20
41.287232
 30
0.0
 10
228.982640
 20
88.873576
 30
0.0
 10
158.959184
 20
88.873576
 30
0.0
 10
158.959184
 20
82.364352
 30
0.0
 10
176.415736
 20
82.364352
 30
0.0
 10
176.415736
 20
47.747128
 30
0.0
 10
158.959184
 20
47.747128
 30
0.0
 10
158.959184
 20
41.287232
 30
0.0
 10
158.959184
 20
41.287232
 30
0.0
  0
LWPOLYLINE
  5
117
100
AcDbEntity
  8
Layer_1
 62
5
100
AcDbPolyline
 90
5
 70
1
 10
254.617880
 20
500.639848
 30
0.0
 10
254.617880
 20
531.375400
 30
0.0
 10
301.532248
 20
531.375400
 30
0.0
 10
301.532248
 20
500.639848
 30
0.0
 10
254.617880
 20
500.639848
 30
0.0
  0
LWPOLYLINE
  5
118
100
AcDbEntity
  8
Layer_1
 62
7
100
AcDbPolyline
 90
9
 70
1
 10
155.284736
 20
357.839792
 30
0.0
 10
235.170632
 20
357.839792
 30
0.0
 10
235.170632
 20
416.077600
 30
0.0
 10
167.514176
 20
416.077600
 30
0.0
 10
191.282704
 20
392.851512
 30
0.0
 10
178.757384
 20
380.030320
 30
0.0
 10
155.284736
 20
402.960536
 30
0.0
 10
155.284736
 20
357.839792
 30
0.0
 10
155.284736
 20
357.839792
 30
0.0
  0
LWPOLYLINE
  5
119
100
AcDbEntity
  8
Layer_1
 62
5
100
AcDbPolyline
 90
8
 70
1
 10
160.192912
 20
363.867032
 30
0.0
 10
230.102920
 20
363.867032
 30
0.0
 10
230.102920
 20
410.924000
 30
0.0
 10
181.061112
 20
410.924000
 30
0.0
 10
199.716152
 20
393.415128
 30
0.0
 10
178.218104
 20
371.732256
 30
0.0
 10
160.192912
 20
390.005176
 30
0.0
 10
160.192912
 20
363.867032
 30
0.0
  0
LWPOLYLINE
  5
11a
100
AcDbEntity
  8
Layer_1
 62
7
100
AcDbPolyline
 90
7
 70
1
 10
234.168052
 20
156.858264
 30
0.0
 10
233.978644
 20
105.186512
 30
0.0
 10
181.779732
 20
130.040992
 30
0.0
 10
182.352356
 20
99.803296
 30
0.0
 10
170.809084
 20
99.696784
 30
0.0
 10
154.596068
 20
157.150808
 30
0.0
 10
234.168052
 20
156.858264
 30
0.0
  0
LWPOLYLINE
  5
11b
100
AcDbEntity
  8
Layer_1
 62
5
100
AcDbPolyline
 90
6
 70
1
 10
229.414220
 20
151.129312
 30
0.0
 10
229.506220
 20
115.018672
 30
0.0
 10
175.699956
 20
138.257160
 30
0.0
 10
176.549756
 20
103.435904
 30
0.0
 10
163.022220
 20
151.373400
 30
0.0
 10
229.414220
 20
151.129312
 30
0.0
  0
LWPOLYLINE
  5
11c
100
AcDbEntity
  8
Layer_1
 62
7
100
AcDbPolyline
 90
10
 70
1
 10
156.155000
 20
485.529272
 30
0.0
 10
235.991608
 20
485.529272
 30
0.0
 10
235.991608
 20
543.767080
 30
0.0
 10
156.155000
 20
543.767080
 30
0.0
 10
156.155000
 20
526.063968
 30
0.0
 10
173.315688
 20
526.063968
 30
0.0
 10
173.315688
 20
503.577552
 30
0.0
 10
156.155000
 20
503.577552
 30
0.0
 10
156.155000
 20
485.529272
 30
0.0
 10
156.155000
 20
485.529272
 30
0.0
  0
LWPOLYLINE
  5
11d
100
AcDbEntity
  8
Layer_1
 62
5
100
AcDbPolyline
 90
10
 70
1
 10
161.660680
 20
490.563936
 30
0.0
 10
231.684144
 20
490.563936
 30
0.0
 10
231.684144
 20
538.150296
 30
0.0
 10
161.660680
 20
538.150296
 30
0.0
 10
161.660680
 20
531.641072
 30
0.0
 10
179.117240
 20
531.641072
 30
0.0
 10
179.117240
 20
497.023848
 30
0.0
 10
161.660680
 20
497.023848
 30
0.0
 10
161.660680
 20
490.563936
 30
0.0
 10
161.660680
 20
490.563936
 30
0.0
  0
LWPOLYLINE
  5
11e
100
AcDbEntity
  8
Layer_1
 62
7
100
AcDbPolyline
 90
5
 70
1
 10
247.048672
 20
43.175864
 30
0.0
 10
247.048672
 20
84.683520
 30
0.0
 10
305.766832
 20
84.683520
 30
0.0
 10
305.766832
 20
43.175864
 30
0.0
 10
247.048672
 20
43.175864
 30
0.0
  0
LWPOLYLINE
  5
11f
100
AcDbEntity
  8
Layer_1
 62
5
100
AcDbPolyline
 90
5
 70
1
 10
252.986928
 20
48.535152
 30
0.0
 10
252.986928
 20
79.270704
 30
0.0
 10
299.901304
 20
79.270704
 30
0.0
 10
299.901304
 20
48.535152
 30
0.0
 10
252.986928
 20
48.535152
 30
0.0
  0
LWPOLYLINE
  5
120
100
AcDbEntity
  8
Layer_1
 62
7
100
AcDbPolyline
 90
5
 70
1
 10
247.048672
 20
104.060896
 30
0.0
 10
247.048672
 20
145.568560
 30
0.0
 10
305.766832
 20
145.568560
 30
0.0
 10
305.766832
 20
104.060896
 30
0.0
 10
247.048672
 20
104.060896
 30
0.0
  0
LWPOLYLINE
  5
121
100
AcDbEntity
  8
Layer_1
 62
5
100
AcDbPolyline
 90
5
 70
1
 10
252.986928
 20
109.420192
 30
0.0
 10
252.986928
 20
140.155744
 30
0.0
 10
299.901304
 20
140.155744
 30
0.0
 10
299.901304
 20
109.420192
 30
0.0
 10
252.986928
 20
109.420192
 30
0.0
  0
LWPOLYLINE
  5
122
100
AcDbEntity
  8
Layer_1
 62
7
100
AcDbPolyline
 90
5
 70
1
 10
247.048672
 20
173.402216
 30
0.0
 10
247.048672
 20
214.909872
 30
0.0
 10
305.766832
 20
214.909872
 30
0.0
 10
305.766832
 20
173.402216
 30
0.0
 10
247.048672
 20
173.402216
 30
0.0
  0
LWPOLYLINE
  5
123
100
AcDbEntity
  8
Layer_1
 62
5
100
AcDbPolyline
 90
5
 70
1
 10
252.986928
 20
178.761504
 30
0.0
 10
252.986928
 20
209.497056
 30
0.0
 10
299.901304
 20
209.497056
 30
0.0
 10
299.901304
 20
178.761504
 30
0.0
 10
252.986928
 20
178.761504
 30
0.0
  0
LWPOLYLINE
  5
124
100
AcDbEntity
  8
Layer_1
 62
7
100
AcDbPolyline
 90
5
 70
1
 10
247.048656
 20
238.515392
 30
0.0
 10
247.048656
 20
280.023056
 30
0.0
 10
305.766816
 20
280.023056
 30
0.0
 10
305.766816
 20
238.515392
 30
0.0
 10
247.048656
 20
238.515392
 30
0.0
  0
LWPOLYLINE
  5
125
100
AcDbEntity
  8
Layer_1
 62
5
100
AcDbPolyline
 90
5
 70
1
 10
252.986912
 20
243.874680
 30
0.0
 10
252.986912
 20
274.610240
 30
0.0
 10
299.901288
 20
274.610240
 30
0.0
 10
299.901288
 20
243.874680
 30
0.0
 10
252.986912
 20
243.874680
 30
0.0
  0
LWPOLYLINE
  5
126
100
AcDbEntity
  8
Layer_1
 62
7
100
AcDbPolyline
 90
5
 70
1
 10
248.739920
 20
301.091680
 30
0.0
 10
248.739920
 20
342.599344
 30
0.0
 10
307.458072
 20
342.599344
 30
0.0
 10
307.458072
 20
301.091680
 30
0.0
 10
248.739920
 20
301.091680
 30
0.0
  0
LWPOLYLINE
  5
127
100
AcDbEntity
  8
Layer_1
 62
5
100
AcDbPolyline
 90
5
 70
1
 10
254.678176
 20
306.450968
 30
0.0
 10
254.678176
 20
337.186520
 30
0.0
 10
301.592544
 20
337.186520
 30
0.0
 10
301.592544
 20
306.450968
 30
0.0
 10
254.678176
 20
306.450968
 30
0.0
  0
LWPOLYLINE
  5
128
100
AcDbEntity
  8
Layer_1
 62
7
100
AcDbPolyline
 90
5
 70
1
 10
248.739920
 20
366.204856
 30
0.0
 10
248.739920
 20
407.712520
 30
0.0
 10
307.458072
 20
407.712520
 30
0.0
 10
307.458072
 20
366.204856
 30
0.0
 10
248.739920
 20
366.204856
 30
0.0
  0
LWPOLYLINE
  5
129
100
AcDbEntity
  8
Layer_1
 62
5
100
AcDbPolyline
 90
5
 70
1
 10
254.678176
 20
371.564152
 30
0.0
 10
254.678176
 20
402.299704
 30
0.0
 10
301.592544
 20
402.299704
 30
0.0
 10
301.592544
 20
371.564152
 30
0.0
 10
254.678176
 20
371.564152
 30
0.0
  0
LWPOLYLINE
  5
12a
100
AcDbEntity
  8
Layer_1
 62
7
100
AcDbPolyline
 90
5
 70
1
 10
249.585552
 20
426.244280
 30
0.0
 10
249.585552
 20
467.751944
 30
0.0
 10
308.303704
 20
467.751944
 30
0.0
 10
308.303704
 20
426.244280
 30
0.0
 10
249.585552
 20
426.244280
 30
0.0
  0
LWPOLYLINE
  5
12b
100
AcDbEntity
  8
Layer_1
 62
5
100
AcDbPolyline
 90
5
 70
1
 10
255.523808
 20
431.603576
 30
0.0
 10
255.523808
 20
462.339128
 30
0.0
 10
302.438176
 20
462.339128
 30
0.0
 10
302.438176
 20
431.603576
 30
0.0
 10
255.523808
 20
431.603576
 30
0.0
  0
LWPOLYLINE
  5
12c
100
AcDbEntity
  8
Layer_1
 62
3
100
AcDbPolyline
 90
5
 70
1
 10
544.853726
 20
44.688917
 30
0.0
 10
544.853726
 20
637.604589
 30
0.0
 10
1137.769397
 20
637.604589
 30
0.0
 10
1137.769397
 20
44.688917
 30
0.0
 10
544.853726
 20
44.688917
 30
0.0
  0
LWPOLYLINE
  5
12d
100
AcDbEntity
  8
Layer_1
 62
3
100
AcDbPolyline
 90
2
 70
0
 10
620.401060
 20
44.561579
 30
0.0
 10
620.401060
 20
637.419234
 30
0.0
  0
LWPOLYLINE
  5
12e
100
AcDbEntity
  8
Layer_1
 62
3
100
AcDbPolyline
 90
2
 70
0
 10
693.984364
 20
45.195481
 30
0.0
 10
693.984364
 20
638.053196
 30
0.0
  0
LWPOLYLINE
  5
12f
100
AcDbEntity
  8
Layer_1
 62
3
100
AcDbPolyline
 90
2
 70
0
 10
767.567680
 20
45.824100
 30
0.0
 10
767.567680
 20
636.903193
 30
0.0
  0
LWPOLYLINE
  5
130
100
AcDbEntity
  8
Layer_1
 62
3
100
AcDbPolyline
 90
2
 70
0
 10
838.738425
 20
45.767811
 30
0.0
 10
838.738425
 20
636.846904
 30
0.0
  0
LWPOLYLINE
  5
131
100
AcDbEntity
  8
Layer_1
 62
3
100
AcDbPolyline
 90
2
 70
0
 10
913.528015
 20
45.767811
 30
0.0
 10
913.528015
 20
636.846904
 30
0.0
  0
LWPOLYLINE
  5
132
100
AcDbEntity
  8
Layer_1
 62
3
100
AcDbPolyline
 90
2
 70
0
 10
987.111325
 20
45.788355
 30
0.0
 10
987.111325
 20
638.053196
 30
0.0
  0
LWPOLYLINE
  5
133
100
AcDbEntity
  8
Layer_1
 62
3
100
AcDbPolyline
 90
2
 70
0
 10
1060.694635
 20
45.195481
 30
0.0
 10
1060.694635
 20
638.053196
 30
0.0
  0
LWPOLYLINE
  5
134
100
AcDbEntity
  8
Layer_1
 62
3
100
AcDbPolyline
 90
2
 70
0
 10
1137.324478
 20
121.160605
 30
0.0
 10
545.059695
 20
121.160605
 30
0.0
  0
LWPOLYLINE
  5
135
100
AcDbEntity
  8
Layer_1
 62
3
100
AcDbPolyline
 90
2
 70
0
 10
1136.690576
 20
194.743904
 30
0.0
 10
545.611474
 20
194.743904
 30
0.0
  0
LWPOLYLINE
  5
136
100
AcDbEntity
  8
Layer_1
 62
3
100
AcDbPolyline
 90
2
 70
0
 10
1136.649487
 20
268.327202
 30
0.0
 10
545.570380
 20
268.327202
 30
0.0
  0
LWPOLYLINE
  5
137
100
AcDbEntity
  8
Layer_1
 62
3
100
AcDbPolyline
 90
2
 70
0
 10
1137.896867
 20
339.497977
 30
0.0
 10
544.446277
 20
339.497977
 30
0.0
  0
LWPOLYLINE
  5
138
100
AcDbEntity
  8
Layer_1
 62
3
100
AcDbPolyline
 90
2
 70
0
 10
1137.896867
 20
414.287567
 30
0.0
 10
545.632019
 20
414.287567
 30
0.0
  0
LWPOLYLINE
  5
139
100
AcDbEntity
  8
Layer_1
 62
3
100
AcDbPolyline
 90
2
 70
0
 10
1136.690576
 20
487.870865
 30
0.0
 10
545.611474
 20
487.870865
 30
0.0
  0
LWPOLYLINE
  5
13a
100
AcDbEntity
  8
Layer_1
 62
3
100
AcDbPolyline
 90
2
 70
0
 10
1136.690576
 20
561.454169
 30
0.0
 10
545.611474
 20
561.454169
 30
0.0
  0
LWPOLYLINE
  5
13b
100
AcDbEntity
  8
Layer_1
 62
3
100
AcDbPolyline
 90
5
 70
1
 10
704.314335
 20
572.065388
 30
0.0
 10
704.314335
 20
626.199337
 30
0.0
 10
758.448284
 20
626.199337
 30
0.0
 10
758.448284
 20
572.065388
 30
0.0
 10
704.314335
 20
572.065388
 30
0.0
  0
LWPOLYLINE
  5
13c
100
AcDbEntity
  8
Layer_1
 62
3
100
AcDbPolyline
 90
5
 70
1
 10
708.867664
 20
576.982053
 30
0.0
 10
708.867664
 20
622.020326
 30
0.0
 10
753.905937
 20
622.020326
 30
0.0
 10
753.905937
 20
576.982053
 30
0.0
 10
708.867664
 20
576.982053
 30
0.0
  0
LWPOLYLINE
  5
13d
100
AcDbEntity
  8
Layer_1
 62
3
100
AcDbPolyline
 90
5
 70
1
 10
700.053050
 20
567.748070
 30
0.0
 10
700.053050
 20
630.684291
 30
0.0
 10
762.989271
 20
630.684291
 30
0.0
 10
762.989271
 20
567.748070
 30
0.0
 10
700.053050
 20
567.748070
 30
0.0
  0
LWPOLYLINE
  5
13e
100
AcDbEntity
  8
Layer_1
 62
3
100
AcDbPolyline
 90
5
 70
1
 10
716.580144
 20
584.179128
 30
0.0
 10
716.580144
 20
615.100943
 30
0.0
 10
747.501958
 20
615.100943
 30
0.0
 10
747.501958
 20
584.179128
 30
0.0
 10
716.580144
 20
584.179128
 30
0.0
  0
LWPOLYLINE
  5
13f
100
AcDbEntity
  8
Layer_1
 62
3
100
AcDbPolyline
 90
5
 70
1
 10
720.208038
 20
588.014429
 30
0.0
 10
720.208038
 20
611.686848
 30
0.0
 10
743.880456
 20
611.686848
 30
0.0
 10
743.880456
 20
588.014429
 30
0.0
 10
720.208038
 20
588.014429
 30
0.0
  0
LWPOLYLINE
  5
140
100
AcDbEntity
  8
Layer_1
 62
3
100
AcDbPolyline
 90
5
 70
1
 10
713.127263
 20
580.692367
 30
0.0
 10
713.127263
 20
618.688828
 30
0.0
 10
751.123724
 20
618.688828
 30
0.0
 10
751.123724
 20
580.692367
 30
0.0
 10
713.127263
 20
580.692367
 30
0.0
  0
LWPOLYLINE
  5
141
100
AcDbEntity
  8
Layer_1
 62
3
100
AcDbPolyline
 90
5
 70
1
 10
556.170237
 20
571.806626
 30
0.0
 10
556.170237
 20
625.940574
 30
0.0
 10
610.304185
 20
625.940574
 30
0.0
 10
610.304185
 20
571.806626
 30
0.0
 10
556.170237
 20
571.806626
 30
0.0
  0
LWPOLYLINE
  5
142
100
AcDbEntity
  8
Layer_1
 62
3
100
AcDbPolyline
 90
5
 70
1
 10
560.723565
 20
576.723291
 30
0.0
 10
560.723565
 20
621.761564
 30
0.0
 10
605.761838
 20
621.761564
 30
0.0
 10
605.761838
 20
576.723291
 30
0.0
 10
560.723565
 20
576.723291
 30
0.0
  0
LWPOLYLINE
  5
143
100
AcDbEntity
  8
Layer_1
 62
3
100
AcDbPolyline
 90
5
 70
1
 10
551.908951
 20
567.489307
 30
0.0
 10
551.908951
 20
630.425528
 30
0.0
 10
614.845173
 20
630.425528
 30
0.0
 10
614.845173
 20
567.489307
 30
0.0
 10
551.908951
 20
567.489307
 30
0.0
  0
LWPOLYLINE
  5
144
100
AcDbEntity
  8
Layer_1
 62
3
100
AcDbPolyline
 90
5
 70
1
 10
568.436045
 20
583.920366
 30
0.0
 10
568.436045
 20
614.842180
 30
0.0
 10
599.357860
 20
614.842180
 30
0.0
 10
599.357860
 20
583.920366
 30
0.0
 10
568.436045
 20
583.920366
 30
0.0
  0
LWPOLYLINE
  5
145
100
AcDbEntity
  8
Layer_1
 62
3
100
AcDbPolyline
 90
5
 70
1
 10
572.063939
 20
587.755667
 30
0.0
 10
572.063939
 20
611.428085
 30
0.0
 10
595.736357
 20
611.428085
 30
0.0
 10
595.736357
 20
587.755667
 30
0.0
 10
572.063939
 20
587.755667
 30
0.0
  0
LWPOLYLINE
  5
146
100
AcDbEntity
  8
Layer_1
 62
3
100
AcDbPolyline
 90
5
 70
1
 10
564.983164
 20
580.433604
 30
0.0
 10
564.983164
 20
618.430065
 30
0.0
 10
602.979625
 20
618.430065
 30
0.0
 10
602.979625
 20
580.433604
 30
0.0
 10
564.983164
 20
580.433604
 30
0.0
  0
LWPOLYLINE
  5
147
100
AcDbEntity
  8
Layer_1
 62
3
100
AcDbPolyline
 90
5
 70
1
 10
848.595325
 20
571.313564
 30
0.0
 10
848.595325
 20
625.447513
 30
0.0
 10
902.729273
 20
625.447513
 30
0.0
 10
902.729273
 20
571.313564
 30
0.0
 10
848.595325
 20
571.313564
 30
0.0
  0
LWPOLYLINE
  5
148
100
AcDbEntity
  8
Layer_1
 62
3
100
AcDbPolyline
 90
5
 70
1
 10
853.148653
 20
576.230229
 30
0.0
 10
853.148653
 20
621.268502
 30
0.0
 10
898.186927
 20
621.268502
 30
0.0
 10
898.186927
 20
576.230229
 30
0.0
 10
853.148653
 20
576.230229
 30
0.0
  0
LWPOLYLINE
  5
149
100
AcDbEntity
  8
Layer_1
 62
3
100
AcDbPolyline
 90
5
 70
1
 10
844.334040
 20
566.996245
 30
0.0
 10
844.334040
 20
629.932467
 30
0.0
 10
907.270261
 20
629.932467
 30
0.0
 10
907.270261
 20
566.996245
 30
0.0
 10
844.334040
 20
566.996245
 30
0.0
  0
LWPOLYLINE
  5
14a
100
AcDbEntity
  8
Layer_1
 62
3
100
AcDbPolyline
 90
5
 70
1
 10
860.861134
 20
583.427304
 30
0.0
 10
860.861134
 20
614.349118
 30
0.0
 10
891.782948
 20
614.349118
 30
0.0
 10
891.782948
 20
583.427304
 30
0.0
 10
860.861134
 20
583.427304
 30
0.0
  0
LWPOLYLINE
  5
14b
100
AcDbEntity
  8
Layer_1
 62
3
100
AcDbPolyline
 90
5
 70
1
 10
864.489027
 20
587.262605
 30
0.0
 10
864.489027
 20
610.935024
 30
0.0
 10
888.161446
 20
610.935024
 30
0.0
 10
888.161446
 20
587.262605
 30
0.0
 10
864.489027
 20
587.262605
 30
0.0
  0
LWPOLYLINE
  5
14c
100
AcDbEntity
  8
Layer_1
 62
3
100
AcDbPolyline
 90
5
 70
1
 10
857.408252
 20
579.940543
 30
0.0
 10
857.408252
 20
617.937003
 30
0.0
 10
895.404713
 20
617.937003
 30
0.0
 10
895.404713
 20
579.940543
 30
0.0
 10
857.408252
 20
579.940543
 30
0.0
  0
LWPOLYLINE
  5
14d
100
AcDbEntity
  8
Layer_1
 62
3
100
AcDbPolyline
 90
5
 70
1
 10
997.026677
 20
571.806626
 30
0.0
 10
997.026677
 20
625.940574
 30
0.0
 10
1051.160625
 20
625.940574
 30
0.0
 10
1051.160625
 20
571.806626
 30
0.0
 10
997.026677
 20
571.806626
 30
0.0
  0
LWPOLYLINE
  5
14e
100
AcDbEntity
  8
Layer_1
 62
3
100
AcDbPolyline
 90
5
 70
1
 10
1001.580005
 20
576.723291
 30
0.0
 10
1001.580005
 20
621.761564
 30
0.0
 10
1046.618278
 20
621.761564
 30
0.0
 10
1046.618278
 20
576.723291
 30
0.0
 10
1001.580005
 20
576.723291
 30
0.0
  0
LWPOLYLINE
  5
14f
100
AcDbEntity
  8
Layer_1
 62
3
100
AcDbPolyline
 90
5
 70
1
 10
992.765391
 20
567.489307
 30
0.0
 10
992.765391
 20
630.425528
 30
0.0
 10
1055.701613
 20
630.425528
 30
0.0
 10
1055.701613
 20
567.489307
 30
0.0
 10
992.765391
 20
567.489307
 30
0.0
  0
LWPOLYLINE
  5
150
100
AcDbEntity
  8
Layer_1
 62
3
100
AcDbPolyline
 90
5
 70
1
 10
1009.292486
 20
583.920366
 30
0.0
 10
1009.292486
 20
614.842180
 30
0.0
 10
1040.214300
 20
614.842180
 30
0.0
 10
1040.214300
 20
583.920366
 30
0.0
 10
1009.292486
 20
583.920366
 30
0.0
  0
LWPOLYLINE
  5
151
100
AcDbEntity
  8
Layer_1
 62
3
100
AcDbPolyline
 90
5
 70
1
 10
1012.920379
 20
587.755667
 30
0.0
 10
1012.920379
 20
611.428085
 30
0.0
 10
1036.592797
 20
611.428085
 30
0.0
 10
1036.592797
 20
587.755667
 30
0.0
 10
1012.920379
 20
587.755667
 30
0.0
  0
LWPOLYLINE
  5
152
100
AcDbEntity
  8
Layer_1
 62
3
100
AcDbPolyline
 90
5
 70
1
 10
1005.839604
 20
580.433604
 30
0.0
 10
1005.839604
 20
618.430065
 30
0.0
 10
1043.836065
 20
618.430065
 30
0.0
 10
1043.836065
 20
580.433604
 30
0.0
 10
1005.839604
 20
580.433604
 30
0.0
  0
LWPOLYLINE
  5
153
100
AcDbEntity
  8
Layer_1
 62
3
100
AcDbPolyline
 90
5
 70
1
 10
775.960716
 20
497.292602
 30
0.0
 10
775.960716
 20
551.426551
 30
0.0
 10
830.094664
 20
551.426551
 30
0.0
 10
830.094664
 20
497.292602
 30
0.0
 10
775.960716
 20
497.292602
 30
0.0
  0
LWPOLYLINE
  5
154
100
AcDbEntity
  8
Layer_1
 62
3
100
AcDbPolyline
 90
5
 70
1
 10
780.514044
 20
502.209267
 30
0.0
 10
780.514044
 20
547.247540
 30
0.0
 10
825.552318
 20
547.247540
 30
0.0
 10
825.552318
 20
502.209267
 30
0.0
 10
780.514044
 20
502.209267
 30
0.0
  0
LWPOLYLINE
  5
155
100
AcDbEntity
  8
Layer_1
 62
3
100
AcDbPolyline
 90
5
 70
1
 10
771.699431
 20
492.975283
 30
0.0
 10
771.699431
 20
555.911505
 30
0.0
 10
834.635652
 20
555.911505
 30
0.0
 10
834.635652
 20
492.975283
 30
0.0
 10
771.699431
 20
492.975283
 30
0.0
  0
LWPOLYLINE
  5
156
100
AcDbEntity
  8
Layer_1
 62
3
100
AcDbPolyline
 90
5
 70
1
 10
788.226525
 20
509.406342
 30
0.0
 10
788.226525
 20
540.328157
 30
0.0
 10
819.148339
 20
540.328157
 30
0.0
 10
819.148339
 20
509.406342
 30
0.0
 10
788.226525
 20
509.406342
 30
0.0
  0
LWPOLYLINE
  5
157
100
AcDbEntity
  8
Layer_1
 62
3
100
AcDbPolyline
 90
5
 70
1
 10
791.854418
 20
513.241643
 30
0.0
 10
791.854418
 20
536.914062
 30
0.0
 10
815.526836
 20
536.914062
 30
0.0
 10
815.526836
 20
513.241643
 30
0.0
 10
791.854418
 20
513.241643
 30
0.0
  0
LWPOLYLINE
  5
158
100
AcDbEntity
  8
Layer_1
 62
3
100
AcDbPolyline
 90
5
 70
1
 10
784.773643
 20
505.919581
 30
0.0
 10
784.773643
 20
543.916042
 30
0.0
 10
822.770104
 20
543.916042
 30
0.0
 10
822.770104
 20
505.919581
 30
0.0
 10
784.773643
 20
505.919581
 30
0.0
  0
LWPOLYLINE
  5
159
100
AcDbEntity
  8
Layer_1
 62
3
100
AcDbPolyline
 90
5
 70
1
 10
629.788900
 20
498.513025
 30
0.0
 10
629.788900
 20
552.646974
 30
0.0
 10
683.922848
 20
552.646974
 30
0.0
 10
683.922848
 20
498.513025
 30
0.0
 10
629.788900
 20
498.513025
 30
0.0
  0
LWPOLYLINE
  5
15a
100
AcDbEntity
  8
Layer_1
 62
3
100
AcDbPolyline
 90
5
 70
1
 10
634.342228
 20
503.429690
 30
0.0
 10
634.342228
 20
548.467963
 30
0.0
 10
679.380501
 20
548.467963
 30
0.0
 10
679.380501
 20
503.429690
 30
0.0
 10
634.342228
 20
503.429690
 30
0.0
  0
LWPOLYLINE
  5
15b
100
AcDbEntity
  8
Layer_1
 62
3
100
AcDbPolyline
 90
5
 70
1
 10
625.527614
 20
494.195706
 30
0.0
 10
625.527614
 20
557.131928
 30
0.0
 10
688.463835
 20
557.131928
 30
0.0
 10
688.463835
 20
494.195706
 30
0.0
 10
625.527614
 20
494.195706
 30
0.0
  0
LWPOLYLINE
  5
15c
100
AcDbEntity
  8
Layer_1
 62
3
100
AcDbPolyline
 90
5
 70
1
 10
642.054708
 20
510.626765
 30
0.0
 10
642.054708
 20
541.548580
 30
0.0
 10
672.976523
 20
541.548580
 30
0.0
 10
672.976523
 20
510.626765
 30
0.0
 10
642.054708
 20
510.626765
 30
0.0
  0
LWPOLYLINE
  5
15d
100
AcDbEntity
  8
Layer_1
 62
3
100
AcDbPolyline
 90
5
 70
1
 10
645.682602
 20
514.462066
 30
0.0
 10
645.682602
 20
538.134485
 30
0.0
 10
669.355020
 20
538.134485
 30
0.0
 10
669.355020
 20
514.462066
 30
0.0
 10
645.682602
 20
514.462066
 30
0.0
  0
LWPOLYLINE
  5
15e
100
AcDbEntity
  8
Layer_1
 62
3
100
AcDbPolyline
 90
5
 70
1
 10
638.601827
 20
507.140004
 30
0.0
 10
638.601827
 20
545.136464
 30
0.0
 10
676.598288
 20
545.136464
 30
0.0
 10
676.598288
 20
507.140004
 30
0.0
 10
638.601827
 20
507.140004
 30
0.0
  0
LWPOLYLINE
  5
15f
100
AcDbEntity
  8
Layer_1
 62
3
100
AcDbPolyline
 90
5
 70
1
 10
923.200131
 20
497.526902
 30
0.0
 10
923.200131
 20
551.660850
 30
0.0
 10
977.334079
 20
551.660850
 30
0.0
 10
977.334079
 20
497.526902
 30
0.0
 10
923.200131
 20
497.526902
 30
0.0
  0
LWPOLYLINE
  5
160
100
AcDbEntity
  8
Layer_1
 62
3
100
AcDbPolyline
 90
5
 70
1
 10
927.753459
 20
502.443566
 30
0.0
 10
927.753459
 20
547.481840
 30
0.0
 10
972.791733
 20
547.481840
 30
0.0
 10
972.791733
 20
502.443566
 30
0.0
 10
927.753459
 20
502.443566
 30
0.0
  0
LWPOLYLINE
  5
161
100
AcDbEntity
  8
Layer_1
 62
3
100
AcDbPolyline
 90
5
 70
1
 10
918.938846
 20
493.209583
 30
0.0
 10
918.938846
 20
556.145804
 30
0.0
 10
981.875067
 20
556.145804
 30
0.0
 10
981.875067
 20
493.209583
 30
0.0
 10
918.938846
 20
493.209583
 30
0.0
  0
LWPOLYLINE
  5
162
100
AcDbEntity
  8
Layer_1
 62
3
100
AcDbPolyline
 90
5
 70
1
 10
935.465940
 20
509.640642
 30
0.0
 10
935.465940
 20
540.562456
 30
0.0
 10
966.387754
 20
540.562456
 30
0.0
 10
966.387754
 20
509.640642
 30
0.0
 10
935.465940
 20
509.640642
 30
0.0
  0
LWPOLYLINE
  5
163
100
AcDbEntity
  8
Layer_1
 62
3
100
AcDbPolyline
 90
5
 70
1
 10
939.093833
 20
513.475943
 30
0.0
 10
939.093833
 20
537.148361
 30
0.0
 10
962.766252
 20
537.148361
 30
0.0
 10
962.766252
 20
513.475943
 30
0.0
 10
939.093833
 20
513.475943
 30
0.0
  0
LWPOLYLINE
  5
164
100
AcDbEntity
  8
Layer_1
 62
3
100
AcDbPolyline
 90
5
 70
1
 10
932.013059
 20
506.153880
 30
0.0
 10
932.013059
 20
544.150341
 30
0.0
 10
970.009519
 20
544.150341
 30
0.0
 10
970.009519
 20
506.153880
 30
0.0
 10
932.013059
 20
506.153880
 30
0.0
  0
LWPOLYLINE
  5
165
100
AcDbEntity
  8
Layer_1
 62
3
100
AcDbPolyline
 90
5
 70
1
 10
1071.631481
 20
497.033840
 30
0.0
 10
1071.631481
 20
551.167788
 30
0.0
 10
1125.765429
 20
551.167788
 30
0.0
 10
1125.765429
 20
497.033840
 30
0.0
 10
1071.631481
 20
497.033840
 30
0.0
  0
LWPOLYLINE
  5
166
100
AcDbEntity
  8
Layer_1
 62
3
100
AcDbPolyline
 90
5
 70
1
 10
1076.184809
 20
501.950504
 30
0.0
 10
1076.184809
 20
546.988778
 30
0.0
 10
1121.223083
 20
546.988778
 30
0.0
 10
1121.223083
 20
501.950504
 30
0.0
 10
1076.184809
 20
501.950504
 30
0.0
  0
LWPOLYLINE
  5
167
100
AcDbEntity
  8
Layer_1
 62
3
100
AcDbPolyline
 90
5
 70
1
 10
1067.370196
 20
492.716521
 30
0.0
 10
1067.370196
 20
555.652742
 30
0.0
 10
1130.306417
 20
555.652742
 30
0.0
 10
1130.306417
 20
492.716521
 30
0.0
 10
1067.370196
 20
492.716521
 30
0.0
  0
LWPOLYLINE
  5
168
100
AcDbEntity
  8
Layer_1
 62
3
100
AcDbPolyline
 90
5
 70
1
 10
1083.897290
 20
509.147580
 30
0.0
 10
1083.897290
 20
540.069394
 30
0.0
 10
1114.819104
 20
540.069394
 30
0.0
 10
1114.819104
 20
509.147580
 30
0.0
 10
1083.897290
 20
509.147580
 30
0.0
  0
LWPOLYLINE
  5
169
100
AcDbEntity
  8
Layer_1
 62
3
100
AcDbPolyline
 90
5
 70
1
 10
1087.525183
 20
512.982881
 30
0.0
 10
1087.525183
 20
536.655299
 30
0.0
 10
1111.197601
 20
536.655299
 30
0.0
 10
1111.197601
 20
512.982881
 30
0.0
 10
1087.525183
 20
512.982881
 30
0.0
  0
LWPOLYLINE
  5
16a
100
AcDbEntity
  8
Layer_1
 62
3
100
AcDbPolyline
 90
5
 70
1
 10
1080.444408
 20
505.660818
 30
0.0
 10
1080.444408
 20
543.657279
 30
0.0
 10
1118.440869
 20
543.657279
 30
0.0
 10
1118.440869
 20
505.660818
 30
0.0
 10
1080.444408
 20
505.660818
 30
0.0
  0
LWPOLYLINE
  5
16b
100
AcDbEntity
  8
Layer_1
 62
3
100
AcDbPolyline
 90
5
 70
1
 10
703.536041
 20
423.626355
 30
0.0
 10
703.536041
 20
477.760304
 30
0.0
 10
757.669989
 20
477.760304
 30
0.0
 10
757.669989
 20
423.626355
 30
0.0
 10
703.536041
 20
423.626355
 30
0.0
  0
LWPOLYLINE
  5
16c
100
AcDbEntity
  8
Layer_1
 62
3
100
AcDbPolyline
 90
5
 70
1
 10
708.089369
 20
428.543020
 30
0.0
 10
708.089369
 20
473.581293
 30
0.0
 10
753.127643
 20
473.581293
 30
0.0
 10
753.127643
 20
428.543020
 30
0.0
 10
708.089369
 20
428.543020
 30
0.0
  0
LWPOLYLINE
  5
16d
100
AcDbEntity
  8
Layer_1
 62
3
100
AcDbPolyline
 90
5
 70
1
 10
699.274756
 20
419.309036
 30
0.0
 10
699.274756
 20
482.245258
 30
0.0
 10
762.210977
 20
482.245258
 30
0.0
 10
762.210977
 20
419.309036
 30
0.0
 10
699.274756
 20
419.309036
 30
0.0
  0
LWPOLYLINE
  5
16e
100
AcDbEntity
  8
Layer_1
 62
3
100
AcDbPolyline
 90
5
 70
1
 10
715.801850
 20
435.740095
 30
0.0
 10
715.801850
 20
466.661909
 30
0.0
 10
746.723664
 20
466.661909
 30
0.0
 10
746.723664
 20
435.740095
 30
0.0
 10
715.801850
 20
435.740095
 30
0.0
  0
LWPOLYLINE
  5
16f
100
AcDbEntity
  8
Layer_1
 62
3
100
AcDbPolyline
 90
5
 70
1
 10
719.429743
 20
439.575396
 30
0.0
 10
719.429743
 20
463.247815
 30
0.0
 10
743.102162
 20
463.247815
 30
0.0
 10
743.102162
 20
439.575396
 30
0.0
 10
719.429743
 20
439.575396
 30
0.0
  0
LWPOLYLINE
  5
170
100
AcDbEntity
  8
Layer_1
 62
3
100
AcDbPolyline
 90
5
 70
1
 10
712.348969
 20
432.253334
 30
0.0
 10
712.348969
 20
470.249794
 30
0.0
 10
750.345429
 20
470.249794
 30
0.0
 10
750.345429
 20
432.253334
 30
0.0
 10
712.348969
 20
432.253334
 30
0.0
  0
LWPOLYLINE
  5
171
100
AcDbEntity
  8
Layer_1
 62
3
100
AcDbPolyline
 90
5
 70
1
 10
553.912733
 20
423.860714
 30
0.0
 10
553.912733
 20
477.994662
 30
0.0
 10
608.046682
 20
477.994662
 30
0.0
 10
608.046682
 20
423.860714
 30
0.0
 10
553.912733
 20
423.860714
 30
0.0
  0
LWPOLYLINE
  5
172
100
AcDbEntity
  8
Layer_1
 62
3
100
AcDbPolyline
 90
5
 70
1
 10
558.466062
 20
428.777379
 30
0.0
 10
558.466062
 20
473.815652
 30
0.0
 10
603.504335
 20
473.815652
 30
0.0
 10
603.504335
 20
428.777379
 30
0.0
 10
558.466062
 20
428.777379
 30
0.0
  0
LWPOLYLINE
  5
173
100
AcDbEntity
  8
Layer_1
 62
3
100
AcDbPolyline
 90
5
 70
1
 10
549.651448
 20
419.543395
 30
0.0
 10
549.651448
 20
482.479616
 30
0.0
 10
612.587669
 20
482.479616
 30
0.0
 10
612.587669
 20
419.543395
 30
0.0
 10
549.651448
 20
419.543395
 30
0.0
  0
LWPOLYLINE
  5
174
100
AcDbEntity
  8
Layer_1
 62
3
100
AcDbPolyline
 90
5
 70
1
 10
566.178542
 20
435.974454
 30
0.0
 10
566.178542
 20
466.896268
 30
0.0
 10
597.100356
 20
466.896268
 30
0.0
 10
597.100356
 20
435.974454
 30
0.0
 10
566.178542
 20
435.974454
 30
0.0
  0
LWPOLYLINE
  5
175
100
AcDbEntity
  8
Layer_1
 62
3
100
AcDbPolyline
 90
5
 70
1
 10
569.806435
 20
439.809755
 30
0.0
 10
569.806435
 20
463.482173
 30
0.0
 10
593.478854
 20
463.482173
 30
0.0
 10
593.478854
 20
439.809755
 30
0.0
 10
569.806435
 20
439.809755
 30
0.0
  0
LWPOLYLINE
  5
176
100
AcDbEntity
  8
Layer_1
 62
3
100
AcDbPolyline
 90
5
 70
1
 10
562.725661
 20
432.487692
 30
0.0
 10
562.725661
 20
470.484153
 30
0.0
 10
600.722122
 20
470.484153
 30
0.0
 10
600.722122
 20
432.487692
 30
0.0
 10
562.725661
 20
432.487692
 30
0.0
  0
LWPOLYLINE
  5
177
100
AcDbEntity
  8
Layer_1
 62
3
100
AcDbPolyline
 90
5
 70
1
 10
848.803172
 20
423.860714
 30
0.0
 10
848.803172
 20
477.994662
 30
0.0
 10
902.937121
 20
477.994662
 30
0.0
 10
902.937121
 20
423.860714
 30
0.0
 10
848.803172
 20
423.860714
 30
0.0
  0
LWPOLYLINE
  5
178
100
AcDbEntity
  8
Layer_1
 62
3
100
AcDbPolyline
 90
5
 70
1
 10
853.356501
 20
428.777379
 30
0.0
 10
853.356501
 20
473.815652
 30
0.0
 10
898.394774
 20
473.815652
 30
0.0
 10
898.394774
 20
428.777379
 30
0.0
 10
853.356501
 20
428.777379
 30
0.0
  0
LWPOLYLINE
  5
179
100
AcDbEntity
  8
Layer_1
 62
3
100
AcDbPolyline
 90
5
 70
1
 10
844.541887
 20
419.543395
 30
0.0
 10
844.541887
 20
482.479616
 30
0.0
 10
907.478108
 20
482.479616
 30
0.0
 10
907.478108
 20
419.543395
 30
0.0
 10
844.541887
 20
419.543395
 30
0.0
  0
LWPOLYLINE
  5
17a
100
AcDbEntity
  8
Layer_1
 62
3
100
AcDbPolyline
 90
5
 70
1
 10
861.068981
 20
435.974454
 30
0.0
 10
861.068981
 20
466.896268
 30
0.0
 10
891.990795
 20
466.896268
 30
0.0
 10
891.990795
 20
435.974454
 30
0.0
 10
861.068981
 20
435.974454
 30
0.0
  0
LWPOLYLINE
  5
17b
100
AcDbEntity
  8
Layer_1
 62
3
100
AcDbPolyline
 90
5
 70
1
 10
864.696874
 20
439.809755
 30
0.0
 10
864.696874
 20
463.482173
 30
0.0
 10
888.369293
 20
463.482173
 30
0.0
 10
888.369293
 20
439.809755
 30
0.0
 10
864.696874
 20
439.809755
 30
0.0
  0
LWPOLYLINE
  5
17c
100
AcDbEntity
  8
Layer_1
 62
3
100
AcDbPolyline
 90
5
 70
1
 10
857.616100
 20
432.487692
 30
0.0
 10
857.616100
 20
470.484153
 30
0.0
 10
895.612560
 20
470.484153
 30
0.0
 10
895.612560
 20
432.487692
 30
0.0
 10
857.616100
 20
432.487692
 30
0.0
  0
LWPOLYLINE
  5
17d
100
AcDbEntity
  8
Layer_1
 62
3
100
AcDbPolyline
 90
5
 70
1
 10
996.468325
 20
424.353776
 30
0.0
 10
996.468325
 20
478.487724
 30
0.0
 10
1050.602273
 20
478.487724
 30
0.0
 10
1050.602273
 20
424.353776
 30
0.0
 10
996.468325
 20
424.353776
 30
0.0
  0
LWPOLYLINE
  5
17e
100
AcDbEntity
  8
Layer_1
 62
3
100
AcDbPolyline
 90
5
 70
1
 10
1001.021653
 20
429.270440
 30
0.0
 10
1001.021653
 20
474.308714
 30
0.0
 10
1046.059926
 20
474.308714
 30
0.0
 10
1046.059926
 20
429.270440
 30
0.0
 10
1001.021653
 20
429.270440
 30
0.0
  0
LWPOLYLINE
  5
17f
100
AcDbEntity
  8
Layer_1
 62
3
100
AcDbPolyline
 90
5
 70
1
 10
992.207039
 20
420.036457
 30
0.0
 10
992.207039
 20
482.972678
 30
0.0
 10
1055.143261
 20
482.972678
 30
0.0
 10
1055.143261
 20
420.036457
 30
0.0
 10
992.207039
 20
420.036457
 30
0.0
  0
LWPOLYLINE
  5
180
100
AcDbEntity
  8
Layer_1
 62
3
100
AcDbPolyline
 90
5
 70
1
 10
1008.734133
 20
436.467516
 30
0.0
 10
1008.734133
 20
467.389330
 30
0.0
 10
1039.655948
 20
467.389330
 30
0.0
 10
1039.655948
 20
436.467516
 30
0.0
 10
1008.734133
 20
436.467516
 30
0.0
  0
LWPOLYLINE
  5
181
100
AcDbEntity
  8
Layer_1
 62
3
100
AcDbPolyline
 90
5
 70
1
 10
1012.362027
 20
440.302817
 30
0.0
 10
1012.362027
 20
463.975235
 30
0.0
 10
1036.034445
 20
463.975235
 30
0.0
 10
1036.034445
 20
440.302817
 30
0.0
 10
1012.362027
 20
440.302817
 30
0.0
  0
LWPOLYLINE
  5
182
100
AcDbEntity
  8
Layer_1
 62
3
100
AcDbPolyline
 90
5
 70
1
 10
1005.281252
 20
432.980754
 30
0.0
 10
1005.281252
 20
470.977215
 30
0.0
 10
1043.277713
 20
470.977215
 30
0.0
 10
1043.277713
 20
432.980754
 30
0.0
 10
1005.281252
 20
432.980754
 30
0.0
  0
LWPOLYLINE
  5
183
100
AcDbEntity
  8
Layer_1
 62
3
100
AcDbPolyline
 90
5
 70
1
 10
704.552001
 20
277.058273
 30
0.0
 10
704.552001
 20
331.192221
 30
0.0
 10
758.685950
 20
331.192221
 30
0.0
 10
758.685950
 20
277.058273
 30
0.0
 10
704.552001
 20
277.058273
 30
0.0
  0
LWPOLYLINE
  5
184
100
AcDbEntity
  8
Layer_1
 62
3
100
AcDbPolyline
 90
5
 70
1
 10
709.105330
 20
281.974938
 30
0.0
 10
709.105330
 20
327.013211
 30
0.0
 10
754.143603
 20
327.013211
 30
0.0
 10
754.143603
 20
281.974938
 30
0.0
 10
709.105330
 20
281.974938
 30
0.0
  0
LWPOLYLINE
  5
185
100
AcDbEntity
  8
Layer_1
 62
3
100
AcDbPolyline
 90
5
 70
1
 10
700.290716
 20
272.740954
 30
0.0
 10
700.290716
 20
335.677175
 30
0.0
 10
763.226937
 20
335.677175
 30
0.0
 10
763.226937
 20
272.740954
 30
0.0
 10
700.290716
 20
272.740954
 30
0.0
  0
LWPOLYLINE
  5
186
100
AcDbEntity
  8
Layer_1
 62
3
100
AcDbPolyline
 90
5
 70
1
 10
716.817810
 20
289.172013
 30
0.0
 10
716.817810
 20
320.093827
 30
0.0
 10
747.739624
 20
320.093827
 30
0.0
 10
747.739624
 20
289.172013
 30
0.0
 10
716.817810
 20
289.172013
 30
0.0
  0
LWPOLYLINE
  5
187
100
AcDbEntity
  8
Layer_1
 62
3
100
AcDbPolyline
 90
5
 70
1
 10
720.445704
 20
293.007314
 30
0.0
 10
720.445704
 20
316.679732
 30
0.0
 10
744.118122
 20
316.679732
 30
0.0
 10
744.118122
 20
293.007314
 30
0.0
 10
720.445704
 20
293.007314
 30
0.0
  0
LWPOLYLINE
  5
188
100
AcDbEntity
  8
Layer_1
 62
3
100
AcDbPolyline
 90
5
 70
1
 10
713.364929
 20
285.685251
 30
0.0
 10
713.364929
 20
323.681712
 30
0.0
 10
751.361390
 20
323.681712
 30
0.0
 10
751.361390
 20
285.685251
 30
0.0
 10
713.364929
 20
285.685251
 30
0.0
  0
LWPOLYLINE
  5
189
100
AcDbEntity
  8
Layer_1
 62
3
100
AcDbPolyline
 90
5
 70
1
 10
555.914835
 20
276.306449
 30
0.0
 10
555.914835
 20
330.440397
 30
0.0
 10
610.048783
 20
330.440397
 30
0.0
 10
610.048783
 20
276.306449
 30
0.0
 10
555.914835
 20
276.306449
 30
0.0
  0
LWPOLYLINE
  5
18a
100
AcDbEntity
  8
Layer_1
 62
3
100
AcDbPolyline
 90
5
 70
1
 10
560.468163
 20
281.223113
 30
0.0
 10
560.468163
 20
326.261387
 30
0.0
 10
605.506437
 20
326.261387
 30
0.0
 10
605.506437
 20
281.223113
 30
0.0
 10
560.468163
 20
281.223113
 30
0.0
  0
LWPOLYLINE
  5
18b
100
AcDbEntity
  8
Layer_1
 62
3
100
AcDbPolyline
 90
5
 70
1
 10
551.653550
 20
271.989130
 30
0.0
 10
551.653550
 20
334.925351
 30
0.0
 10
614.589771
 20
334.925351
 30
0.0
 10
614.589771
 20
271.989130
 30
0.0
 10
551.653550
 20
271.989130
 30
0.0
  0
LWPOLYLINE
  5
18c
100
AcDbEntity
  8
Layer_1
 62
3
100
AcDbPolyline
 90
5
 70
1
 10
568.180644
 20
288.420189
 30
0.0
 10
568.180644
 20
319.342003
 30
0.0
 10
599.102458
 20
319.342003
 30
0.0
 10
599.102458
 20
288.420189
 30
0.0
 10
568.180644
 20
288.420189
 30
0.0
  0
LWPOLYLINE
  5
18d
100
AcDbEntity
  8
Layer_1
 62
3
100
AcDbPolyline
 90
5
 70
1
 10
571.808537
 20
292.255490
 30
0.0
 10
571.808537
 20
315.927908
 30
0.0
 10
595.480955
 20
315.927908
 30
0.0
 10
595.480955
 20
292.255490
 30
0.0
 10
571.808537
 20
292.255490
 30
0.0
  0
LWPOLYLINE
  5
18e
100
AcDbEntity
  8
Layer_1
 62
3
100
AcDbPolyline
 90
5
 70
1
 10
564.727762
 20
284.933427
 30
0.0
 10
564.727762
 20
322.929888
 30
0.0
 10
602.724223
 20
322.929888
 30
0.0
 10
602.724223
 20
284.933427
 30
0.0
 10
564.727762
 20
284.933427
 30
0.0
  0
LWPOLYLINE
  5
18f
100
AcDbEntity
  8
Layer_1
 62
3
100
AcDbPolyline
 90
5
 70
1
 10
849.819132
 20
276.306449
 30
0.0
 10
849.819132
 20
330.440397
 30
0.0
 10
903.953081
 20
330.440397
 30
0.0
 10
903.953081
 20
276.306449
 30
0.0
 10
849.819132
 20
276.306449
 30
0.0
  0
LWPOLYLINE
  5
190
100
AcDbEntity
  8
Layer_1
 62
3
100
AcDbPolyline
 90
5
 70
1
 10
854.372461
 20
281.223113
 30
0.0
 10
854.372461
 20
326.261387
 30
0.0
 10
899.410734
 20
326.261387
 30
0.0
 10
899.410734
 20
281.223113
 30
0.0
 10
854.372461
 20
281.223113
 30
0.0
  0
LWPOLYLINE
  5
191
100
AcDbEntity
  8
Layer_1
 62
3
100
AcDbPolyline
 90
5
 70
1
 10
845.557847
 20
271.989130
 30
0.0
 10
845.557847
 20
334.925351
 30
0.0
 10
908.494068
 20
334.925351
 30
0.0
 10
908.494068
 20
271.989130
 30
0.0
 10
845.557847
 20
271.989130
 30
0.0
  0
LWPOLYLINE
  5
192
100
AcDbEntity
  8
Layer_1
 62
3
100
AcDbPolyline
 90
5
 70
1
 10
862.084941
 20
288.420189
 30
0.0
 10
862.084941
 20
319.342003
 30
0.0
 10
893.006756
 20
319.342003
 30
0.0
 10
893.006756
 20
288.420189
 30
0.0
 10
862.084941
 20
288.420189
 30
0.0
  0
LWPOLYLINE
  5
193
100
AcDbEntity
  8
Layer_1
 62
3
100
AcDbPolyline
 90
5
 70
1
 10
865.712835
 20
292.255490
 30
0.0
 10
865.712835
 20
315.927908
 30
0.0
 10
889.385253
 20
315.927908
 30
0.0
 10
889.385253
 20
292.255490
 30
0.0
 10
865.712835
 20
292.255490
 30
0.0
  0
LWPOLYLINE
  5
194
100
AcDbEntity
  8
Layer_1
 62
3
100
AcDbPolyline
 90
5
 70
1
 10
858.632060
 20
284.933427
 30
0.0
 10
858.632060
 20
322.929888
 30
0.0
 10
896.628521
 20
322.929888
 30
0.0
 10
896.628521
 20
284.933427
 30
0.0
 10
858.632060
 20
284.933427
 30
0.0
  0
LWPOLYLINE
  5
195
100
AcDbEntity
  8
Layer_1
 62
3
100
AcDbPolyline
 90
5
 70
1
 10
997.264343
 20
276.799511
 30
0.0
 10
997.264343
 20
330.933459
 30
0.0
 10
1051.398291
 20
330.933459
 30
0.0
 10
1051.398291
 20
276.799511
 30
0.0
 10
997.264343
 20
276.799511
 30
0.0
  0
LWPOLYLINE
  5
196
100
AcDbEntity
  8
Layer_1
 62
3
100
AcDbPolyline
 90
5
 70
1
 10
1001.817671
 20
281.716175
 30
0.0
 10
1001.817671
 20
326.754449
 30
0.0
 10
1046.855944
 20
326.754449
 30
0.0
 10
1046.855944
 20
281.716175
 30
0.0
 10
1001.817671
 20
281.716175
 30
0.0
  0
LWPOLYLINE
  5
197
100
AcDbEntity
  8
Layer_1
 62
3
100
AcDbPolyline
 90
5
 70
1
 10
993.003057
 20
272.482192
 30
0.0
 10
993.003057
 20
335.418413
 30
0.0
 10
1055.939279
 20
335.418413
 30
0.0
 10
1055.939279
 20
272.482192
 30
0.0
 10
993.003057
 20
272.482192
 30
0.0
  0
LWPOLYLINE
  5
198
100
AcDbEntity
  8
Layer_1
 62
3
100
AcDbPolyline
 90
5
 70
1
 10
1009.530152
 20
288.913251
 30
0.0
 10
1009.530152
 20
319.835065
 30
0.0
 10
1040.451966
 20
319.835065
 30
0.0
 10
1040.451966
 20
288.913251
 30
0.0
 10
1009.530152
 20
288.913251
 30
0.0
  0
LWPOLYLINE
  5
199
100
AcDbEntity
  8
Layer_1
 62
3
100
AcDbPolyline
 90
5
 70
1
 10
1013.158045
 20
292.748552
 30
0.0
 10
1013.158045
 20
316.420970
 30
0.0
 10
1036.830463
 20
316.420970
 30
0.0
 10
1036.830463
 20
292.748552
 30
0.0
 10
1013.158045
 20
292.748552
 30
0.0
  0
LWPOLYLINE
  5
19a
100
AcDbEntity
  8
Layer_1
 62
3
100
AcDbPolyline
 90
5
 70
1
 10
1006.077270
 20
285.426489
 30
0.0
 10
1006.077270
 20
323.422950
 30
0.0
 10
1044.073731
 20
323.422950
 30
0.0
 10
1044.073731
 20
285.426489
 30
0.0
 10
1006.077270
 20
285.426489
 30
0.0
  0
LWPOLYLINE
  5
19b
100
AcDbEntity
  8
Layer_1
 62
3
100
AcDbPolyline
 90
5
 70
1
 10
776.691451
 20
204.257853
 30
0.0
 10
776.691451
 20
258.391801
 30
0.0
 10
830.825400
 20
258.391801
 30
0.0
 10
830.825400
 20
204.257853
 30
0.0
 10
776.691451
 20
204.257853
 30
0.0
  0
LWPOLYLINE
  5
19c
100
AcDbEntity
  8
Layer_1
 62
3
100
AcDbPolyline
 90
5
 70
1
 10
781.244780
 20
209.174517
 30
0.0
 10
781.244780
 20
254.212791
 30
0.0
 10
826.283053
 20
254.212791
 30
0.0
 10
826.283053
 20
209.174517
 30
0.0
 10
781.244780
 20
209.174517
 30
0.0
  0
LWPOLYLINE
  5
19d
100
AcDbEntity
  8
Layer_1
 62
3
100
AcDbPolyline
 90
5
 70
1
 10
772.430166
 20
199.940534
 30
0.0
 10
772.430166
 20
262.876755
 30
0.0
 10
835.366387
 20
262.876755
 30
0.0
 10
835.366387
 20
199.940534
 30
0.0
 10
772.430166
 20
199.940534
 30
0.0
  0
LWPOLYLINE
  5
19e
100
AcDbEntity
  8
Layer_1
 62
3
100
AcDbPolyline
 90
5
 70
1
 10
788.957260
 20
216.371593
 30
0.0
 10
788.957260
 20
247.293407
 30
0.0
 10
819.879075
 20
247.293407
 30
0.0
 10
819.879075
 20
216.371593
 30
0.0
 10
788.957260
 20
216.371593
 30
0.0
  0
LWPOLYLINE
  5
19f
100
AcDbEntity
  8
Layer_1
 62
3
100
AcDbPolyline
 90
5
 70
1
 10
792.585154
 20
220.206894
 30
0.0
 10
792.585154
 20
243.879312
 30
0.0
 10
816.257572
 20
243.879312
 30
0.0
 10
816.257572
 20
220.206894
 30
0.0
 10
792.585154
 20
220.206894
 30
0.0
  0
LWPOLYLINE
  5
1a0
100
AcDbEntity
  8
Layer_1
 62
3
100
AcDbPolyline
 90
5
 70
1
 10
785.504379
 20
212.884831
 30
0.0
 10
785.504379
 20
250.881292
 30
0.0
 10
823.500840
 20
250.881292
 30
0.0
 10
823.500840
 20
212.884831
 30
0.0
 10
785.504379
 20
212.884831
 30
0.0
  0
LWPOLYLINE
  5
1a1
100
AcDbEntity
  8
Layer_1
 62
3
100
AcDbPolyline
 90
5
 70
1
 10
631.012707
 20
205.478276
 30
0.0
 10
631.012707
 20
259.612224
 30
0.0
 10
685.146655
 20
259.612224
 30
0.0
 10
685.146655
 20
205.478276
 30
0.0
 10
631.012707
 20
205.478276
 30
0.0
  0
LWPOLYLINE
  5
1a2
100
AcDbEntity
  8
Layer_1
 62
3
100
AcDbPolyline
 90
5
 70
1
 10
635.566035
 20
210.394940
 30
0.0
 10
635.566035
 20
255.433214
 30
0.0
 10
680.604309
 20
255.433214
 30
0.0
 10
680.604309
 20
210.394940
 30
0.0
 10
635.566035
 20
210.394940
 30
0.0
  0
LWPOLYLINE
  5
1a3
100
AcDbEntity
  8
Layer_1
 62
3
100
AcDbPolyline
 90
5
 70
1
 10
626.751422
 20
201.160957
 30
0.0
 10
626.751422
 20
264.097178
 30
0.0
 10
689.687643
 20
264.097178
 30
0.0
 10
689.687643
 20
201.160957
 30
0.0
 10
626.751422
 20
201.160957
 30
0.0
  0
LWPOLYLINE
  5
1a4
100
AcDbEntity
  8
Layer_1
 62
3
100
AcDbPolyline
 90
5
 70
1
 10
643.278516
 20
217.592016
 30
0.0
 10
643.278516
 20
248.513830
 30
0.0
 10
674.200330
 20
248.513830
 30
0.0
 10
674.200330
 20
217.592016
 30
0.0
 10
643.278516
 20
217.592016
 30
0.0
  0
LWPOLYLINE
  5
1a5
100
AcDbEntity
  8
Layer_1
 62
3
100
AcDbPolyline
 90
5
 70
1
 10
646.906409
 20
221.427317
 30
0.0
 10
646.906409
 20
245.099735
 30
0.0
 10
670.578827
 20
245.099735
 30
0.0
 10
670.578827
 20
221.427317
 30
0.0
 10
646.906409
 20
221.427317
 30
0.0
  0
LWPOLYLINE
  5
1a6
100
AcDbEntity
  8
Layer_1
 62
3
100
AcDbPolyline
 90
5
 70
1
 10
639.825634
 20
214.105254
 30
0.0
 10
639.825634
 20
252.101715
 30
0.0
 10
677.822095
 20
252.101715
 30
0.0
 10
677.822095
 20
214.105254
 30
0.0
 10
639.825634
 20
214.105254
 30
0.0
  0
LWPOLYLINE
  5
1a7
100
AcDbEntity
  8
Layer_1
 62
3
100
AcDbPolyline
 90
5
 70
1
 10
922.944729
 20
204.492152
 30
0.0
 10
922.944729
 20
258.626101
 30
0.0
 10
977.078678
 20
258.626101
 30
0.0
 10
977.078678
 20
204.492152
 30
0.0
 10
922.944729
 20
204.492152
 30
0.0
  0
LWPOLYLINE
  5
1a8
100
AcDbEntity
  8
Layer_1
 62
3
100
AcDbPolyline
 90
5
 70
1
 10
927.498058
 20
209.408817
 30
0.0
 10
927.498058
 20
254.447090
 30
0.0
 10
972.536331
 20
254.447090
 30
0.0
 10
972.536331
 20
209.408817
 30
0.0
 10
927.498058
 20
209.408817
 30
0.0
  0
LWPOLYLINE
  5
1a9
100
AcDbEntity
  8
Layer_1
 62
3
100
AcDbPolyline
 90
5
 70
1
 10
918.683444
 20
200.174833
 30
0.0
 10
918.683444
 20
263.111055
 30
0.0
 10
981.619665
 20
263.111055
 30
0.0
 10
981.619665
 20
200.174833
 30
0.0
 10
918.683444
 20
200.174833
 30
0.0
  0
LWPOLYLINE
  5
1aa
100
AcDbEntity
  8
Layer_1
 62
3
100
AcDbPolyline
 90
5
 70
1
 10
935.210538
 20
216.605892
 30
0.0
 10
935.210538
 20
247.527707
 30
0.0
 10
966.132352
 20
247.527707
 30
0.0
 10
966.132352
 20
216.605892
 30
0.0
 10
935.210538
 20
216.605892
 30
0.0
  0
LWPOLYLINE
  5
1ab
100
AcDbEntity
  8
Layer_1
 62
3
100
AcDbPolyline
 90
5
 70
1
 10
938.838432
 20
220.441193
 30
0.0
 10
938.838432
 20
244.113612
 30
0.0
 10
962.510850
 20
244.113612
 30
0.0
 10
962.510850
 20
220.441193
 30
0.0
 10
938.838432
 20
220.441193
 30
0.0
  0
LWPOLYLINE
  5
1ac
100
AcDbEntity
  8
Layer_1
 62
3
100
AcDbPolyline
 90
5
 70
1
 10
931.757657
 20
213.119131
 30
0.0
 10
931.757657
 20
251.115591
 30
0.0
 10
969.754118
 20
251.115591
 30
0.0
 10
969.754118
 20
213.119131
 30
0.0
 10
931.757657
 20
213.119131
 30
0.0
  0
LWPOLYLINE
  5
1ad
100
AcDbEntity
  8
Layer_1
 62
3
100
AcDbPolyline
 90
5
 70
1
 10
1071.869147
 20
204.492152
 30
0.0
 10
1071.869147
 20
258.626101
 30
0.0
 10
1126.003095
 20
258.626101
 30
0.0
 10
1126.003095
 20
204.492152
 30
0.0
 10
1071.869147
 20
204.492152
 30
0.0
  0
LWPOLYLINE
  5
1ae
100
AcDbEntity
  8
Layer_1
 62
3
100
AcDbPolyline
 90
5
 70
1
 10
1076.422475
 20
209.408817
 30
0.0
 10
1076.422475
 20
254.447090
 30
0.0
 10
1121.460749
 20
254.447090
 30
0.0
 10
1121.460749
 20
209.408817
 30
0.0
 10
1076.422475
 20
209.408817
 30
0.0
  0
LWPOLYLINE
  5
1af
100
AcDbEntity
  8
Layer_1
 62
3
100
AcDbPolyline
 90
5
 70
1
 10
1067.607862
 20
200.174833
 30
0.0
 10
1067.607862
 20
263.111055
 30
0.0
 10
1130.544083
 20
263.111055
 30
0.0
 10
1130.544083
 20
200.174833
 30
0.0
 10
1067.607862
 20
200.174833
 30
0.0
  0
LWPOLYLINE
  5
1b0
100
AcDbEntity
  8
Layer_1
 62
3
100
AcDbPolyline
 90
5
 70
1
 10
1084.134956
 20
216.605892
 30
0.0
 10
1084.134956
 20
247.527707
 30
0.0
 10
1115.056770
 20
247.527707
 30
0.0
 10
1115.056770
 20
216.605892
 30
0.0
 10
1084.134956
 20
216.605892
 30
0.0
  0
LWPOLYLINE
  5
1b1
100
AcDbEntity
  8
Layer_1
 62
3
100
AcDbPolyline
 90
5
 70
1
 10
1087.762849
 20
220.441193
 30
0.0
 10
1087.762849
 20
244.113612
 30
0.0
 10
1111.435267
 20
244.113612
 30
0.0
 10
1111.435267
 20
220.441193
 30
0.0
 10
1087.762849
 20
220.441193
 30
0.0
  0
LWPOLYLINE
  5
1b2
100
AcDbEntity
  8
Layer_1
 62
3
100
AcDbPolyline
 90
5
 70
1
 10
1080.682074
 20
213.119131
 30
0.0
 10
1080.682074
 20
251.115591
 30
0.0
 10
1118.678535
 20
251.115591
 30
0.0
 10
1118.678535
 20
213.119131
 30
0.0
 10
1080.682074
 20
213.119131
 30
0.0
  0
LWPOLYLINE
  5
1b3
100
AcDbEntity
  8
Layer_1
 62
3
100
AcDbPolyline
 90
5
 70
1
 10
703.280639
 20
131.084668
 30
0.0
 10
703.280639
 20
185.218616
 30
0.0
 10
757.414588
 20
185.218616
 30
0.0
 10
757.414588
 20
131.084668
 30
0.0
 10
703.280639
 20
131.084668
 30
0.0
  0
LWPOLYLINE
  5
1b4
100
AcDbEntity
  8
Layer_1
 62
3
100
AcDbPolyline
 90
5
 70
1
 10
707.833968
 20
136.001332
 30
0.0
 10
707.833968
 20
181.039606
 30
0.0
 10
752.872241
 20
181.039606
 30
0.0
 10
752.872241
 20
136.001332
 30
0.0
 10
707.833968
 20
136.001332
 30
0.0
  0
LWPOLYLINE
  5
1b5
100
AcDbEntity
  8
Layer_1
 62
3
100
AcDbPolyline
 90
5
 70
1
 10
699.019354
 20
126.767349
 30
0.0
 10
699.019354
 20
189.703570
 30
0.0
 10
761.955575
 20
189.703570
 30
0.0
 10
761.955575
 20
126.767349
 30
0.0
 10
699.019354
 20
126.767349
 30
0.0
  0
LWPOLYLINE
  5
1b6
100
AcDbEntity
  8
Layer_1
 62
3
100
AcDbPolyline
 90
5
 70
1
 10
715.546448
 20
143.198408
 30
0.0
 10
715.546448
 20
174.120222
 30
0.0
 10
746.468262
 20
174.120222
 30
0.0
 10
746.468262
 20
143.198408
 30
0.0
 10
715.546448
 20
143.198408
 30
0.0
  0
LWPOLYLINE
  5
1b7
100
AcDbEntity
  8
Layer_1
 62
3
100
AcDbPolyline
 90
5
 70
1
 10
719.174342
 20
147.033709
 30
0.0
 10
719.174342
 20
170.706127
 30
0.0
 10
742.846760
 20
170.706127
 30
0.0
 10
742.846760
 20
147.033709
 30
0.0
 10
719.174342
 20
147.033709
 30
0.0
  0
LWPOLYLINE
  5
1b8
100
AcDbEntity
  8
Layer_1
 62
3
100
AcDbPolyline
 90
5
 70
1
 10
712.093567
 20
139.711646
 30
0.0
 10
712.093567
 20
177.708107
 30
0.0
 10
750.090028
 20
177.708107
 30
0.0
 10
750.090028
 20
139.711646
 30
0.0
 10
712.093567
 20
139.711646
 30
0.0
  0
LWPOLYLINE
  5
1b9
100
AcDbEntity
  8
Layer_1
 62
3
100
AcDbPolyline
 90
5
 70
1
 10
555.136541
 20
130.825905
 30
0.0
 10
555.136541
 20
184.959854
 30
0.0
 10
609.270489
 20
184.959854
 30
0.0
 10
609.270489
 20
130.825905
 30
0.0
 10
555.136541
 20
130.825905
 30
0.0
  0
LWPOLYLINE
  5
1ba
100
AcDbEntity
  8
Layer_1
 62
3
100
AcDbPolyline
 90
5
 70
1
 10
559.689869
 20
135.742570
 30
0.0
 10
559.689869
 20
180.780843
 30
0.0
 10
604.728142
 20
180.780843
 30
0.0
 10
604.728142
 20
135.742570
 30
0.0
 10
559.689869
 20
135.742570
 30
0.0
  0
LWPOLYLINE
  5
1bb
100
AcDbEntity
  8
Layer_1
 62
3
100
AcDbPolyline
 90
5
 70
1
 10
550.875255
 20
126.508586
 30
0.0
 10
550.875255
 20
189.444808
 30
0.0
 10
613.811477
 20
189.444808
 30
0.0
 10
613.811477
 20
126.508586
 30
0.0
 10
550.875255
 20
126.508586
 30
0.0
  0
LWPOLYLINE
  5
1bc
100
AcDbEntity
  8
Layer_1
 62
3
100
AcDbPolyline
 90
5
 70
1
 10
567.402350
 20
142.939645
 30
0.0
 10
567.402350
 20
173.861459
 30
0.0
 10
598.324164
 20
173.861459
 30
0.0
 10
598.324164
 20
142.939645
 30
0.0
 10
567.402350
 20
142.939645
 30
0.0
  0
LWPOLYLINE
  5
1bd
100
AcDbEntity
  8
Layer_1
 62
3
100
AcDbPolyline
 90
5
 70
1
 10
571.030243
 20
146.774946
 30
0.0
 10
571.030243
 20
170.447364
 30
0.0
 10
594.702661
 20
170.447364
 30
0.0
 10
594.702661
 20
146.774946
 30
0.0
 10
571.030243
 20
146.774946
 30
0.0
  0
LWPOLYLINE
  5
1be
100
AcDbEntity
  8
Layer_1
 62
3
100
AcDbPolyline
 90
5
 70
1
 10
563.949468
 20
139.452884
 30
0.0
 10
563.949468
 20
177.449344
 30
0.0
 10
601.945929
 20
177.449344
 30
0.0
 10
601.945929
 20
139.452884
 30
0.0
 10
563.949468
 20
139.452884
 30
0.0
  0
LWPOLYLINE
  5
1bf
100
AcDbEntity
  8
Layer_1
 62
3
100
AcDbPolyline
 90
5
 70
1
 10
849.040838
 20
130.825905
 30
0.0
 10
849.040838
 20
184.959854
 30
0.0
 10
903.174787
 20
184.959854
 30
0.0
 10
903.174787
 20
130.825905
 30
0.0
 10
849.040838
 20
130.825905
 30
0.0
  0
LWPOLYLINE
  5
1c0
100
AcDbEntity
  8
Layer_1
 62
3
100
AcDbPolyline
 90
5
 70
1
 10
853.594167
 20
135.742570
 30
0.0
 10
853.594167
 20
180.780843
 30
0.0
 10
898.632440
 20
180.780843
 30
0.0
 10
898.632440
 20
135.742570
 30
0.0
 10
853.594167
 20
135.742570
 30
0.0
  0
LWPOLYLINE
  5
1c1
100
AcDbEntity
  8
Layer_1
 62
3
100
AcDbPolyline
 90
5
 70
1
 10
844.779553
 20
126.508586
 30
0.0
 10
844.779553
 20
189.444808
 30
0.0
 10
907.715774
 20
189.444808
 30
0.0
 10
907.715774
 20
126.508586
 30
0.0
 10
844.779553
 20
126.508586
 30
0.0
  0
LWPOLYLINE
  5
1c2
100
AcDbEntity
  8
Layer_1
 62
3
100
AcDbPolyline
 90
5
 70
1
 10
861.306647
 20
142.939645
 30
0.0
 10
861.306647
 20
173.861459
 30
0.0
 10
892.228461
 20
173.861459
 30
0.0
 10
892.228461
 20
142.939645
 30
0.0
 10
861.306647
 20
142.939645
 30
0.0
  0
LWPOLYLINE
  5
1c3
100
AcDbEntity
  8
Layer_1
 62
3
100
AcDbPolyline
 90
5
 70
1
 10
864.934540
 20
146.774946
 30
0.0
 10
864.934540
 20
170.447364
 30
0.0
 10
888.606959
 20
170.447364
 30
0.0
 10
888.606959
 20
146.774946
 30
0.0
 10
864.934540
 20
146.774946
 30
0.0
  0
LWPOLYLINE
  5
1c4
100
AcDbEntity
  8
Layer_1
 62
3
100
AcDbPolyline
 90
5
 70
1
 10
857.853766
 20
139.452884
 30
0.0
 10
857.853766
 20
177.449344
 30
0.0
 10
895.850226
 20
177.449344
 30
0.0
 10
895.850226
 20
139.452884
 30
0.0
 10
857.853766
 20
139.452884
 30
0.0
  0
LWPOLYLINE
  5
1c5
100
AcDbEntity
  8
Layer_1
 62
3
100
AcDbPolyline
 90
5
 70
1
 10
997.199064
 20
130.332843
 30
0.0
 10
997.199064
 20
184.466792
 30
0.0
 10
1051.333013
 20
184.466792
 30
0.0
 10
1051.333013
 20
130.332843
 30
0.0
 10
997.199064
 20
130.332843
 30
0.0
  0
LWPOLYLINE
  5
1c6
100
AcDbEntity
  8
Layer_1
 62
3
100
AcDbPolyline
 90
5
 70
1
 10
1001.752393
 20
135.249508
 30
0.0
 10
1001.752393
 20
180.287781
 30
0.0
 10
1046.790666
 20
180.287781
 30
0.0
 10
1046.790666
 20
135.249508
 30
0.0
 10
1001.752393
 20
135.249508
 30
0.0
  0
LWPOLYLINE
  5
1c7
100
AcDbEntity
  8
Layer_1
 62
3
100
AcDbPolyline
 90
5
 70
1
 10
992.937779
 20
126.015524
 30
0.0
 10
992.937779
 20
188.951746
 30
0.0
 10
1055.874000
 20
188.951746
 30
0.0
 10
1055.874000
 20
126.015524
 30
0.0
 10
992.937779
 20
126.015524
 30
0.0
  0
LWPOLYLINE
  5
1c8
100
AcDbEntity
  8
Layer_1
 62
3
100
AcDbPolyline
 90
5
 70
1
 10
1009.464873
 20
142.446583
 30
0.0
 10
1009.464873
 20
173.368398
 30
0.0
 10
1040.386687
 20
173.368398
 30
0.0
 10
1040.386687
 20
142.446583
 30
0.0
 10
1009.464873
 20
142.446583
 30
0.0
  0
LWPOLYLINE
  5
1c9
100
AcDbEntity
  8
Layer_1
 62
3
100
AcDbPolyline
 90
5
 70
1
 10
1013.092766
 20
146.281884
 30
0.0
 10
1013.092766
 20
169.954303
 30
0.0
 10
1036.765185
 20
169.954303
 30
0.0
 10
1036.765185
 20
146.281884
 30
0.0
 10
1013.092766
 20
146.281884
 30
0.0
  0
LWPOLYLINE
  5
1ca
100
AcDbEntity
  8
Layer_1
 62
3
100
AcDbPolyline
 90
5
 70
1
 10
1006.011992
 20
138.959822
 30
0.0
 10
1006.011992
 20
176.956283
 30
0.0
 10
1044.008453
 20
176.956283
 30
0.0
 10
1044.008453
 20
138.959822
 30
0.0
 10
1006.011992
 20
138.959822
 30
0.0
  0
LWPOLYLINE
  5
1cb
100
AcDbEntity
  8
Layer_1
 62
3
100
AcDbPolyline
 90
5
 70
1
 10
776.482455
 20
349.098972
 30
0.0
 10
776.482455
 20
403.232920
 30
0.0
 10
830.616404
 20
403.232920
 30
0.0
 10
830.616404
 20
349.098972
 30
0.0
 10
776.482455
 20
349.098972
 30
0.0
  0
LWPOLYLINE
  5
1cc
100
AcDbEntity
  8
Layer_1
 62
3
100
AcDbPolyline
 90
5
 70
1
 10
781.035784
 20
354.015636
 30
0.0
 10
781.035784
 20
399.053910
 30
0.0
 10
826.074057
 20
399.053910
 30
0.0
 10
826.074057
 20
354.015636
 30
0.0
 10
781.035784
 20
354.015636
 30
0.0
  0
LWPOLYLINE
  5
1cd
100
AcDbEntity
  8
Layer_1
 62
3
100
AcDbPolyline
 90
5
 70
1
 10
772.221170
 20
344.781653
 30
0.0
 10
772.221170
 20
407.717874
 30
0.0
 10
835.157391
 20
407.717874
 30
0.0
 10
835.157391
 20
344.781653
 30
0.0
 10
772.221170
 20
344.781653
 30
0.0
  0
LWPOLYLINE
  5
1ce
100
AcDbEntity
  8
Layer_1
 62
3
100
AcDbPolyline
 90
5
 70
1
 10
788.748264
 20
361.212712
 30
0.0
 10
788.748264
 20
392.134526
 30
0.0
 10
819.670079
 20
392.134526
 30
0.0
 10
819.670079
 20
361.212712
 30
0.0
 10
788.748264
 20
361.212712
 30
0.0
  0
LWPOLYLINE
  5
1cf
100
AcDbEntity
  8
Layer_1
 62
3
100
AcDbPolyline
 90
5
 70
1
 10
792.376158
 20
365.048013
 30
0.0
 10
792.376158
 20
388.720431
 30
0.0
 10
816.048576
 20
388.720431
 30
0.0
 10
816.048576
 20
365.048013
 30
0.0
 10
792.376158
 20
365.048013
 30
0.0
  0
LWPOLYLINE
  5
1d0
100
AcDbEntity
  8
Layer_1
 62
3
100
AcDbPolyline
 90
5
 70
1
 10
785.295383
 20
357.725950
 30
0.0
 10
785.295383
 20
395.722411
 30
0.0
 10
823.291844
 20
395.722411
 30
0.0
 10
823.291844
 20
357.725950
 30
0.0
 10
785.295383
 20
357.725950
 30
0.0
  0
LWPOLYLINE
  5
1d1
100
AcDbEntity
  8
Layer_1
 62
3
100
AcDbPolyline
 90
5
 70
1
 10
629.817566
 20
349.826333
 30
0.0
 10
629.817566
 20
403.960281
 30
0.0
 10
683.951515
 20
403.960281
 30
0.0
 10
683.951515
 20
349.826333
 30
0.0
 10
629.817566
 20
349.826333
 30
0.0
  0
LWPOLYLINE
  5
1d2
100
AcDbEntity
  8
Layer_1
 62
3
100
AcDbPolyline
 90
5
 70
1
 10
634.370895
 20
354.742998
 30
0.0
 10
634.370895
 20
399.781271
 30
0.0
 10
679.409168
 20
399.781271
 30
0.0
 10
679.409168
 20
354.742998
 30
0.0
 10
634.370895
 20
354.742998
 30
0.0
  0
LWPOLYLINE
  5
1d3
100
AcDbEntity
  8
Layer_1
 62
3
100
AcDbPolyline
 90
5
 70
1
 10
625.556281
 20
345.509014
 30
0.0
 10
625.556281
 20
408.445235
 30
0.0
 10
688.492502
 20
408.445235
 30
0.0
 10
688.492502
 20
345.509014
 30
0.0
 10
625.556281
 20
345.509014
 30
0.0
  0
LWPOLYLINE
  5
1d4
100
AcDbEntity
  8
Layer_1
 62
3
100
AcDbPolyline
 90
5
 70
1
 10
642.083375
 20
361.940073
 30
0.0
 10
642.083375
 20
392.861887
 30
0.0
 10
673.005190
 20
392.861887
 30
0.0
 10
673.005190
 20
361.940073
 30
0.0
 10
642.083375
 20
361.940073
 30
0.0
  0
LWPOLYLINE
  5
1d5
100
AcDbEntity
  8
Layer_1
 62
3
100
AcDbPolyline
 90
5
 70
1
 10
645.711269
 20
365.775374
 30
0.0
 10
645.711269
 20
389.447792
 30
0.0
 10
669.383687
 20
389.447792
 30
0.0
 10
669.383687
 20
365.775374
 30
0.0
 10
645.711269
 20
365.775374
 30
0.0
  0
LWPOLYLINE
  5
1d6
100
AcDbEntity
  8
Layer_1
 62
3
100
AcDbPolyline
 90
5
 70
1
 10
638.630494
 20
358.453311
 30
0.0
 10
638.630494
 20
396.449772
 30
0.0
 10
676.626955
 20
396.449772
 30
0.0
 10
676.626955
 20
358.453311
 30
0.0
 10
638.630494
 20
358.453311
 30
0.0
  0
LWPOLYLINE
  5
1d7
100
AcDbEntity
  8
Layer_1
 62
3
100
AcDbPolyline
 90
5
 70
1
 10
922.735724
 20
349.826333
 30
0.0
 10
922.735724
 20
403.960281
 30
0.0
 10
976.869673
 20
403.960281
 30
0.0
 10
976.869673
 20
349.826333
 30
0.0
 10
922.735724
 20
349.826333
 30
0.0
  0
LWPOLYLINE
  5
1d8
100
AcDbEntity
  8
Layer_1
 62
3
100
AcDbPolyline
 90
5
 70
1
 10
927.289053
 20
354.742998
 30
0.0
 10
927.289053
 20
399.781271
 30
0.0
 10
972.327326
 20
399.781271
 30
0.0
 10
972.327326
 20
354.742998
 30
0.0
 10
927.289053
 20
354.742998
 30
0.0
  0
LWPOLYLINE
  5
1d9
100
AcDbEntity
  8
Layer_1
 62
3
100
AcDbPolyline
 90
5
 70
1
 10
918.474439
 20
345.509014
 30
0.0
 10
918.474439
 20
408.445235
 30
0.0
 10
981.410660
 20
408.445235
 30
0.0
 10
981.410660
 20
345.509014
 30
0.0
 10
918.474439
 20
345.509014
 30
0.0
  0
LWPOLYLINE
  5
1da
100
AcDbEntity
  8
Layer_1
 62
3
100
AcDbPolyline
 90
5
 70
1
 10
935.001533
 20
361.940073
 30
0.0
 10
935.001533
 20
392.861887
 30
0.0
 10
965.923347
 20
392.861887
 30
0.0
 10
965.923347
 20
361.940073
 30
0.0
 10
935.001533
 20
361.940073
 30
0.0
  0
LWPOLYLINE
  5
1db
100
AcDbEntity
  8
Layer_1
 62
3
100
AcDbPolyline
 90
5
 70
1
 10
938.629427
 20
365.775374
 30
0.0
 10
938.629427
 20
389.447792
 30
0.0
 10
962.301845
 20
389.447792
 30
0.0
 10
962.301845
 20
365.775374
 30
0.0
 10
938.629427
 20
365.775374
 30
0.0
  0
LWPOLYLINE
  5
1dc
100
AcDbEntity
  8
Layer_1
 62
3
100
AcDbPolyline
 90
5
 70
1
 10
931.548652
 20
358.453311
 30
0.0
 10
931.548652
 20
396.449772
 30
0.0
 10
969.545113
 20
396.449772
 30
0.0
 10
969.545113
 20
358.453311
 30
0.0
 10
931.548652
 20
358.453311
 30
0.0
  0
LWPOLYLINE
  5
1dd
100
AcDbEntity
  8
Layer_1
 62
3
100
AcDbPolyline
 90
5
 70
1
 10
1072.153216
 20
349.826333
 30
0.0
 10
1072.153216
 20
403.960281
 30
0.0
 10
1126.287164
 20
403.960281
 30
0.0
 10
1126.287164
 20
349.826333
 30
0.0
 10
1072.153216
 20
349.826333
 30
0.0
  0
LWPOLYLINE
  5
1de
100
AcDbEntity
  8
Layer_1
 62
3
100
AcDbPolyline
 90
5
 70
1
 10
1076.706544
 20
354.742998
 30
0.0
 10
1076.706544
 20
399.781271
 30
0.0
 10
1121.744817
 20
399.781271
 30
0.0
 10
1121.744817
 20
354.742998
 30
0.0
 10
1076.706544
 20
354.742998
 30
0.0
  0
LWPOLYLINE
  5
1df
100
AcDbEntity
  8
Layer_1
 62
3
100
AcDbPolyline
 90
5
 70
1
 10
1067.891930
 20
345.509014
 30
0.0
 10
1067.891930
 20
408.445235
 30
0.0
 10
1130.828152
 20
408.445235
 30
0.0
 10
1130.828152
 20
345.509014
 30
0.0
 10
1067.891930
 20
345.509014
 30
0.0
  0
LWPOLYLINE
  5
1e0
100
AcDbEntity
  8
Layer_1
 62
3
100
AcDbPolyline
 90
5
 70
1
 10
1084.419024
 20
361.940073
 30
0.0
 10
1084.419024
 20
392.861887
 30
0.0
 10
1115.340839
 20
392.861887
 30
0.0
 10
1115.340839
 20
361.940073
 30
0.0
 10
1084.419024
 20
361.940073
 30
0.0
  0
LWPOLYLINE
  5
1e1
100
AcDbEntity
  8
Layer_1
 62
3
100
AcDbPolyline
 90
5
 70
1
 10
1088.046918
 20
365.775374
 30
0.0
 10
1088.046918
 20
389.447792
 30
0.0
 10
1111.719336
 20
389.447792
 30
0.0
 10
1111.719336
 20
365.775374
 30
0.0
 10
1088.046918
 20
365.775374
 30
0.0
  0
LWPOLYLINE
  5
1e2
100
AcDbEntity
  8
Layer_1
 62
3
100
AcDbPolyline
 90
5
 70
1
 10
1080.966143
 20
358.453311
 30
0.0
 10
1080.966143
 20
396.449772
 30
0.0
 10
1118.962604
 20
396.449772
 30
0.0
 10
1118.962604
 20
358.453311
 30
0.0
 10
1080.966143
 20
358.453311
 30
0.0
  0
LWPOLYLINE
  5
1e3
100
AcDbEntity
  8
Layer_1
 62
3
100
AcDbPolyline
 90
5
 70
1
 10
776.917821
 20
55.437386
 30
0.0
 10
776.917821
 20
109.571334
 30
0.0
 10
831.051769
 20
109.571334
 30
0.0
 10
831.051769
 20
55.437386
 30
0.0
 10
776.917821
 20
55.437386
 30
0.0
  0
LWPOLYLINE
  5
1e4
100
AcDbEntity
  8
Layer_1
 62
3
100
AcDbPolyline
 90
5
 70
1
 10
781.471149
 20
60.354050
 30
0.0
 10
781.471149
 20
105.392324
 30
0.0
 10
826.509423
 20
105.392324
 30
0.0
 10
826.509423
 20
60.354050
 30
0.0
 10
781.471149
 20
60.354050
 30
0.0
  0
LWPOLYLINE
  5
1e5
100
AcDbEntity
  8
Layer_1
 62
3
100
AcDbPolyline
 90
5
 70
1
 10
772.656536
 20
51.120067
 30
0.0
 10
772.656536
 20
114.056288
 30
0.0
 10
835.592757
 20
114.056288
 30
0.0
 10
835.592757
 20
51.120067
 30
0.0
 10
772.656536
 20
51.120067
 30
0.0
  0
LWPOLYLINE
  5
1e6
100
AcDbEntity
  8
Layer_1
 62
3
100
AcDbPolyline
 90
5
 70
1
 10
789.183630
 20
67.551125
 30
0.0
 10
789.183630
 20
98.472940
 30
0.0
 10
820.105444
 20
98.472940
 30
0.0
 10
820.105444
 20
67.551125
 30
0.0
 10
789.183630
 20
67.551125
 30
0.0
  0
LWPOLYLINE
  5
1e7
100
AcDbEntity
  8
Layer_1
 62
3
100
AcDbPolyline
 90
5
 70
1
 10
792.811523
 20
71.386427
 30
0.0
 10
792.811523
 20
95.058845
 30
0.0
 10
816.483942
 20
95.058845
 30
0.0
 10
816.483942
 20
71.386427
 30
0.0
 10
792.811523
 20
71.386427
 30
0.0
  0
LWPOLYLINE
  5
1e8
100
AcDbEntity
  8
Layer_1
 62
3
100
AcDbPolyline
 90
5
 70
1
 10
785.730749
 20
64.064364
 30
0.0
 10
785.730749
 20
102.060825
 30
0.0
 10
823.727209
 20
102.060825
 30
0.0
 10
823.727209
 20
64.064364
 30
0.0
 10
785.730749
 20
64.064364
 30
0.0
  0
LWPOLYLINE
  5
1e9
100
AcDbEntity
  8
Layer_1
 62
3
100
AcDbPolyline
 90
5
 70
1
 10
630.252932
 20
55.178623
 30
0.0
 10
630.252932
 20
109.312572
 30
0.0
 10
684.386881
 20
109.312572
 30
0.0
 10
684.386881
 20
55.178623
 30
0.0
 10
630.252932
 20
55.178623
 30
0.0
  0
LWPOLYLINE
  5
1ea
100
AcDbEntity
  8
Layer_1
 62
3
100
AcDbPolyline
 90
5
 70
1
 10
634.806261
 20
60.095288
 30
0.0
 10
634.806261
 20
105.133561
 30
0.0
 10
679.844534
 20
105.133561
 30
0.0
 10
679.844534
 20
60.095288
 30
0.0
 10
634.806261
 20
60.095288
 30
0.0
  0
LWPOLYLINE
  5
1eb
100
AcDbEntity
  8
Layer_1
 62
3
100
AcDbPolyline
 90
5
 70
1
 10
625.991647
 20
50.861304
 30
0.0
 10
625.991647
 20
113.797526
 30
0.0
 10
688.927868
 20
113.797526
 30
0.0
 10
688.927868
 20
50.861304
 30
0.0
 10
625.991647
 20
50.861304
 30
0.0
  0
LWPOLYLINE
  5
1ec
100
AcDbEntity
  8
Layer_1
 62
3
100
AcDbPolyline
 90
5
 70
1
 10
642.518741
 20
67.292363
 30
0.0
 10
642.518741
 20
98.214177
 30
0.0
 10
673.440555
 20
98.214177
 30
0.0
 10
673.440555
 20
67.292363
 30
0.0
 10
642.518741
 20
67.292363
 30
0.0
  0
LWPOLYLINE
  5
1ed
100
AcDbEntity
  8
Layer_1
 62
3
100
AcDbPolyline
 90
5
 70
1
 10
646.146634
 20
71.127664
 30
0.0
 10
646.146634
 20
94.800082
 30
0.0
 10
669.819053
 20
94.800082
 30
0.0
 10
669.819053
 20
71.127664
 30
0.0
 10
646.146634
 20
71.127664
 30
0.0
  0
LWPOLYLINE
  5
1ee
100
AcDbEntity
  8
Layer_1
 62
3
100
AcDbPolyline
 90
5
 70
1
 10
639.065860
 20
63.805601
 30
0.0
 10
639.065860
 20
101.802062
 30
0.0
 10
677.062320
 20
101.802062
 30
0.0
 10
677.062320
 20
63.805601
 30
0.0
 10
639.065860
 20
63.805601
 30
0.0
  0
LWPOLYLINE
  5
1ef
100
AcDbEntity
  8
Layer_1
 62
3
100
AcDbPolyline
 90
5
 70
1
 10
923.171090
 20
56.164747
 30
0.0
 10
923.171090
 20
110.298695
 30
0.0
 10
977.305038
 20
110.298695
 30
0.0
 10
977.305038
 20
56.164747
 30
0.0
 10
923.171090
 20
56.164747
 30
0.0
  0
LWPOLYLINE
  5
1f0
100
AcDbEntity
  8
Layer_1
 62
3
100
AcDbPolyline
 90
5
 70
1
 10
927.724418
 20
61.081411
 30
0.0
 10
927.724418
 20
106.119685
 30
0.0
 10
972.762692
 20
106.119685
 30
0.0
 10
972.762692
 20
61.081411
 30
0.0
 10
927.724418
 20
61.081411
 30
0.0
  0
LWPOLYLINE
  5
1f1
100
AcDbEntity
  8
Layer_1
 62
3
100
AcDbPolyline
 90
5
 70
1
 10
918.909805
 20
51.847428
 30
0.0
 10
918.909805
 20
114.783649
 30
0.0
 10
981.846026
 20
114.783649
 30
0.0
 10
981.846026
 20
51.847428
 30
0.0
 10
918.909805
 20
51.847428
 30
0.0
  0
LWPOLYLINE
  5
1f2
100
AcDbEntity
  8
Layer_1
 62
3
100
AcDbPolyline
 90
5
 70
1
 10
935.436899
 20
68.278487
 30
0.0
 10
935.436899
 20
99.200301
 30
0.0
 10
966.358713
 20
99.200301
 30
0.0
 10
966.358713
 20
68.278487
 30
0.0
 10
935.436899
 20
68.278487
 30
0.0
  0
LWPOLYLINE
  5
1f3
100
AcDbEntity
  8
Layer_1
 62
3
100
AcDbPolyline
 90
5
 70
1
 10
939.064792
 20
72.113788
 30
0.0
 10
939.064792
 20
95.786206
 30
0.0
 10
962.737211
 20
95.786206
 30
0.0
 10
962.737211
 20
72.113788
 30
0.0
 10
939.064792
 20
72.113788
 30
0.0
  0
LWPOLYLINE
  5
1f4
100
AcDbEntity
  8
Layer_1
 62
3
100
AcDbPolyline
 90
5
 70
1
 10
931.984018
 20
64.791725
 30
0.0
 10
931.984018
 20
102.788186
 30
0.0
 10
969.980478
 20
102.788186
 30
0.0
 10
969.980478
 20
64.791725
 30
0.0
 10
931.984018
 20
64.791725
 30
0.0
  0
LWPOLYLINE
  5
1f5
100
AcDbEntity
  8
Layer_1
 62
3
100
AcDbPolyline
 90
5
 70
1
 10
1071.109372
 20
55.178623
 30
0.0
 10
1071.109372
 20
109.312572
 30
0.0
 10
1125.243321
 20
109.312572
 30
0.0
 10
1125.243321
 20
55.178623
 30
0.0
 10
1071.109372
 20
55.178623
 30
0.0
  0
LWPOLYLINE
  5
1f6
100
AcDbEntity
  8
Layer_1
 62
3
100
AcDbPolyline
 90
5
 70
1
 10
1075.662701
 20
60.095288
 30
0.0
 10
1075.662701
 20
105.133561
 30
0.0
 10
1120.700974
 20
105.133561
 30
0.0
 10
1120.700974
 20
60.095288
 30
0.0
 10
1075.662701
 20
60.095288
 30
0.0
  0
LWPOLYLINE
  5
1f7
100
AcDbEntity
  8
Layer_1
 62
3
100
AcDbPolyline
 90
5
 70
1
 10
1066.848087
 20
50.861304
 30
0.0
 10
1066.848087
 20
113.797526
 30
0.0
 10
1129.784308
 20
113.797526
 30
0.0
 10
1129.784308
 20
50.861304
 30
0.0
 10
1066.848087
 20
50.861304
 30
0.0
  0
LWPOLYLINE
  5
1f8
100
AcDbEntity
  8
Layer_1
 62
3
100
AcDbPolyline
 90
5
 70
1
 10
1083.375181
 20
67.292363
 30
0.0
 10
1083.375181
 20
98.214177
 30
0.0
 10
1114.296995
 20
98.214177
 30
0.0
 10
1114.296995
 20
67.292363
 30
0.0
 10
1083.375181
 20
67.292363
 30
0.0
  0
LWPOLYLINE
  5
1f9
100
AcDbEntity
  8
Layer_1
 62
3
100
AcDbPolyline
 90
5
 70
1
 10
1087.003074
 20
71.127664
 30
0.0
 10
1087.003074
 20
94.800082
 30
0.0
 10
1110.675493
 20
94.800082
 30
0.0
 10
1110.675493
 20
71.127664
 30
0.0
 10
1087.003074
 20
71.127664
 30
0.0
  0
LWPOLYLINE
  5
1fa
100
AcDbEntity
  8
Layer_1
 62
3
100
AcDbPolyline
 90
5
 70
1
 10
1079.922300
 20
63.805601
 30
0.0
 10
1079.922300
 20
101.802062
 30
0.0
 10
1117.918761
 20
101.802062
 30
0.0
 10
1117.918761
 20
63.805601
 30
0.0
 10
1079.922300
 20
63.805601
 30
0.0
  0
LWPOLYLINE
  5
1fb
100
AcDbEntity
  8
Layer_1
 62
7
100
AcDbPolyline
 90
5
 70
1
 10
529.202248
 20
29.382592
 30
0.0
 10
529.202248
 20
650.682688
 30
0.0
 10
1150.502344
 20
650.682688
 30
0.0
 10
1150.502344
 20
29.382592
 30
0.0
 10
529.202248
 20
29.382592
 30
0.0
  0
LWPOLYLINE
  5
1fc
100
AcDbEntity
  8
Layer_1
 62
3
100
AcDbPolyline
 90
27
 70
0
 10
306.519815
 20
642.535442
 30
0.0
 10
308.070422
 20
643.310746
 30
0.0
 10
309.621034
 20
644.861353
 30
0.0
 10
311.946945
 20
647.962572
 30
0.0
 10
313.497552
 20
650.288488
 30
0.0
 10
315.048164
 20
653.389706
 30
0.0
 10
315.823468
 20
655.715619
 30
0.0
 10
315.823468
 20
658.041533
 30
0.0
 10
315.048164
 20
658.816838
 30
0.0
 10
314.272861
 20
658.816838
 30
0.0
 10
313.497552
 20
658.041533
 30
0.0
 10
312.722249
 20
656.490924
 30
0.0
 10
312.722249
 20
654.940315
 30
0.0
 10
313.497552
 20
653.389706
 30
0.0
 10
315.048164
 20
651.839097
 30
0.0
 10
317.374075
 20
650.288488
 30
0.0
 10
318.924683
 20
648.737880
 30
0.0
 10
319.699991
 20
647.187268
 30
0.0
 10
319.699991
 20
645.636661
 30
0.0
 10
318.924683
 20
644.086049
 30
0.0
 10
318.149379
 20
643.310746
 30
0.0
 10
315.823468
 20
642.535442
 30
0.0
 10
312.722249
 20
642.535442
 30
0.0
 10
310.396338
 20
643.310746
 30
0.0
 10
308.845726
 20
644.861353
 30
0.0
 10
308.070422
 20
646.411965
 30
0.0
 10
308.070422
 20
647.962572
 30
0.0
  0
LWPOLYLINE
  5
1fd
100
AcDbEntity
  8
Layer_1
 62
3
100
AcDbPolyline
 90
5
 70
0
 10
324.351817
 20
653.389706
 30
0.0
 10
324.351817
 20
652.614402
 30
0.0
 10
325.127121
 20
652.614402
 30
0.0
 10
325.127121
 20
653.389706
 30
0.0
 10
324.351817
 20
653.389706
 30
0.0
  0
LWPOLYLINE
  5
1fe
100
AcDbEntity
  8
Layer_1
 62
3
100
AcDbPolyline
 90
50
 70
0
 10
322.025902
 20
646.411965
 30
0.0
 10
323.576514
 20
649.513184
 30
0.0
 10
322.025902
 20
644.861353
 30
0.0
 10
322.025902
 20
643.310746
 30
0.0
 10
322.801205
 20
642.535442
 30
0.0
 10
323.576514
 20
642.535442
 30
0.0
 10
325.127121
 20
643.310746
 30
0.0
 10
325.902425
 20
644.086049
 30
0.0
 10
327.453032
 20
646.411965
 30
0.0
 10
329.003644
 20
648.737880
 30
0.0
 10
331.329555
 20
652.614402
 30
0.0
 10
332.104863
 20
654.165011
 30
0.0
 10
332.880167
 20
656.490924
 30
0.0
 10
332.880167
 20
658.041533
 30
0.0
 10
332.104863
 20
658.816838
 30
0.0
 10
330.554251
 20
658.041533
 30
0.0
 10
329.778947
 20
656.490924
 30
0.0
 10
329.003644
 20
653.389706
 30
0.0
 10
328.228340
 20
647.962572
 30
0.0
 10
328.228340
 20
643.310746
 30
0.0
 10
329.003644
 20
642.535442
 30
0.0
 10
329.778947
 20
642.535442
 30
0.0
 10
331.329555
 20
643.310746
 30
0.0
 10
332.104863
 20
644.086049
 30
0.0
 10
333.655470
 20
646.411965
 30
0.0
 10
335.206078
 20
648.737880
 30
0.0
 10
337.531993
 20
652.614402
 30
0.0
 10
338.307297
 20
654.165011
 30
0.0
 10
339.082600
 20
656.490924
 30
0.0
 10
339.082600
 20
658.041533
 30
0.0
 10
338.307297
 20
658.816838
 30
0.0
 10
336.756689
 20
658.041533
 30
0.0
 10
335.981386
 20
656.490924
 30
0.0
 10
335.206078
 20
653.389706
 30
0.0
 10
334.430774
 20
648.737880
 30
0.0
 10
333.655470
 20
642.535442
 30
0.0
 10
334.430774
 20
644.861353
 30
0.0
 10
335.206078
 20
646.411965
 30
0.0
 10
336.756689
 20
648.737880
 30
0.0
 10
338.307297
 20
649.513184
 30
0.0
 10
339.857909
 20
649.513184
 30
0.0
 10
340.633212
 20
648.737880
 30
0.0
 10
340.633212
 20
647.187268
 30
0.0
 10
339.857909
 20
644.861353
 30
0.0
 10
339.857909
 20
643.310746
 30
0.0
 10
340.633212
 20
642.535442
 30
0.0
 10
341.408516
 20
642.535442
 30
0.0
 10
342.959123
 20
643.310746
 30
0.0
 10
343.734431
 20
644.086049
 30
0.0
 10
345.285039
 20
646.411965
 30
0.0
  0
LWPOLYLINE
  5
1ff
100
AcDbEntity
  8
Layer_1
 62
3
100
AcDbPolyline
 90
30
 70
0
 10
349.936865
 20
649.513184
 30
0.0
 10
348.386258
 20
649.513184
 30
0.0
 10
346.835646
 20
648.737880
 30
0.0
 10
346.060342
 20
647.962572
 30
0.0
 10
345.285039
 20
646.411965
 30
0.0
 10
345.285039
 20
644.861353
 30
0.0
 10
346.060342
 20
643.310746
 30
0.0
 10
347.610950
 20
642.535442
 30
0.0
 10
349.161562
 20
642.535442
 30
0.0
 10
350.712169
 20
643.310746
 30
0.0
 10
351.487473
 20
644.086049
 30
0.0
 10
352.262781
 20
645.636661
 30
0.0
 10
352.262781
 20
647.187268
 30
0.0
 10
351.487473
 20
648.737880
 30
0.0
 10
349.936865
 20
649.513184
 30
0.0
 10
349.161562
 20
648.737880
 30
0.0
 10
349.161562
 20
647.187268
 30
0.0
 10
349.936865
 20
645.636661
 30
0.0
 10
351.487473
 20
644.861353
 30
0.0
 10
353.813388
 20
644.861353
 30
0.0
 10
355.363995
 20
645.636661
 30
0.0
 10
356.139304
 20
646.411965
 30
0.0
 10
357.689911
 20
649.513184
 30
0.0
 10
356.139304
 20
644.861353
 30
0.0
 10
356.139304
 20
643.310746
 30
0.0
 10
356.914607
 20
642.535442
 30
0.0
 10
358.465215
 20
642.535442
 30
0.0
 10
360.015826
 20
643.310746
 30
0.0
 10
361.566434
 20
644.861353
 30
0.0
 10
363.117041
 20
647.187268
 30
0.0
  0
LWPOLYLINE
  5
200
100
AcDbEntity
  8
Layer_1
 62
3
100
AcDbPolyline
 90
8
 70
0
 10
363.892347
 20
649.513184
 30
0.0
 10
362.341737
 20
644.861353
 30
0.0
 10
362.341737
 20
643.310746
 30
0.0
 10
363.117041
 20
642.535442
 30
0.0
 10
363.892347
 20
642.535442
 30
0.0
 10
365.442956
 20
643.310746
 30
0.0
 10
366.218261
 20
644.086049
 30
0.0
 10
367.768870
 20
646.411965
 30
0.0
  0
LWPOLYLINE
  5
201
100
AcDbEntity
  8
Layer_1
 62
3
100
AcDbPolyline
 90
18
 70
0
 10
368.544174
 20
644.086049
 30
0.0
 10
370.094783
 20
644.861353
 30
0.0
 10
370.870088
 20
645.636661
 30
0.0
 10
371.645393
 20
647.187268
 30
0.0
 10
371.645393
 20
648.737880
 30
0.0
 10
370.870088
 20
649.513184
 30
0.0
 10
370.094783
 20
649.513184
 30
0.0
 10
368.544174
 20
648.737880
 30
0.0
 10
367.768870
 20
647.187268
 30
0.0
 10
367.768870
 20
644.861353
 30
0.0
 10
368.544174
 20
643.310746
 30
0.0
 10
370.094783
 20
642.535442
 30
0.0
 10
371.645393
 20
642.535442
 30
0.0
 10
373.196002
 20
643.310746
 30
0.0
 10
373.971306
 20
644.086049
 30
0.0
 10
375.521915
 20
646.411965
 30
0.0
 10
377.072524
 20
648.737880
 30
0.0
 10
378.623133
 20
651.839097
 30
0.0
  0
LWPOLYLINE
  5
202
100
AcDbEntity
  8
Layer_1
 62
3
100
AcDbPolyline
 90
8
 70
0
 10
380.949047
 20
658.816838
 30
0.0
 10
376.297220
 20
644.861353
 30
0.0
 10
376.297220
 20
643.310746
 30
0.0
 10
377.072524
 20
642.535442
 30
0.0
 10
378.623133
 20
642.535442
 30
0.0
 10
380.173742
 20
643.310746
 30
0.0
 10
380.949047
 20
644.086049
 30
0.0
 10
382.499656
 20
646.411965
 30
0.0
  0
LWPOLYLINE
  5
203
100
AcDbEntity
  8
Layer_1
 62
3
100
AcDbPolyline
 90
2
 70
0
 10
376.297220
 20
652.614402
 30
0.0
 10
381.724351
 20
652.614402
 30
0.0
  0
LWPOLYLINE
  5
204
100
AcDbEntity
  8
Layer_1
 62
3
100
AcDbPolyline
 90
3
 70
0
 10
382.499656
 20
646.411965
 30
0.0
 10
384.050265
 20
648.737880
 30
0.0
 10
385.600874
 20
651.839097
 30
0.0
  0
LWPOLYLINE
  5
205
100
AcDbEntity
  8
Layer_1
 62
3
100
AcDbPolyline
 90
8
 70
0
 10
387.926788
 20
658.816838
 30
0.0
 10
383.274960
 20
644.861353
 30
0.0
 10
383.274960
 20
643.310746
 30
0.0
 10
384.050265
 20
642.535442
 30
0.0
 10
385.600874
 20
642.535442
 30
0.0
 10
387.151483
 20
643.310746
 30
0.0
 10
387.926788
 20
644.086049
 30
0.0
 10
389.477397
 20
646.411965
 30
0.0
  0
LWPOLYLINE
  5
206
100
AcDbEntity
  8
Layer_1
 62
3
100
AcDbPolyline
 90
2
 70
0
 10
383.274960
 20
652.614402
 30
0.0
 10
388.702092
 20
652.614402
 30
0.0
  0
LWPOLYLINE
  5
207
100
AcDbEntity
  8
Layer_1
 62
3
100
AcDbPolyline
 90
16
 70
0
 10
390.252701
 20
644.086049
 30
0.0
 10
391.803310
 20
644.861353
 30
0.0
 10
392.578615
 20
645.636661
 30
0.0
 10
393.353919
 20
647.187268
 30
0.0
 10
393.353919
 20
648.737880
 30
0.0
 10
392.578615
 20
649.513184
 30
0.0
 10
391.803310
 20
649.513184
 30
0.0
 10
390.252701
 20
648.737880
 30
0.0
 10
389.477397
 20
647.187268
 30
0.0
 10
389.477397
 20
644.861353
 30
0.0
 10
390.252701
 20
643.310746
 30
0.0
 10
391.803310
 20
642.535442
 30
0.0
 10
393.353919
 20
642.535442
 30
0.0
 10
394.904528
 20
643.310746
 30
0.0
 10
395.679833
 20
644.086049
 30
0.0
 10
397.230442
 20
646.411965
 30
0.0
  0
LWPOLYLINE
  5
208
100
AcDbEntity
  8
Layer_1
 62
3
100
AcDbPolyline
 90
23
 70
0
 10
308.682056
 20
630.538528
 30
0.0
 10
308.682056
 20
629.763225
 30
0.0
 10
309.457360
 20
628.987921
 30
0.0
 10
311.007967
 20
628.987921
 30
0.0
 10
312.558579
 20
629.763225
 30
0.0
 10
313.333883
 20
631.313837
 30
0.0
 10
313.333883
 20
632.864444
 30
0.0
 10
312.558579
 20
634.415051
 30
0.0
 10
311.007967
 20
635.190359
 30
0.0
 10
308.682056
 20
635.190359
 30
0.0
 10
306.356141
 20
634.415051
 30
0.0
 10
304.805534
 20
632.864444
 30
0.0
 10
303.254926
 20
630.538528
 30
0.0
 10
302.479618
 20
628.987921
 30
0.0
 10
301.704314
 20
625.886702
 30
0.0
 10
301.704314
 20
622.785487
 30
0.0
 10
302.479618
 20
620.459572
 30
0.0
 10
303.254926
 20
619.684268
 30
0.0
 10
304.805534
 20
618.908964
 30
0.0
 10
306.356141
 20
618.908964
 30
0.0
 10
308.682056
 20
619.684268
 30
0.0
 10
310.232664
 20
621.234875
 30
0.0
 10
311.007967
 20
622.785487
 30
0.0
  0
LWPOLYLINE
  5
209
100
AcDbEntity
  8
Layer_1
 62
3
100
AcDbPolyline
 90
26
 70
0
 10
314.884490
 20
622.785487
 30
0.0
 10
316.435102
 20
625.111398
 30
0.0
 10
318.761013
 20
628.987921
 30
0.0
 10
319.536317
 20
630.538528
 30
0.0
 10
320.311620
 20
632.864444
 30
0.0
 10
320.311620
 20
634.415051
 30
0.0
 10
319.536317
 20
635.190359
 30
0.0
 10
317.985709
 20
634.415051
 30
0.0
 10
317.210406
 20
632.864444
 30
0.0
 10
316.435102
 20
629.763225
 30
0.0
 10
315.659798
 20
625.111398
 30
0.0
 10
314.884490
 20
618.908964
 30
0.0
 10
315.659798
 20
621.234875
 30
0.0
 10
316.435102
 20
622.785487
 30
0.0
 10
317.985709
 20
625.111398
 30
0.0
 10
319.536317
 20
625.886702
 30
0.0
 10
321.086929
 20
625.886702
 30
0.0
 10
321.862232
 20
625.111398
 30
0.0
 10
321.862232
 20
623.560791
 30
0.0
 10
321.086929
 20
621.234875
 30
0.0
 10
321.086929
 20
619.684268
 30
0.0
 10
321.862232
 20
618.908964
 30
0.0
 10
322.637536
 20
618.908964
 30
0.0
 10
324.188143
 20
619.684268
 30
0.0
 10
324.963447
 20
620.459572
 30
0.0
 10
326.514059
 20
622.785487
 30
0.0
  0
LWPOLYLINE
  5
20a
100
AcDbEntity
  8
Layer_1
 62
3
100
AcDbPolyline
 90
23
 70
0
 10
327.289362
 20
620.459572
 30
0.0
 10
328.839970
 20
621.234875
 30
0.0
 10
329.615278
 20
622.010179
 30
0.0
 10
330.390581
 20
623.560791
 30
0.0
 10
330.390581
 20
625.111398
 30
0.0
 10
329.615278
 20
625.886702
 30
0.0
 10
328.839970
 20
625.886702
 30
0.0
 10
327.289362
 20
625.111398
 30
0.0
 10
326.514059
 20
623.560791
 30
0.0
 10
326.514059
 20
621.234875
 30
0.0
 10
327.289362
 20
619.684268
 30
0.0
 10
328.839970
 20
618.908964
 30
0.0
 10
330.390581
 20
618.908964
 30
0.0
 10
331.941189
 20
619.684268
 30
0.0
 10
332.716492
 20
620.459572
 30
0.0
 10
334.267104
 20
622.785487
 30
0.0
 10
335.817712
 20
625.111398
 30
0.0
 10
336.593015
 20
626.662010
 30
0.0
 10
336.593015
 20
625.111398
 30
0.0
 10
338.143627
 20
622.785487
 30
0.0
 10
338.918931
 20
621.234875
 30
0.0
 10
338.918931
 20
619.684268
 30
0.0
 10
337.368323
 20
618.908964
 30
0.0
  0
LWPOLYLINE
  5
20b
100
AcDbEntity
  8
Layer_1
 62
3
100
AcDbPolyline
 90
13
 70
0
 10
334.267104
 20
619.684268
 30
0.0
 10
335.817712
 20
618.908964
 30
0.0
 10
338.918931
 20
618.908964
 30
0.0
 10
340.469538
 20
619.684268
 30
0.0
 10
341.244846
 20
620.459572
 30
0.0
 10
342.795454
 20
622.785487
 30
0.0
 10
344.346061
 20
625.111398
 30
0.0
 10
345.121369
 20
626.662010
 30
0.0
 10
345.121369
 20
625.111398
 30
0.0
 10
346.671976
 20
622.785487
 30
0.0
 10
347.447280
 20
621.234875
 30
0.0
 10
347.447280
 20
619.684268
 30
0.0
 10
345.896673
 20
618.908964
 30
0.0
  0
LWPOLYLINE
  5
20c
100
AcDbEntity
  8
Layer_1
 62
3
100
AcDbPolyline
 90
6
 70
0
 10
342.795454
 20
619.684268
 30
0.0
 10
344.346061
 20
618.908964
 30
0.0
 10
347.447280
 20
618.908964
 30
0.0
 10
348.997887
 20
619.684268
 30
0.0
 10
349.773196
 20
620.459572
 30
0.0
 10
351.323803
 20
622.785487
 30
0.0
  0
LWPOLYLINE
  5
20d
100
AcDbEntity
  8
Layer_1
 62
3
100
AcDbPolyline
 90
27
 70
0
 10
363.728676
 20
618.908964
 30
0.0
 10
365.279285
 20
619.684268
 30
0.0
 10
366.829894
 20
621.234875
 30
0.0
 10
369.155807
 20
624.336095
 30
0.0
 10
370.706417
 20
626.662010
 30
0.0
 10
372.257026
 20
629.763225
 30
0.0
 10
373.032330
 20
632.089140
 30
0.0
 10
373.032330
 20
634.415051
 30
0.0
 10
372.257026
 20
635.190359
 30
0.0
 10
371.481721
 20
635.190359
 30
0.0
 10
370.706417
 20
634.415051
 30
0.0
 10
369.931112
 20
632.864444
 30
0.0
 10
369.931112
 20
631.313837
 30
0.0
 10
370.706417
 20
629.763225
 30
0.0
 10
372.257026
 20
628.212617
 30
0.0
 10
374.582939
 20
626.662010
 30
0.0
 10
376.133548
 20
625.111398
 30
0.0
 10
376.908853
 20
623.560791
 30
0.0
 10
376.908853
 20
622.010179
 30
0.0
 10
376.133548
 20
620.459572
 30
0.0
 10
375.358244
 20
619.684268
 30
0.0
 10
373.032330
 20
618.908964
 30
0.0
 10
369.931112
 20
618.908964
 30
0.0
 10
367.605198
 20
619.684268
 30
0.0
 10
366.054589
 20
621.234875
 30
0.0
 10
365.279285
 20
622.785487
 30
0.0
 10
365.279285
 20
624.336095
 30
0.0
  0
LWPOLYLINE
  5
20e
100
AcDbEntity
  8
Layer_1
 62
3
100
AcDbPolyline
 90
18
 70
0
 10
380.010071
 20
620.459572
 30
0.0
 10
381.560680
 20
621.234875
 30
0.0
 10
382.335984
 20
622.010179
 30
0.0
 10
383.111289
 20
623.560791
 30
0.0
 10
383.111289
 20
625.111398
 30
0.0
 10
382.335984
 20
625.886702
 30
0.0
 10
381.560680
 20
625.886702
 30
0.0
 10
380.010071
 20
625.111398
 30
0.0
 10
379.234766
 20
623.560791
 30
0.0
 10
379.234766
 20
621.234875
 30
0.0
 10
380.010071
 20
619.684268
 30
0.0
 10
381.560680
 20
618.908964
 30
0.0
 10
383.111289
 20
618.908964
 30
0.0
 10
384.661895
 20
619.684268
 30
0.0
 10
385.437199
 20
620.459572
 30
0.0
 10
386.987808
 20
622.785487
 30
0.0
 10
388.538417
 20
625.111398
 30
0.0
 10
390.089027
 20
628.212617
 30
0.0
  0
LWPOLYLINE
  5
20f
100
AcDbEntity
  8
Layer_1
 62
3
100
AcDbPolyline
 90
8
 70
0
 10
392.414940
 20
635.190359
 30
0.0
 10
387.763113
 20
621.234875
 30
0.0
 10
387.763113
 20
619.684268
 30
0.0
 10
388.538417
 20
618.908964
 30
0.0
 10
390.089027
 20
618.908964
 30
0.0
 10
391.639636
 20
619.684268
 30
0.0
 10
392.414940
 20
620.459572
 30
0.0
 10
393.965549
 20
622.785487
 30
0.0
  0
LWPOLYLINE
  5
210
100
AcDbEntity
  8
Layer_1
 62
3
100
AcDbPolyline
 90
2
 70
0
 10
387.763113
 20
628.987921
 30
0.0
 10
393.190245
 20
628.987921
 30
0.0
  0
SPLINE
  5
211
100
AcDbEntity
  8
Layer_1
 62
5
100
AcDbSpline
 70
0
 71
3
 72
10
 73
6
 74
4
 40
0.000000
 40
0.000000
 40
0.000000
 40
0.000000
 40
10.092237
 40
19.362450
 40
28.197482
 40
28.197482
 40
28.197482
 40
28.197482
 10
156.555272
 20
347.751760
 30
0.0
 10
153.209187
 20
347.534281
 30
0.0
 10
146.789561
 20
347.117035
 30
0.0
 10
137.352702
 20
345.343043
 30
0.0
 10
132.392939
 20
341.784552
 30
0.0
 10
129.972664
 20
340.048072
 30
0.0
 11
156.555272
 21
347.751760
 31
0.0
 11
146.500607
 21
346.881733
 31
0.0
 11
137.495313
 21
344.681380
 31
0.0
 11
129.972664
 21
340.048072
 31
0.0
  0
LWPOLYLINE
  5
212
100
AcDbEntity
  8
Layer_1
 62
7
100
AcDbPolyline
 90
4
 70
1
 10
316.449160
 20
315.087656
 30
0.0
 10
333.609832
 20
315.087656
 30
0.0
 10
333.609832
 20
306.162136
 30
0.0
 10
317.879216
 20
306.162136
 30
0.0
  0
SPLINE
  5
213
100
AcDbEntity
  8
Layer_1
 62
7
100
AcDbSpline
 70
0
 71
3
 72
10
 73
6
 74
4
 40
0.000000
 40
0.000000
 40
0.000000
 40
0.000000
 40
14.086462
 40
30.841980
 40
49.805571
 40
49.805571
 40
49.805571
 40
49.805571
 10
317.879216
 20
306.162136
 30
0.0
 10
321.726008
 20
303.425337
 30
0.0
 10
330.148469
 20
297.433178
 30
0.0
 10
346.425120
 20
292.792638
 30
0.0
 10
358.314878
 20
292.120035
 30
0.0
 10
364.627256
 20
291.762944
 30
0.0
 11
317.879216
 21
306.162136
 31
0.0
 11
329.765208
 21
298.602267
 31
0.0
 11
345.751179
 21
293.582696
 31
0.0
 11
364.627256
 21
291.762944
 31
0.0
  0
LWPOLYLINE
  5
214
100
AcDbEntity
  8
Layer_1
 62
7
100
AcDbPolyline
 90
4
 70
1
 10
364.627256
 20
291.762944
 30
0.0
 10
444.414528
 20
291.960192
 30
0.0
 10
444.414528
 20
350.148696
 30
0.0
 10
364.627256
 20
350.148696
 30
0.0
  0
SPLINE
  5
215
100
AcDbEntity
  8
Layer_1
 62
7
100
AcDbSpline
 70
0
 71
3
 72
13
 73
9
 74
7
 40
0.000000
 40
0.000000
 40
0.000000
 40
0.000000
 40
0.033004
 40
0.065631
 40
0.098624
 40
19.148432
 40
35.963249
 40
50.075592
 40
50.075592
 40
50.075592
 40
50.075592
 10
364.627256
 20
350.148696
 30
0.0
 10
364.616255
 20
350.148698
 30
0.0
 10
364.594378
 20
350.148702
 30
0.0
 10
364.561503
 20
350.148715
 30
0.0
 10
358.189682
 20
350.145326
 30
0.0
 10
346.255081
 20
348.940501
 30
0.0
 10
329.925432
 20
344.411728
 30
0.0
 10
321.518244
 20
338.328217
 30
0.0
 10
317.681968
 20
335.552256
 30
0.0
 11
364.627256
 21
350.148696
 31
0.0
 11
364.594252
 21
350.148703
 31
0.0
 11
364.561625
 21
350.148710
 31
0.0
 11
364.528632
 21
350.148696
 31
0.0
 11
345.569896
 21
348.288185
 31
0.0
 11
329.544363
 21
343.196981
 31
0.0
 11
317.681968
 21
335.552256
 31
0.0
  0
LWPOLYLINE
  5
216
100
AcDbEntity
  8
Layer_1
 62
7
100
AcDbPolyline
 90
6
 70
1
 10
317.681968
 20
335.552256
 30
0.0
 10
333.609832
 20
335.552256
 30
0.0
 10
333.609832
 20
326.429488
 30
0.0
 10
316.449160
 20
326.429488
 30
0.0
 10
316.449160
 20
315.087656
 30
0.0
 10
316.449160
 20
315.087656
 30
0.0
  0
SPLINE
  5
217
100
AcDbEntity
  8
Layer_1
 62
7
100
AcDbSpline
 70
0
 71
3
 72
10
 73
6
 74
4
 40
0.000000
 40
0.000000
 40
0.000000
 40
0.000000
 40
17.108831
 40
35.424621
 40
52.414721
 40
52.414721
 40
52.414721
 40
52.414721
 10
328.101512
 20
255.183280
 30
0.0
 10
329.756615
 20
249.532213
 30
0.0
 10
333.183581
 20
237.831417
 30
0.0
 10
349.613751
 20
228.351717
 30
0.0
 10
361.257628
 20
226.890724
 30
0.0
 10
366.860960
 20
226.187656
 30
0.0
 11
328.101512
 21
255.183280
 31
0.0
 11
334.857611
 21
239.464908
 31
0.0
 11
350.184520
 21
229.437245
 31
0.0
 11
366.860960
 21
226.187656
 31
0.0
  0
LWPOLYLINE
  5
218
100
AcDbEntity
  8
Layer_1
 62
7
100
AcDbPolyline
 90
4
 70
1
 10
366.860960
 20
226.187656
 30
0.0
 10
444.133312
 20
226.187656
 30
0.0
 10
444.133312
 20
284.425464
 30
0.0
 10
364.247408
 20
284.425464
 30
0.0
  0
LWPOLYLINE
  5
219
100
AcDbEntity
  8
Layer_1
 62
7
100
AcDbPolyline
 90
2
 70
1
 10
328.101512
 20
255.183280
 30
0.0
 10
328.101512
 20
255.183280
 30
0.0
  0
LWPOLYLINE
  5
21a
100
AcDbEntity
  8
Layer_1
 62
7
100
AcDbPolyline
 90
10
 70
1
 10
362.194544
 20
34.643552
 30
0.0
 10
442.031144
 20
34.643552
 30
0.0
 10
442.031144
 20
92.881384
 30
0.0
 10
362.194544
 20
92.881384
 30
0.0
 10
362.194544
 20
75.178272
 30
0.0
 10
379.355216
 20
75.178272
 30
0.0
 10
379.355216
 20
52.691848
 30
0.0
 10
362.194544
 20
52.691848
 30
0.0
 10
362.194544
 20
34.643552
 30
0.0
 10
362.194544
 20
34.643552
 30
0.0
  0
LWPOLYLINE
  5
21b
100
AcDbEntity
  8
Layer_1
 62
7
100
AcDbPolyline
 90
5
 70
1
 10
457.420664
 20
493.671576
 30
0.0
 10
457.420664
 20
535.179232
 30
0.0
 10
516.138816
 20
535.179232
 30
0.0
 10
516.138816
 20
493.671576
 30
0.0
 10
457.420664
 20
493.671576
 30
0.0
  0
LWPOLYLINE
  5
21c
100
AcDbEntity
  8
Layer_1
 62
7
100
AcDbPolyline
 90
7
 70
1
 10
444.137496
 20
421.154984
 30
0.0
 10
443.948088
 20
472.826736
 30
0.0
 10
391.749168
 20
447.972256
 30
0.0
 10
392.321792
 20
478.209952
 30
0.0
 10
380.778520
 20
478.316464
 30
0.0
 10
364.565512
 20
420.862440
 30
0.0
 10
444.137496
 20
421.154984
 30
0.0
  0
LWPOLYLINE
  5
21d
100
AcDbEntity
  8
Layer_1
 62
7
100
AcDbPolyline
 90
9
 70
1
 10
363.802252
 20
219.517080
 30
0.0
 10
443.688148
 20
219.517080
 30
0.0
 10
443.688148
 20
161.279264
 30
0.0
 10
376.031700
 20
161.279264
 30
0.0
 10
399.800220
 20
184.505352
 30
0.0
 10
387.274900
 20
197.326544
 30
0.0
 10
363.802252
 20
174.396328
 30
0.0
 10
363.802252
 20
219.517080
 30
0.0
 10
363.802252
 20
219.517080
 30
0.0
  0
SPLINE
  5
21e
100
AcDbEntity
  8
Layer_1
 62
7
100
AcDbSpline
 70
0
 71
3
 72
10
 73
6
 74
4
 40
0.000000
 40
0.000000
 40
0.000000
 40
0.000000
 40
17.165087
 40
34.533128
 40
50.760554
 40
50.760554
 40
50.760554
 40
50.760554
 10
364.247408
 20
284.425464
 30
0.0
 10
358.511365
 20
283.839199
 30
0.0
 10
346.971459
 20
282.659737
 30
0.0
 10
332.184999
 20
271.679941
 30
0.0
 10
329.431513
 20
260.556279
 30
0.0
 10
328.101512
 20
255.183280
 30
0.0
 11
364.247408
 21
284.425464
 31
0.0
 11
347.405059
 21
281.112536
 31
0.0
 11
333.732357
 21
270.402443
 31
0.0
 11
328.101512
 21
255.183280
 31
0.0
  0
LWPOLYLINE
  5
21f
100
AcDbEntity
  8
Layer_1
 62
3
100
AcDbPolyline
 90
8
 70
1
 10
368.710428
 20
213.489840
 30
0.0
 10
438.620436
 20
213.489840
 30
0.0
 10
438.620436
 20
166.432864
 30
0.0
 10
389.578628
 20
166.432864
 30
0.0
 10
408.233668
 20
183.941736
 30
0.0
 10
386.735620
 20
205.624616
 30
0.0
 10
368.710428
 20
187.351688
 30
0.0
 10
368.710428
 20
213.489840
 30
0.0
  0
SPLINE
  5
220
100
AcDbEntity
  8
Layer_1
 62
3
100
AcDbSpline
 70
0
 71
3
 72
10
 73
6
 74
4
 40
0.000000
 40
0.000000
 40
0.000000
 40
0.000000
 40
14.735947
 40
31.252034
 40
46.894004
 40
46.894004
 40
46.894004
 40
46.894004
 10
333.183536
 20
255.054184
 30
0.0
 10
334.764874
 20
250.227287
 30
0.0
 10
338.118579
 20
239.990392
 30
0.0
 10
353.230890
 20
232.256231
 30
0.0
 10
363.818370
 20
231.025071
 30
0.0
 10
368.968216
 20
230.426224
 30
0.0
 11
333.183536
 21
255.054184
 31
0.0
 11
339.421110
 21
241.703499
 31
0.0
 11
353.571688
 21
233.186323
 31
0.0
 11
368.968216
 21
230.426224
 31
0.0
  0
LWPOLYLINE
  5
221
100
AcDbEntity
  8
Layer_1
 62
3
100
AcDbPolyline
 90
4
 70
1
 10
368.968216
 20
230.426224
 30
0.0
 10
440.309944
 20
230.426224
 30
0.0
 10
440.309944
 20
279.891560
 30
0.0
 10
366.555256
 20
279.891560
 30
0.0
  0
SPLINE
  5
222
100
AcDbEntity
  8
Layer_1
 62
3
100
AcDbSpline
 70
0
 71
3
 72
10
 73
6
 74
4
 40
0.000000
 40
0.000000
 40
0.000000
 40
0.000000
 40
15.802256
 40
31.361834
 40
45.294712
 40
45.294712
 40
45.294712
 40
45.294712
 10
366.555256
 20
279.891560
 30
0.0
 10
361.290879
 20
279.402386
 30
0.0
 10
350.842970
 20
278.431550
 30
0.0
 10
337.138233
 20
269.370332
 30
0.0
 10
334.452388
 20
259.647474
 30
0.0
 10
333.183536
 20
255.054184
 30
0.0
 11
366.555256
 21
279.891560
 31
0.0
 11
351.005553
 21
277.077664
 31
0.0
 11
338.382221
 21
267.980853
 31
0.0
 11
333.183536
 21
255.054184
 31
0.0
  0
LWPOLYLINE
  5
223
100
AcDbEntity
  8
Layer_1
 62
3
100
AcDbPolyline
 90
2
 70
1
 10
333.183536
 20
255.054184
 30
0.0
 10
333.183536
 20
255.054184
 30
0.0
  0
SPLINE
  5
224
100
AcDbEntity
  8
Layer_1
 62
3
100
AcDbSpline
 70
0
 71
3
 72
10
 73
6
 74
4
 40
0.000000
 40
0.000000
 40
0.000000
 40
0.000000
 40
8.990786
 40
19.789787
 40
29.531254
 40
29.531254
 40
29.531254
 40
29.531254
 10
339.237216
 20
303.204248
 30
0.0
 10
341.915363
 20
301.830259
 30
0.0
 10
347.810282
 20
298.805945
 30
0.0
 10
357.632746
 20
297.059928
 30
0.0
 10
364.467725
 20
296.800478
 30
0.0
 10
367.709264
 20
296.677432
 30
0.0
 11
339.237216
 21
303.204248
 31
0.0
 11
347.413539
 21
299.465001
 31
0.0
 11
357.985314
 21
297.261367
 31
0.0
 11
367.709264
 21
296.677432
 31
0.0
  0
LWPOLYLINE
  5
225
100
AcDbEntity
  8
Layer_1
 62
3
100
AcDbPolyline
 90
4
 70
1
 10
367.709264
 20
296.677432
 30
0.0
 10
439.050976
 20
296.677432
 30
0.0
 10
439.050976
 20
346.142776
 30
0.0
 10
365.296312
 20
346.142776
 30
0.0
  0
LWPOLYLINE
  5
226
100
AcDbEntity
  8
Layer_1
 62
3
100
AcDbPolyline
 90
2
 70
1
 10
338.713704
 20
338.439088
 30
0.0
 10
339.237216
 20
303.204248
 30
0.0
  0
LWPOLYLINE
  5
227
100
AcDbEntity
  8
Layer_1
 62
3
100
AcDbPolyline
 90
6
 70
1
 10
439.383664
 20
426.883952
 30
0.0
 10
439.475664
 20
462.994576
 30
0.0
 10
385.669400
 20
439.756088
 30
0.0
 10
386.519200
 20
474.577352
 30
0.0
 10
372.991664
 20
426.639856
 30
0.0
 10
439.383664
 20
426.883952
 30
0.0
  0
LWPOLYLINE
  5
228
100
AcDbEntity
  8
Layer_1
 62
3
100
AcDbPolyline
 90
10
 70
1
 10
367.700224
 20
39.678192
 30
0.0
 10
437.723680
 20
39.678192
 30
0.0
 10
437.723680
 20
87.264592
 30
0.0
 10
367.700224
 20
87.264592
 30
0.0
 10
367.700224
 20
80.755368
 30
0.0
 10
385.156776
 20
80.755368
 30
0.0
 10
385.156776
 20
46.138144
 30
0.0
 10
367.700224
 20
46.138144
 30
0.0
 10
367.700224
 20
39.678192
 30
0.0
 10
367.700224
 20
39.678192
 30
0.0
  0
LWPOLYLINE
  5
229
100
AcDbEntity
  8
Layer_1
 62
3
100
AcDbPolyline
 90
5
 70
1
 10
463.358920
 20
499.030864
 30
0.0
 10
463.358920
 20
529.766416
 30
0.0
 10
510.273288
 20
529.766416
 30
0.0
 10
510.273288
 20
499.030864
 30
0.0
 10
463.358920
 20
499.030864
 30
0.0
  0
LWPOLYLINE
  5
22a
100
AcDbEntity
  8
Layer_1
 62
7
100
AcDbPolyline
 90
9
 70
1
 10
364.025776
 20
356.230808
 30
0.0
 10
443.911672
 20
356.230808
 30
0.0
 10
443.911672
 20
414.468616
 30
0.0
 10
376.255216
 20
414.468616
 30
0.0
 10
400.023744
 20
391.242528
 30
0.0
 10
387.498424
 20
378.421336
 30
0.0
 10
364.025776
 20
401.351552
 30
0.0
 10
364.025776
 20
356.230808
 30
0.0
 10
364.025776
 20
356.230808
 30
0.0
  0
LWPOLYLINE
  5
22b
100
AcDbEntity
  8
Layer_1
 62
3
100
AcDbPolyline
 90
8
 70
1
 10
368.933952
 20
362.258048
 30
0.0
 10
438.843960
 20
362.258048
 30
0.0
 10
438.843960
 20
409.315016
 30
0.0
 10
389.802152
 20
409.315016
 30
0.0
 10
408.457192
 20
391.806144
 30
0.0
 10
386.959144
 20
370.123272
 30
0.0
 10
368.933952
 20
388.396192
 30
0.0
 10
368.933952
 20
362.258048
 30
0.0
  0
LWPOLYLINE
  5
22c
100
AcDbEntity
  8
Layer_1
 62
7
100
AcDbPolyline
 90
7
 70
1
 10
442.909092
 20
155.249248
 30
0.0
 10
442.719684
 20
103.577496
 30
0.0
 10
390.520772
 20
128.431976
 30
0.0
 10
391.093396
 20
98.194280
 30
0.0
 10
379.550124
 20
98.087768
 30
0.0
 10
363.337108
 20
155.541792
 30
0.0
 10
442.909092
 20
155.249248
 30
0.0
  0
LWPOLYLINE
  5
22d
100
AcDbEntity
  8
Layer_1
 62
3
100
AcDbPolyline
 90
6
 70
1
 10
438.155260
 20
149.520296
 30
0.0
 10
438.247260
 20
113.409656
 30
0.0
 10
384.440996
 20
136.648144
 30
0.0
 10
385.290796
 20
101.826888
 30
0.0
 10
371.763260
 20
149.764384
 30
0.0
 10
438.155260
 20
149.520296
 30
0.0
  0
LWPOLYLINE
  5
22e
100
AcDbEntity
  8
Layer_1
 62
7
100
AcDbPolyline
 90
10
 70
1
 10
364.896040
 20
483.920288
 30
0.0
 10
444.732648
 20
483.920288
 30
0.0
 10
444.732648
 20
542.158096
 30
0.0
 10
364.896040
 20
542.158096
 30
0.0
 10
364.896040
 20
524.454984
 30
0.0
 10
382.056728
 20
524.454984
 30
0.0
 10
382.056728
 20
501.968568
 30
0.0
 10
364.896040
 20
501.968568
 30
0.0
 10
364.896040
 20
483.920288
 30
0.0
 10
364.896040
 20
483.920288
 30
0.0
  0
LWPOLYLINE
  5
22f
100
AcDbEntity
  8
Layer_1
 62
3
100
AcDbPolyline
 90
10
 70
1
 10
370.401720
 20
488.954952
 30
0.0
 10
440.425184
 20
488.954952
 30
0.0
 10
440.425184
 20
536.541312
 30
0.0
 10
370.401720
 20
536.541312
 30
0.0
 10
370.401720
 20
530.032088
 30
0.0
 10
387.858280
 20
530.032088
 30
0.0
 10
387.858280
 20
495.414864
 30
0.0
 10
370.401720
 20
495.414864
 30
0.0
 10
370.401720
 20
488.954952
 30
0.0
 10
370.401720
 20
488.954952
 30
0.0
  0
LWPOLYLINE
  5
230
100
AcDbEntity
  8
Layer_1
 62
7
100
AcDbPolyline
 90
5
 70
1
 10
455.789712
 20
41.566912
 30
0.0
 10
455.789712
 20
83.074536
 30
0.0
 10
514.507872
 20
83.074536
 30
0.0
 10
514.507872
 20
41.566912
 30
0.0
 10
455.789712
 20
41.566912
 30
0.0
  0
LWPOLYLINE
  5
231
100
AcDbEntity
  8
Layer_1
 62
3
100
AcDbPolyline
 90
5
 70
1
 10
461.727968
 20
46.926168
 30
0.0
 10
461.727968
 20
77.661720
 30
0.0
 10
508.642344
 20
77.661720
 30
0.0
 10
508.642344
 20
46.926168
 30
0.0
 10
461.727968
 20
46.926168
 30
0.0
  0
LWPOLYLINE
  5
232
100
AcDbEntity
  8
Layer_1
 62
7
100
AcDbPolyline
 90
5
 70
1
 10
455.789712
 20
102.451912
 30
0.0
 10
455.789712
 20
143.959576
 30
0.0
 10
514.507872
 20
143.959576
 30
0.0
 10
514.507872
 20
102.451912
 30
0.0
 10
455.789712
 20
102.451912
 30
0.0
  0
LWPOLYLINE
  5
233
100
AcDbEntity
  8
Layer_1
 62
3
100
AcDbPolyline
 90
5
 70
1
 10
461.727968
 20
107.811208
 30
0.0
 10
461.727968
 20
138.546760
 30
0.0
 10
508.642344
 20
138.546760
 30
0.0
 10
508.642344
 20
107.811208
 30
0.0
 10
461.727968
 20
107.811208
 30
0.0
  0
LWPOLYLINE
  5
234
100
AcDbEntity
  8
Layer_1
 62
7
100
AcDbPolyline
 90
5
 70
1
 10
455.789712
 20
171.793232
 30
0.0
 10
455.789712
 20
213.300888
 30
0.0
 10
514.507872
 20
213.300888
 30
0.0
 10
514.507872
 20
171.793232
 30
0.0
 10
455.789712
 20
171.793232
 30
0.0
  0
LWPOLYLINE
  5
235
100
AcDbEntity
  8
Layer_1
 62
3
100
AcDbPolyline
 90
5
 70
1
 10
461.727968
 20
177.152520
 30
0.0
 10
461.727968
 20
207.888072
 30
0.0
 10
508.642344
 20
207.888072
 30
0.0
 10
508.642344
 20
177.152520
 30
0.0
 10
461.727968
 20
177.152520
 30
0.0
  0
LWPOLYLINE
  5
236
100
AcDbEntity
  8
Layer_1
 62
7
100
AcDbPolyline
 90
5
 70
1
 10
455.789696
 20
236.906408
 30
0.0
 10
455.789696
 20
278.414072
 30
0.0
 10
514.507856
 20
278.414072
 30
0.0
 10
514.507856
 20
236.906408
 30
0.0
 10
455.789696
 20
236.906408
 30
0.0
  0
LWPOLYLINE
  5
237
100
AcDbEntity
  8
Layer_1
 62
3
100
AcDbPolyline
 90
5
 70
1
 10
461.727952
 20
242.265696
 30
0.0
 10
461.727952
 20
273.001256
 30
0.0
 10
508.642328
 20
273.001256
 30
0.0
 10
508.642328
 20
242.265696
 30
0.0
 10
461.727952
 20
242.265696
 30
0.0
  0
LWPOLYLINE
  5
238
100
AcDbEntity
  8
Layer_1
 62
7
100
AcDbPolyline
 90
5
 70
1
 10
457.480960
 20
299.482696
 30
0.0
 10
457.480960
 20
340.990360
 30
0.0
 10
516.199112
 20
340.990360
 30
0.0
 10
516.199112
 20
299.482696
 30
0.0
 10
457.480960
 20
299.482696
 30
0.0
  0
LWPOLYLINE
  5
239
100
AcDbEntity
  8
Layer_1
 62
3
100
AcDbPolyline
 90
5
 70
1
 10
463.419216
 20
304.841984
 30
0.0
 10
463.419216
 20
335.577536
 30
0.0
 10
510.333584
 20
335.577536
 30
0.0
 10
510.333584
 20
304.841984
 30
0.0
 10
463.419216
 20
304.841984
 30
0.0
  0
LWPOLYLINE
  5
23a
100
AcDbEntity
  8
Layer_1
 62
7
100
AcDbPolyline
 90
5
 70
1
 10
457.480960
 20
364.595872
 30
0.0
 10
457.480960
 20
406.103536
 30
0.0
 10
516.199112
 20
406.103536
 30
0.0
 10
516.199112
 20
364.595872
 30
0.0
 10
457.480960
 20
364.595872
 30
0.0
  0
LWPOLYLINE
  5
23b
100
AcDbEntity
  8
Layer_1
 62
3
100
AcDbPolyline
 90
5
 70
1
 10
463.419216
 20
369.955168
 30
0.0
 10
463.419216
 20
400.690720
 30
0.0
 10
510.333584
 20
400.690720
 30
0.0
 10
510.333584
 20
369.955168
 30
0.0
 10
463.419216
 20
369.955168
 30
0.0
  0
LWPOLYLINE
  5
23c
100
AcDbEntity
  8
Layer_1
 62
7
100
AcDbPolyline
 90
5
 70
1
 10
458.326592
 20
424.635296
 30
0.0
 10
458.326592
 20
466.142960
 30
0.0
 10
517.044744
 20
466.142960
 30
0.0
 10
517.044744
 20
424.635296
 30
0.0
 10
458.326592
 20
424.635296
 30
0.0
  0
LWPOLYLINE
  5
23d
100
AcDbEntity
  8
Layer_1
 62
3
100
AcDbPolyline
 90
5
 70
1
 10
464.264848
 20
429.994592
 30
0.0
 10
464.264848
 20
460.730144
 30
0.0
 10
511.179216
 20
460.730144
 30
0.0
 10
511.179216
 20
429.994592
 30
0.0
 10
464.264848
 20
429.994592
 30
0.0
  0
LWPOLYLINE
  5
23e
100
AcDbEntity
  8
Layer_1
 62
3
100
AcDbPolyline
 90
2
 70
0
 10
1074.577325
 20
41.841607
 30
0.0
 10
1074.577325
 20
33.946631
 30
0.0
  0
LWPOLYLINE
  5
23f
100
AcDbEntity
  8
Layer_1
 62
3
100
AcDbPolyline
 90
14
 70
0
 10
1074.577325
 20
38.082095
 30
0.0
 10
1075.329227
 20
38.833997
 30
0.0
 10
1076.081130
 20
39.209948
 30
0.0
 10
1077.208983
 20
39.209948
 30
0.0
 10
1077.960886
 20
38.833997
 30
0.0
 10
1078.712788
 20
38.082095
 30
0.0
 10
1079.088739
 20
36.954241
 30
0.0
 10
1079.088739
 20
36.202338
 30
0.0
 10
1078.712788
 20
35.074485
 30
0.0
 10
1077.960886
 20
34.322582
 30
0.0
 10
1077.208983
 20
33.946631
 30
0.0
 10
1076.081130
 20
33.946631
 30
0.0
 10
1075.329227
 20
34.322582
 30
0.0
 10
1074.577325
 20
35.074485
 30
0.0
  0
LWPOLYLINE
  5
240
100
AcDbEntity
  8
Layer_1
 62
3
100
AcDbPolyline
 90
2
 70
0
 10
1080.968496
 20
39.209948
 30
0.0
 10
1083.224203
 20
33.946631
 30
0.0
  0
LWPOLYLINE
  5
241
100
AcDbEntity
  8
Layer_1
 62
3
100
AcDbPolyline
 90
6
 70
0
 10
1085.479910
 20
39.209948
 30
0.0
 10
1083.224203
 20
33.946631
 30
0.0
 10
1082.472300
 20
32.442826
 30
0.0
 10
1081.720398
 20
31.690924
 30
0.0
 10
1080.968496
 20
31.314973
 30
0.0
 10
1080.592544
 20
31.314973
 30
0.0
  0
LWPOLYLINE
  5
242
100
AcDbEntity
  8
Layer_1
 62
3
100
AcDbPolyline
 90
2
 70
0
 10
1093.750837
 20
41.841607
 30
0.0
 10
1093.750837
 20
33.946631
 30
0.0
  0
LWPOLYLINE
  5
243
100
AcDbEntity
  8
Layer_1
 62
3
100
AcDbPolyline
 90
2
 70
0
 10
1099.014154
 20
41.841607
 30
0.0
 10
1093.750837
 20
36.578290
 30
0.0
  0
LWPOLYLINE
  5
244
100
AcDbEntity
  8
Layer_1
 62
3
100
AcDbPolyline
 90
2
 70
0
 10
1095.630593
 20
38.458046
 30
0.0
 10
1099.014154
 20
33.946631
 30
0.0
  0
LWPOLYLINE
  5
245
100
AcDbEntity
  8
Layer_1
 62
3
100
AcDbPolyline
 90
5
 70
0
 10
1101.269861
 20
41.841607
 30
0.0
 10
1101.645812
 20
41.465655
 30
0.0
 10
1102.021764
 20
41.841607
 30
0.0
 10
1101.645812
 20
42.217558
 30
0.0
 10
1101.269861
 20
41.841607
 30
0.0
  0
LWPOLYLINE
  5
246
100
AcDbEntity
  8
Layer_1
 62
3
100
AcDbPolyline
 90
2
 70
0
 10
1101.645812
 20
39.209948
 30
0.0
 10
1101.645812
 20
33.946631
 30
0.0
  0
LWPOLYLINE
  5
247
100
AcDbEntity
  8
Layer_1
 62
3
100
AcDbPolyline
 90
5
 70
0
 10
1105.029373
 20
41.841607
 30
0.0
 10
1105.029373
 20
35.450436
 30
0.0
 10
1105.405325
 20
34.322582
 30
0.0
 10
1106.157227
 20
33.946631
 30
0.0
 10
1106.909129
 20
33.946631
 30
0.0
  0
LWPOLYLINE
  5
248
100
AcDbEntity
  8
Layer_1
 62
3
100
AcDbPolyline
 90
2
 70
0
 10
1103.901520
 20
39.209948
 30
0.0
 10
1106.533178
 20
39.209948
 30
0.0
  0
LWPOLYLINE
  5
249
100
AcDbEntity
  8
Layer_1
 62
3
100
AcDbPolyline
 90
17
 70
0
 10
1108.788886
 20
36.954241
 30
0.0
 10
1113.300300
 20
36.954241
 30
0.0
 10
1113.300300
 20
37.706143
 30
0.0
 10
1112.924349
 20
38.458046
 30
0.0
 10
1112.548398
 20
38.833997
 30
0.0
 10
1111.796495
 20
39.209948
 30
0.0
 10
1110.668642
 20
39.209948
 30
0.0
 10
1109.916739
 20
38.833997
 30
0.0
 10
1109.164837
 20
38.082095
 30
0.0
 10
1108.788886
 20
36.954241
 30
0.0
 10
1108.788886
 20
36.202338
 30
0.0
 10
1109.164837
 20
35.074485
 30
0.0
 10
1109.916739
 20
34.322582
 30
0.0
 10
1110.668642
 20
33.946631
 30
0.0
 10
1111.796495
 20
33.946631
 30
0.0
 10
1112.548398
 20
34.322582
 30
0.0
 10
1113.300300
 20
35.074485
 30
0.0
  0
LWPOLYLINE
  5
24a
100
AcDbEntity
  8
Layer_1
 62
3
100
AcDbPolyline
 90
2
 70
0
 10
1115.931959
 20
39.209948
 30
0.0
 10
1115.931959
 20
33.946631
 30
0.0
  0
LWPOLYLINE
  5
24b
100
AcDbEntity
  8
Layer_1
 62
3
100
AcDbPolyline
 90
7
 70
0
 10
1115.931959
 20
37.706143
 30
0.0
 10
1117.059812
 20
38.833997
 30
0.0
 10
1117.811715
 20
39.209948
 30
0.0
 10
1118.939568
 20
39.209948
 30
0.0
 10
1119.691471
 20
38.833997
 30
0.0
 10
1120.067422
 20
37.706143
 30
0.0
 10
1120.067422
 20
33.946631
 30
0.0
  0
LWPOLYLINE
  5
24c
100
AcDbEntity
  8
Layer_1
 62
3
100
AcDbPolyline
 90
7
 70
0
 10
1120.067422
 20
37.706143
 30
0.0
 10
1121.195276
 20
38.833997
 30
0.0
 10
1121.947178
 20
39.209948
 30
0.0
 10
1123.075032
 20
39.209948
 30
0.0
 10
1123.826934
 20
38.833997
 30
0.0
 10
1124.202885
 20
37.706143
 30
0.0
 10
1124.202885
 20
33.946631
 30
0.0
  0
LWPOLYLINE
  5
24d
100
AcDbEntity
  8
Layer_1
 62
3
100
AcDbPolyline
 90
2
 70
0
 10
1131.345958
 20
39.209948
 30
0.0
 10
1131.345958
 20
33.946631
 30
0.0
  0
LWPOLYLINE
  5
24e
100
AcDbEntity
  8
Layer_1
 62
3
100
AcDbPolyline
 90
14
 70
0
 10
1131.345958
 20
38.082095
 30
0.0
 10
1130.594056
 20
38.833997
 30
0.0
 10
1129.842154
 20
39.209948
 30
0.0
 10
1128.714300
 20
39.209948
 30
0.0
 10
1127.962398
 20
38.833997
 30
0.0
 10
1127.210495
 20
38.082095
 30
0.0
 10
1126.834544
 20
36.954241
 30
0.0
 10
1126.834544
 20
36.202338
 30
0.0
 10
1127.210495
 20
35.074485
 30
0.0
 10
1127.962398
 20
34.322582
 30
0.0
 10
1128.714300
 20
33.946631
 30
0.0
 10
1129.842154
 20
33.946631
 30
0.0
 10
1130.594056
 20
34.322582
 30
0.0
 10
1131.345958
 20
35.074485
 30
0.0
  0
LWPOLYLINE
  5
24f
100
AcDbEntity
  8
Layer_1
 62
3
100
AcDbPolyline
 90
2
 70
0
 10
1134.353568
 20
39.209948
 30
0.0
 10
1134.353568
 20
33.946631
 30
0.0
  0
LWPOLYLINE
  5
250
100
AcDbEntity
  8
Layer_1
 62
3
100
AcDbPolyline
 90
7
 70
0
 10
1134.353568
 20
37.706143
 30
0.0
 10
1135.481422
 20
38.833997
 30
0.0
 10
1136.233324
 20
39.209948
 30
0.0
 10
1137.361178
 20
39.209948
 30
0.0
 10
1138.113080
 20
38.833997
 30
0.0
 10
1138.489032
 20
37.706143
 30
0.0
 10
1138.489032
 20
33.946631
 30
0.0
  0
LWPOLYLINE
  5
251
100
AcDbEntity
  8
Layer_1
 62
7
100
AcDbPolyline
 90
10
 70
1
 10
114.405256
 20
821.317672
 30
0.0
 10
114.405256
 20
741.481064
 30
0.0
 10
172.643032
 20
741.481064
 30
0.0
 10
172.643032
 20
821.317672
 30
0.0
 10
154.939920
 20
821.317672
 30
0.0
 10
154.939920
 20
804.157000
 30
0.0
 10
132.453496
 20
804.157000
 30
0.0
 10
132.453496
 20
821.317672
 30
0.0
 10
114.405256
 20
821.317672
 30
0.0
 10
114.405256
 20
821.317672
 30
0.0
  0
LWPOLYLINE
  5
252
100
AcDbEntity
  8
Layer_1
 62
7
100
AcDbPolyline
 90
5
 70
1
 10
573.433224
 20
726.091544
 30
0.0
 10
614.940880
 20
726.091544
 30
0.0
 10
614.940880
 20
667.373392
 30
0.0
 10
573.433224
 20
667.373392
 30
0.0
 10
573.433224
 20
726.091544
 30
0.0
  0
LWPOLYLINE
  5
253
100
AcDbEntity
  8
Layer_1
 62
7
100
AcDbPolyline
 90
7
 70
1
 10
500.916632
 20
739.374712
 30
0.0
 10
552.588384
 20
739.564120
 30
0.0
 10
527.733904
 20
791.763048
 30
0.0
 10
557.971600
 20
791.190424
 30
0.0
 10
558.078112
 20
802.733696
 30
0.0
 10
500.624088
 20
818.946704
 30
0.0
 10
500.916632
 20
739.374712
 30
0.0
  0
LWPOLYLINE
  5
254
100
AcDbEntity
  8
Layer_1
 62
7
100
AcDbPolyline
 90
9
 70
1
 10
299.278704
 20
819.709960
 30
0.0
 10
299.278704
 20
739.824064
 30
0.0
 10
241.040888
 20
739.824064
 30
0.0
 10
241.040888
 20
807.480512
 30
0.0
 10
264.266976
 20
783.711992
 30
0.0
 10
277.088168
 20
796.237312
 30
0.0
 10
254.157952
 20
819.709960
 30
0.0
 10
299.278704
 20
819.709960
 30
0.0
 10
299.278704
 20
819.709960
 30
0.0
  0
SPLINE
  5
255
100
AcDbEntity
  8
Layer_1
 62
3
100
AcDbSpline
 70
0
 71
3
 72
10
 73
6
 74
4
 40
0.000000
 40
0.000000
 40
0.000000
 40
0.000000
 40
10.092237
 40
19.362450
 40
28.197482
 40
28.197482
 40
28.197482
 40
28.197482
 10
365.296312
 20
346.142776
 30
0.0
 10
361.950227
 20
345.925297
 30
0.0
 10
355.530601
 20
345.508051
 30
0.0
 10
346.093742
 20
343.734059
 30
0.0
 10
341.133979
 20
340.175568
 30
0.0
 10
338.713704
 20
338.439088
 30
0.0
 11
365.296312
 21
346.142776
 31
0.0
 11
355.241647
 21
345.272749
 31
0.0
 11
346.236353
 21
343.072396
 31
0.0
 11
338.713704
 21
338.439088
 31
0.0
  0
LWPOLYLINE
  5
256
100
AcDbEntity
  8
Layer_1
 62
5
100
AcDbPolyline
 90
8
 70
1
 10
293.251464
 20
814.801784
 30
0.0
 10
293.251464
 20
744.891776
 30
0.0
 10
246.194488
 20
744.891776
 30
0.0
 10
246.194488
 20
793.933584
 30
0.0
 10
263.703360
 20
775.278544
 30
0.0
 10
285.386240
 20
796.776592
 30
0.0
 10
267.113312
 20
814.801784
 30
0.0
 10
293.251464
 20
814.801784
 30
0.0
  0
SPLINE
  5
257
100
AcDbEntity
  8
Layer_1
 62
7
100
AcDbSpline
 70
0
 71
3
 72
10
 73
6
 74
4
 40
0.000000
 40
0.000000
 40
0.000000
 40
0.000000
 40
17.108831
 40
35.424621
 40
52.414721
 40
52.414721
 40
52.414721
 40
52.414721
 10
311.385776
 20
772.464936
 30
0.0
 10
313.040879
 20
766.813869
 30
0.0
 10
316.467845
 20
755.113073
 30
0.0
 10
332.898015
 20
745.633373
 30
0.0
 10
344.541892
 20
744.172380
 30
0.0
 10
350.145224
 20
743.469312
 30
0.0
 11
311.385776
 21
772.464936
 31
0.0
 11
318.141875
 21
756.746564
 31
0.0
 11
333.468784
 21
746.718901
 31
0.0
 11
350.145224
 21
743.469312
 31
0.0
  0
LWPOLYLINE
  5
258
100
AcDbEntity
  8
Layer_1
 62
7
100
AcDbPolyline
 90
4
 70
1
 10
350.145224
 20
743.469312
 30
0.0
 10
427.417584
 20
743.469312
 30
0.0
 10
427.417584
 20
801.707120
 30
0.0
 10
347.531672
 20
801.707120
 30
0.0
  0
SPLINE
  5
259
100
AcDbEntity
  8
Layer_1
 62
7
100
AcDbSpline
 70
0
 71
3
 72
10
 73
6
 74
4
 40
0.000000
 40
0.000000
 40
0.000000
 40
0.000000
 40
17.165087
 40
34.533128
 40
50.760554
 40
50.760554
 40
50.760554
 40
50.760554
 10
347.531672
 20
801.707120
 30
0.0
 10
341.795629
 20
801.120855
 30
0.0
 10
330.255723
 20
799.941393
 30
0.0
 10
315.469263
 20
788.961597
 30
0.0
 10
312.715777
 20
777.837935
 30
0.0
 10
311.385776
 20
772.464936
 30
0.0
 11
347.531672
 21
801.707120
 31
0.0
 11
330.689323
 21
798.394192
 31
0.0
 11
317.016621
 21
787.684099
 31
0.0
 11
311.385776
 21
772.464936
 31
0.0
  0
LWPOLYLINE
  5
25a
100
AcDbEntity
  8
Layer_1
 62
7
100
AcDbPolyline
 90
2
 70
1
 10
311.385776
 20
772.464936
 30
0.0
 10
311.385776
 20
772.464936
 30
0.0
  0
SPLINE
  5
25b
100
AcDbEntity
  8
Layer_1
 62
5
100
AcDbSpline
 70
0
 71
3
 72
10
 73
6
 74
4
 40
0.000000
 40
0.000000
 40
0.000000
 40
0.000000
 40
14.735947
 40
31.252034
 40
46.894004
 40
46.894004
 40
46.894004
 40
46.894004
 10
316.467800
 20
772.335840
 30
0.0
 10
318.049138
 20
767.508943
 30
0.0
 10
321.402843
 20
757.272048
 30
0.0
 10
336.515154
 20
749.537887
 30
0.0
 10
347.102634
 20
748.306727
 30
0.0
 10
352.252480
 20
747.707880
 30
0.0
 11
316.467800
 21
772.335840
 31
0.0
 11
322.705374
 21
758.985155
 31
0.0
 11
336.855952
 21
750.467979
 31
0.0
 11
352.252480
 21
747.707880
 31
0.0
  0
LWPOLYLINE
  5
25c
100
AcDbEntity
  8
Layer_1
 62
5
100
AcDbPolyline
 90
4
 70
1
 10
352.252480
 20
747.707880
 30
0.0
 10
423.594216
 20
747.707880
 30
0.0
 10
423.594216
 20
797.173216
 30
0.0
 10
349.839520
 20
797.173216
 30
0.0
  0
LWPOLYLINE
  5
25d
100
AcDbEntity
  8
Layer_1
 62
5
100
AcDbPolyline
 90
2
 70
1
 10
316.467800
 20
772.335840
 30
0.0
 10
316.467800
 20
772.335840
 30
0.0
  0
SPLINE
  5
25e
100
AcDbEntity
  8
Layer_1
 62
5
100
AcDbSpline
 70
0
 71
3
 72
10
 73
6
 74
4
 40
0.000000
 40
0.000000
 40
0.000000
 40
0.000000
 40
15.802256
 40
31.361834
 40
45.294712
 40
45.294712
 40
45.294712
 40
45.294712
 10
349.839520
 20
797.173216
 30
0.0
 10
344.575143
 20
796.684042
 30
0.0
 10
334.127234
 20
795.713206
 30
0.0
 10
320.422497
 20
786.651988
 30
0.0
 10
317.736652
 20
776.929130
 30
0.0
 10
316.467800
 20
772.335840
 30
0.0
 11
349.839520
 21
797.173216
 31
0.0
 11
334.289817
 21
794.359320
 31
0.0
 11
321.666485
 21
785.262509
 31
0.0
 11
316.467800
 21
772.335840
 31
0.0
  0
LWPOLYLINE
  5
25f
100
AcDbEntity
  8
Layer_1
 62
7
100
AcDbPolyline
 90
4
 70
1
 10
161.440285
 20
578.704819
 30
0.0
 10
178.600957
 20
578.704819
 30
0.0
 10
178.600957
 20
569.779296
 30
0.0
 10
162.870341
 20
569.779296
 30
0.0
  0
SPLINE
  5
260
100
AcDbEntity
  8
Layer_1
 62
7
100
AcDbSpline
 70
0
 71
3
 72
10
 73
6
 74
4
 40
0.000000
 40
0.000000
 40
0.000000
 40
0.000000
 40
14.086462
 40
30.841980
 40
49.805571
 40
49.805571
 40
49.805571
 40
49.805571
 10
162.870341
 20
569.779296
 30
0.0
 10
166.717133
 20
567.042497
 30
0.0
 10
175.139594
 20
561.050338
 30
0.0
 10
191.416244
 20
556.409798
 30
0.0
 10
203.306003
 20
555.737195
 30
0.0
 10
209.618381
 20
555.380104
 30
0.0
 11
162.870341
 21
569.779296
 31
0.0
 11
174.756333
 21
562.219427
 31
0.0
 11
190.742303
 21
557.199856
 31
0.0
 11
209.618381
 21
555.380104
 31
0.0
  0
LWPOLYLINE
  5
261
100
AcDbEntity
  8
Layer_1
 62
7
100
AcDbPolyline
 90
4
 70
1
 10
209.618381
 20
555.380104
 30
0.0
 10
289.405661
 20
555.577352
 30
0.0
 10
289.405661
 20
613.765859
 30
0.0
 10
209.618381
 20
613.765859
 30
0.0
  0
SPLINE
  5
262
100
AcDbEntity
  8
Layer_1
 62
7
100
AcDbSpline
 70
0
 71
3
 72
13
 73
9
 74
7
 40
0.000000
 40
0.000000
 40
0.000000
 40
0.000000
 40
0.033004
 40
0.065631
 40
0.098624
 40
19.148432
 40
35.963249
 40
50.075592
 40
50.075592
 40
50.075592
 40
50.075592
 10
209.618381
 20
613.765859
 30
0.0
 10
209.607380
 20
613.765861
 30
0.0
 10
209.585503
 20
613.765865
 30
0.0
 10
209.552628
 20
613.765879
 30
0.0
 10
203.180807
 20
613.762489
 30
0.0
 10
191.246206
 20
612.557664
 30
0.0
 10
174.916557
 20
608.028891
 30
0.0
 10
166.509369
 20
601.945380
 30
0.0
 10
162.673093
 20
599.169419
 30
0.0
 11
209.618381
 21
613.765859
 31
0.0
 11
209.585377
 21
613.765866
 31
0.0
 11
209.552750
 21
613.765874
 31
0.0
 11
209.519757
 21
613.765859
 31
0.0
 11
190.561021
 21
611.905348
 31
0.0
 11
174.535488
 21
606.814144
 31
0.0
 11
162.673093
 21
599.169419
 31
0.0
  0
LWPOLYLINE
  5
263
100
AcDbEntity
  8
Layer_1
 62
7
100
AcDbPolyline
 90
6
 70
1
 10
162.673093
 20
599.169419
 30
0.0
 10
178.600957
 20
599.169419
 30
0.0
 10
178.600957
 20
590.046651
 30
0.0
 10
161.440285
 20
590.046651
 30
0.0
 10
161.440285
 20
578.704819
 30
0.0
 10
161.440285
 20
578.704819
 30
0.0
  0
SPLINE
  5
264
100
AcDbEntity
  8
Layer_1
 62
5
100
AcDbSpline
 70
0
 71
3
 72
10
 73
6
 74
4
 40
0.000000
 40
0.000000
 40
0.000000
 40
0.000000
 40
8.990786
 40
19.789787
 40
29.531254
 40
29.531254
 40
29.531254
 40
29.531254
 10
184.228341
 20
566.821408
 30
0.0
 10
186.906488
 20
565.447419
 30
0.0
 10
192.801407
 20
562.423105
 30
0.0
 10
202.623871
 20
560.677088
 30
0.0
 10
209.458850
 20
560.417638
 30
0.0
 10
212.700389
 20
560.294592
 30
0.0
 11
184.228341
 21
566.821408
 31
0.0
 11
192.404664
 21
563.082161
 31
0.0
 11
202.976439
 21
560.878527
 31
0.0
 11
212.700389
 21
560.294592
 31
0.0
  0
LWPOLYLINE
  5
265
100
AcDbEntity
  8
Layer_1
 62
5
100
AcDbPolyline
 90
4
 70
1
 10
212.700389
 20
560.294592
 30
0.0
 10
284.042109
 20
560.294592
 30
0.0
 10
284.042109
 20
609.759939
 30
0.0
 10
210.287437
 20
609.759939
 30
0.0
  0
LWPOLYLINE
  5
266
100
AcDbEntity
  8
Layer_1
 62
5
100
AcDbPolyline
 90
2
 70
1
 10
183.704829
 20
602.056251
 30
0.0
 10
184.228341
 20
566.821408
 30
0.0
  0
LWPOLYLINE
  5
267
100
AcDbEntity
  8
Layer_1
 62
5
100
AcDbPolyline
 90
6
 70
1
 10
506.645600
 20
744.128544
 30
0.0
 10
542.756224
 20
744.036544
 30
0.0
 10
519.517736
 20
797.842816
 30
0.0
 10
554.339000
 20
796.993016
 30
0.0
 10
506.401504
 20
810.520552
 30
0.0
 10
506.645600
 20
744.128544
 30
0.0
  0
LWPOLYLINE
  5
268
100
AcDbEntity
  8
Layer_1
 62
5
100
AcDbPolyline
 90
10
 70
1
 10
119.439880
 20
815.811992
 30
0.0
 10
119.439880
 20
745.788528
 30
0.0
 10
167.026240
 20
745.788528
 30
0.0
 10
167.026240
 20
815.811992
 30
0.0
 10
160.517016
 20
815.811992
 30
0.0
 10
160.517016
 20
798.355440
 30
0.0
 10
125.899792
 20
798.355440
 30
0.0
 10
125.899792
 20
815.811992
 30
0.0
 10
119.439880
 20
815.811992
 30
0.0
 10
119.439880
 20
815.811992
 30
0.0
  0
LWPOLYLINE
  5
269
100
AcDbEntity
  8
Layer_1
 62
5
100
AcDbPolyline
 90
5
 70
1
 10
578.792512
 20
720.153288
 30
0.0
 10
609.528064
 20
720.153288
 30
0.0
 10
609.528064
 20
673.238920
 30
0.0
 10
578.792512
 20
673.238920
 30
0.0
 10
578.792512
 20
720.153288
 30
0.0
  0
LWPOLYLINE
  5
26a
100
AcDbEntity
  8
Layer_1
 62
7
100
AcDbPolyline
 90
9
 70
1
 10
435.992456
 20
819.486440
 30
0.0
 10
435.992456
 20
739.600536
 30
0.0
 10
494.230264
 20
739.600536
 30
0.0
 10
494.230264
 20
807.257000
 30
0.0
 10
471.004176
 20
783.488464
 30
0.0
 10
458.182984
 20
796.013792
 30
0.0
 10
481.113200
 20
819.486440
 30
0.0
 10
435.992456
 20
819.486440
 30
0.0
 10
435.992456
 20
819.486440
 30
0.0
  0
LWPOLYLINE
  5
26b
100
AcDbEntity
  8
Layer_1
 62
5
100
AcDbPolyline
 90
8
 70
1
 10
442.019696
 20
814.578264
 30
0.0
 10
442.019696
 20
744.668248
 30
0.0
 10
489.076664
 20
744.668248
 30
0.0
 10
489.076664
 20
793.710064
 30
0.0
 10
471.567792
 20
775.055016
 30
0.0
 10
449.884920
 20
796.553072
 30
0.0
 10
468.157840
 20
814.578264
 30
0.0
 10
442.019696
 20
814.578264
 30
0.0
  0
LWPOLYLINE
  5
26c
100
AcDbEntity
  8
Layer_1
 62
7
100
AcDbPolyline
 90
7
 70
1
 10
235.010952
 20
740.603120
 30
0.0
 10
183.339200
 20
740.792528
 30
0.0
 10
208.193680
 20
792.991440
 30
0.0
 10
177.955984
 20
792.418816
 30
0.0
 10
177.849472
 20
803.962088
 30
0.0
 10
235.303496
 20
820.175104
 30
0.0
 10
235.010952
 20
740.603120
 30
0.0
  0
LWPOLYLINE
  5
26d
100
AcDbEntity
  8
Layer_1
 62
5
100
AcDbPolyline
 90
6
 70
1
 10
229.282000
 20
745.356952
 30
0.0
 10
193.171360
 20
745.264952
 30
0.0
 10
216.409848
 20
799.071216
 30
0.0
 10
181.588592
 20
798.221416
 30
0.0
 10
229.526088
 20
811.748952
 30
0.0
 10
229.282000
 20
745.356952
 30
0.0
  0
LWPOLYLINE
  5
26e
100
AcDbEntity
  8
Layer_1
 62
7
100
AcDbPolyline
 90
10
 70
1
 10
563.681936
 20
818.616176
 30
0.0
 10
563.681936
 20
738.779560
 30
0.0
 10
621.919744
 20
738.779560
 30
0.0
 10
621.919744
 20
818.616176
 30
0.0
 10
604.216632
 20
818.616176
 30
0.0
 10
604.216632
 20
801.455488
 30
0.0
 10
581.730216
 20
801.455488
 30
0.0
 10
581.730216
 20
818.616176
 30
0.0
 10
563.681936
 20
818.616176
 30
0.0
 10
563.681936
 20
818.616176
 30
0.0
  0
LWPOLYLINE
  5
26f
100
AcDbEntity
  8
Layer_1
 62
5
100
AcDbPolyline
 90
10
 70
1
 10
568.716600
 20
813.110496
 30
0.0
 10
568.716600
 20
743.087024
 30
0.0
 10
616.302960
 20
743.087024
 30
0.0
 10
616.302960
 20
813.110496
 30
0.0
 10
609.793736
 20
813.110496
 30
0.0
 10
609.793736
 20
795.653936
 30
0.0
 10
575.176512
 20
795.653936
 30
0.0
 10
575.176512
 20
813.110496
 30
0.0
 10
568.716600
 20
813.110496
 30
0.0
 10
568.716600
 20
813.110496
 30
0.0
  0
LWPOLYLINE
  5
270
100
AcDbEntity
  8
Layer_1
 62
7
100
AcDbPolyline
 90
5
 70
1
 10
121.328528
 20
727.722496
 30
0.0
 10
162.836184
 20
727.722496
 30
0.0
 10
162.836184
 20
669.004336
 30
0.0
 10
121.328528
 20
669.004336
 30
0.0
 10
121.328528
 20
727.722496
 30
0.0
  0
LWPOLYLINE
  5
271
100
AcDbEntity
  8
Layer_1
 62
5
100
AcDbPolyline
 90
5
 70
1
 10
126.687816
 20
721.784240
 30
0.0
 10
157.423368
 20
721.784240
 30
0.0
 10
157.423368
 20
674.869864
 30
0.0
 10
126.687816
 20
674.869864
 30
0.0
 10
126.687816
 20
721.784240
 30
0.0
  0
LWPOLYLINE
  5
272
100
AcDbEntity
  8
Layer_1
 62
7
100
AcDbPolyline
 90
5
 70
1
 10
182.213560
 20
727.722496
 30
0.0
 10
223.721224
 20
727.722496
 30
0.0
 10
223.721224
 20
669.004336
 30
0.0
 10
182.213560
 20
669.004336
 30
0.0
 10
182.213560
 20
727.722496
 30
0.0
  0
LWPOLYLINE
  5
273
100
AcDbEntity
  8
Layer_1
 62
5
100
AcDbPolyline
 90
5
 70
1
 10
187.572856
 20
721.784240
 30
0.0
 10
218.308408
 20
721.784240
 30
0.0
 10
218.308408
 20
674.869864
 30
0.0
 10
187.572856
 20
674.869864
 30
0.0
 10
187.572856
 20
721.784240
 30
0.0
  0
LWPOLYLINE
  5
274
100
AcDbEntity
  8
Layer_1
 62
7
100
AcDbPolyline
 90
5
 70
1
 10
251.554880
 20
727.722496
 30
0.0
 10
293.062536
 20
727.722496
 30
0.0
 10
293.062536
 20
669.004336
 30
0.0
 10
251.554880
 20
669.004336
 30
0.0
 10
251.554880
 20
727.722496
 30
0.0
  0
LWPOLYLINE
  5
275
100
AcDbEntity
  8
Layer_1
 62
5
100
AcDbPolyline
 90
5
 70
1
 10
256.914168
 20
721.784240
 30
0.0
 10
287.649720
 20
721.784240
 30
0.0
 10
287.649720
 20
674.869864
 30
0.0
 10
256.914168
 20
674.869864
 30
0.0
 10
256.914168
 20
721.784240
 30
0.0
  0
LWPOLYLINE
  5
276
100
AcDbEntity
  8
Layer_1
 62
7
100
AcDbPolyline
 90
5
 70
1
 10
316.668056
 20
727.722512
 30
0.0
 10
358.175720
 20
727.722512
 30
0.0
 10
358.175720
 20
669.004352
 30
0.0
 10
316.668056
 20
669.004352
 30
0.0
 10
316.668056
 20
727.722512
 30
0.0
  0
LWPOLYLINE
  5
277
100
AcDbEntity
  8
Layer_1
 62
5
100
AcDbPolyline
 90
5
 70
1
 10
322.027344
 20
721.784256
 30
0.0
 10
352.762904
 20
721.784256
 30
0.0
 10
352.762904
 20
674.869880
 30
0.0
 10
322.027344
 20
674.869880
 30
0.0
 10
322.027344
 20
721.784256
 30
0.0
  0
LWPOLYLINE
  5
278
100
AcDbEntity
  8
Layer_1
 62
7
100
AcDbPolyline
 90
5
 70
1
 10
379.244344
 20
726.031248
 30
0.0
 10
420.752008
 20
726.031248
 30
0.0
 10
420.752008
 20
667.313096
 30
0.0
 10
379.244344
 20
667.313096
 30
0.0
 10
379.244344
 20
726.031248
 30
0.0
  0
LWPOLYLINE
  5
279
100
AcDbEntity
  8
Layer_1
 62
5
100
AcDbPolyline
 90
5
 70
1
 10
384.603632
 20
720.092992
 30
0.0
 10
415.339184
 20
720.092992
 30
0.0
 10
415.339184
 20
673.178624
 30
0.0
 10
384.603632
 20
673.178624
 30
0.0
 10
384.603632
 20
720.092992
 30
0.0
  0
LWPOLYLINE
  5
27a
100
AcDbEntity
  8
Layer_1
 62
7
100
AcDbPolyline
 90
5
 70
1
 10
444.357520
 20
726.031248
 30
0.0
 10
485.865184
 20
726.031248
 30
0.0
 10
485.865184
 20
667.313096
 30
0.0
 10
444.357520
 20
667.313096
 30
0.0
 10
444.357520
 20
726.031248
 30
0.0
  0
LWPOLYLINE
  5
27b
100
AcDbEntity
  8
Layer_1
 62
5
100
AcDbPolyline
 90
5
 70
1
 10
449.716816
 20
720.092992
 30
0.0
 10
480.452368
 20
720.092992
 30
0.0
 10
480.452368
 20
673.178624
 30
0.0
 10
449.716816
 20
673.178624
 30
0.0
 10
449.716816
 20
720.092992
 30
0.0
  0
LWPOLYLINE
  5
27c
100
AcDbEntity
  8
Layer_1
 62
7
100
AcDbPolyline
 90
5
 70
1
 10
504.396944
 20
725.185616
 30
0.0
 10
545.904608
 20
725.185616
 30
0.0
 10
545.904608
 20
666.467464
 30
0.0
 10
504.396944
 20
666.467464
 30
0.0
 10
504.396944
 20
725.185616
 30
0.0
  0
LWPOLYLINE
  5
27d
100
AcDbEntity
  8
Layer_1
 62
5
100
AcDbPolyline
 90
5
 70
1
 10
509.756240
 20
719.247360
 30
0.0
 10
540.491792
 20
719.247360
 30
0.0
 10
540.491792
 20
672.332992
 30
0.0
 10
509.756240
 20
672.332992
 30
0.0
 10
509.756240
 20
719.247360
 30
0.0
  0
LWPOLYLINE
  5
27e
100
AcDbEntity
  8
Layer_1
 62
7
100
AcDbPolyline
 90
10
 70
1
 10
643.249256
 20
819.708696
 30
0.0
 10
643.249256
 20
739.872096
 30
0.0
 10
701.487088
 20
739.872096
 30
0.0
 10
701.487088
 20
819.708696
 30
0.0
 10
683.783976
 20
819.708696
 30
0.0
 10
683.783976
 20
802.548024
 30
0.0
 10
661.297552
 20
802.548024
 30
0.0
 10
661.297552
 20
819.708696
 30
0.0
 10
643.249256
 20
819.708696
 30
0.0
 10
643.249256
 20
819.708696
 30
0.0
  0
LWPOLYLINE
  5
27f
100
AcDbEntity
  8
Layer_1
 62
7
100
AcDbPolyline
 90
5
 70
1
 10
1102.277280
 20
724.482576
 30
0.0
 10
1143.784960
 20
724.482576
 30
0.0
 10
1143.784960
 20
665.764432
 30
0.0
 10
1102.277280
 20
665.764432
 30
0.0
 10
1102.277280
 20
724.482576
 30
0.0
  0
LWPOLYLINE
  5
280
100
AcDbEntity
  8
Layer_1
 62
7
100
AcDbPolyline
 90
7
 70
1
 10
1029.760720
 20
737.765744
 30
0.0
 10
1081.432480
 20
737.955152
 30
0.0
 10
1056.578000
 20
790.154072
 30
0.0
 10
1086.815680
 20
789.581448
 30
0.0
 10
1086.922160
 20
801.124720
 30
0.0
 10
1029.468160
 20
817.337728
 30
0.0
 10
1029.760720
 20
737.765744
 30
0.0
  0
LWPOLYLINE
  5
281
100
AcDbEntity
  8
Layer_1
 62
7
100
AcDbPolyline
 90
9
 70
1
 10
828.122808
 20
818.100992
 30
0.0
 10
828.122808
 20
738.215096
 30
0.0
 10
769.884992
 20
738.215096
 30
0.0
 10
769.884992
 20
805.871544
 30
0.0
 10
793.111080
 20
782.103024
 30
0.0
 10
805.932272
 20
794.628344
 30
0.0
 10
783.002056
 20
818.100992
 30
0.0
 10
828.122808
 20
818.100992
 30
0.0
 10
828.122808
 20
818.100992
 30
0.0
  0
SPLINE
  5
282
100
AcDbEntity
  8
Layer_1
 62
5
100
AcDbSpline
 70
0
 71
3
 72
10
 73
6
 74
4
 40
0.000000
 40
0.000000
 40
0.000000
 40
0.000000
 40
10.092237
 40
19.362450
 40
28.197482
 40
28.197482
 40
28.197482
 40
28.197482
 10
210.287437
 20
609.759939
 30
0.0
 10
206.941352
 20
609.542460
 30
0.0
 10
200.521725
 20
609.125214
 30
0.0
 10
191.084866
 20
607.351222
 30
0.0
 10
186.125103
 20
603.792731
 30
0.0
 10
183.704829
 20
602.056251
 30
0.0
 11
210.287437
 21
609.759939
 31
0.0
 11
200.232771
 21
608.889912
 31
0.0
 11
191.227478
 21
606.689559
 31
0.0
 11
183.704829
 21
602.056251
 31
0.0
  0
LWPOLYLINE
  5
283
100
AcDbEntity
  8
Layer_1
 62
3
100
AcDbPolyline
 90
8
 70
1
 10
822.095568
 20
813.192816
 30
0.0
 10
822.095568
 20
743.282808
 30
0.0
 10
775.038592
 20
743.282808
 30
0.0
 10
775.038592
 20
792.324616
 30
0.0
 10
792.547464
 20
773.669576
 30
0.0
 10
814.230344
 20
795.167624
 30
0.0
 10
795.957416
 20
813.192816
 30
0.0
 10
822.095568
 20
813.192816
 30
0.0
  0
SPLINE
  5
284
100
AcDbEntity
  8
Layer_1
 62
7
100
AcDbSpline
 70
0
 71
3
 72
10
 73
6
 74
4
 40
0.000000
 40
0.000000
 40
0.000000
 40
0.000000
 40
17.108832
 40
35.424617
 40
52.414713
 40
52.414713
 40
52.414713
 40
52.414713
 10
836.419104
 20
770.855952
 30
0.0
 10
838.074206
 20
765.204884
 30
0.0
 10
841.501171
 20
753.504089
 30
0.0
 10
857.931344
 20
744.024396
 30
0.0
 10
869.575220
 20
742.563414
 30
0.0
 10
875.178552
 20
741.860352
 30
0.0
 11
836.419104
 21
770.855952
 31
0.0
 11
843.175203
 21
755.137579
 31
0.0
 11
858.502112
 21
745.109925
 31
0.0
 11
875.178552
 21
741.860352
 31
0.0
  0
LWPOLYLINE
  5
285
100
AcDbEntity
  8
Layer_1
 62
7
100
AcDbPolyline
 90
4
 70
1
 10
875.178552
 20
741.860352
 30
0.0
 10
952.450904
 20
741.860352
 30
0.0
 10
952.450904
 20
800.098192
 30
0.0
 10
872.565000
 20
800.098192
 30
0.0
  0
SPLINE
  5
286
100
AcDbEntity
  8
Layer_1
 62
7
100
AcDbSpline
 70
0
 71
3
 72
10
 73
6
 74
4
 40
0.000000
 40
0.000000
 40
0.000000
 40
0.000000
 40
17.165091
 40
34.533139
 40
50.760588
 40
50.760588
 40
50.760588
 40
50.760588
 10
872.565000
 20
800.098192
 30
0.0
 10
866.828957
 20
799.511919
 30
0.0
 10
855.289049
 20
798.332442
 30
0.0
 10
840.502586
 20
787.352634
 30
0.0
 10
837.749104
 20
776.228960
 30
0.0
 10
836.419104
 20
770.855952
 30
0.0
 11
872.565000
 21
800.098192
 31
0.0
 11
855.722651
 21
796.785244
 31
0.0
 11
842.049949
 21
786.075140
 31
0.0
 11
836.419104
 21
770.855952
 31
0.0
  0
LWPOLYLINE
  5
287
100
AcDbEntity
  8
Layer_1
 62
7
100
AcDbPolyline
 90
2
 70
1
 10
836.419104
 20
770.855952
 30
0.0
 10
836.419104
 20
770.855952
 30
0.0
  0
SPLINE
  5
288
100
AcDbEntity
  8
Layer_1
 62
3
100
AcDbSpline
 70
0
 71
3
 72
10
 73
6
 74
4
 40
0.000000
 40
0.000000
 40
0.000000
 40
0.000000
 40
14.735967
 40
31.252066
 40
46.894035
 40
46.894035
 40
46.894035
 40
46.894035
 10
841.501128
 20
770.726912
 30
0.0
 10
843.082465
 20
765.900008
 30
0.0
 10
846.436167
 20
755.663102
 30
0.0
 10
861.548476
 20
747.928910
 30
0.0
 10
872.135961
 20
746.697756
 30
0.0
 10
877.285808
 20
746.098912
 30
0.0
 11
841.501128
 21
770.726912
 31
0.0
 11
847.738702
 21
757.376204
 31
0.0
 11
861.889280
 21
748.859007
 31
0.0
 11
877.285808
 21
746.098912
 31
0.0
  0
LWPOLYLINE
  5
289
100
AcDbEntity
  8
Layer_1
 62
3
100
AcDbPolyline
 90
4
 70
1
 10
877.285808
 20
746.098912
 30
0.0
 10
948.627536
 20
746.098912
 30
0.0
 10
948.627536
 20
795.564272
 30
0.0
 10
874.872848
 20
795.564272
 30
0.0
  0
LWPOLYLINE
  5
28a
100
AcDbEntity
  8
Layer_1
 62
3
100
AcDbPolyline
 90
2
 70
1
 10
841.501128
 20
770.726912
 30
0.0
 10
841.501128
 20
770.726912
 30
0.0
  0
SPLINE
  5
28b
100
AcDbEntity
  8
Layer_1
 62
3
100
AcDbSpline
 70
0
 71
3
 72
10
 73
6
 74
4
 40
0.000000
 40
0.000000
 40
0.000000
 40
0.000000
 40
15.802258
 40
31.361825
 40
45.294693
 40
45.294693
 40
45.294693
 40
45.294693
 10
874.872848
 20
795.564272
 30
0.0
 10
869.608472
 20
795.075090
 30
0.0
 10
859.160570
 20
794.104240
 30
0.0
 10
845.455824
 20
785.043052
 30
0.0
 10
842.769980
 20
775.320199
 30
0.0
 10
841.501128
 20
770.726912
 30
0.0
 11
874.872848
 21
795.564272
 31
0.0
 11
859.323145
 21
792.750361
 31
0.0
 11
846.699813
 21
783.653570
 31
0.0
 11
841.501128
 21
770.726912
 31
0.0
  0
LWPOLYLINE
  5
28c
100
AcDbEntity
  8
Layer_1
 62
7
100
AcDbPolyline
 90
4
 70
1
 10
372.086704
 20
575.190486
 30
0.0
 10
389.247376
 20
575.190486
 30
0.0
 10
389.247376
 20
566.264966
 30
0.0
 10
373.516760
 20
566.264966
 30
0.0
  0
SPLINE
  5
28d
100
AcDbEntity
  8
Layer_1
 62
7
100
AcDbSpline
 70
0
 71
3
 72
10
 73
6
 74
4
 40
0.000000
 40
0.000000
 40
0.000000
 40
0.000000
 40
14.086460
 40
30.841979
 40
49.805571
 40
49.805571
 40
49.805571
 40
49.805571
 10
373.516760
 20
566.264966
 30
0.0
 10
377.363553
 20
563.528169
 30
0.0
 10
385.786016
 20
557.536015
 30
0.0
 10
402.062662
 20
552.895464
 30
0.0
 10
413.952422
 20
552.222858
 30
0.0
 10
420.264800
 20
551.865766
 30
0.0
 11
373.516760
 21
566.264966
 31
0.0
 11
385.402752
 21
558.705102
 31
0.0
 11
401.388723
 21
553.685523
 31
0.0
 11
420.264800
 21
551.865766
 31
0.0
  0
LWPOLYLINE
  5
28e
100
AcDbEntity
  8
Layer_1
 62
7
100
AcDbPolyline
 90
4
 70
1
 10
420.264800
 20
551.865766
 30
0.0
 10
500.052072
 20
552.063046
 30
0.0
 10
500.052072
 20
610.251526
 30
0.0
 10
420.264800
 20
610.251526
 30
0.0
  0
SPLINE
  5
28f
100
AcDbEntity
  8
Layer_1
 62
7
100
AcDbSpline
 70
0
 71
3
 72
13
 73
9
 74
7
 40
0.000000
 40
0.000000
 40
0.000000
 40
0.000000
 40
0.033004
 40
0.065631
 40
0.098624
 40
19.148422
 40
35.963255
 40
50.075602
 40
50.075602
 40
50.075602
 40
50.075602
 10
420.264800
 20
610.251526
 30
0.0
 10
420.253799
 20
610.251526
 30
0.0
 10
420.231922
 20
610.251526
 30
0.0
 10
420.199047
 20
610.251525
 30
0.0
 10
413.827229
 20
610.251996
 30
0.0
 10
401.892607
 20
609.041923
 30
0.0
 10
385.562983
 20
604.514890
 30
0.0
 10
377.155789
 20
598.431178
 30
0.0
 10
373.319512
 20
595.655126
 30
0.0
 11
420.264800
 21
610.251526
 31
0.0
 11
420.231796
 21
610.251526
 31
0.0
 11
420.199169
 21
610.251526
 31
0.0
 11
420.166176
 21
610.251526
 31
0.0
 11
401.207440
 21
608.391114
 31
0.0
 11
385.181907
 21
603.299858
 31
0.0
 11
373.319512
 21
595.655126
 31
0.0
  0
LWPOLYLINE
  5
290
100
AcDbEntity
  8
Layer_1
 62
7
100
AcDbPolyline
 90
6
 70
1
 10
373.319512
 20
595.655126
 30
0.0
 10
389.247376
 20
595.655126
 30
0.0
 10
389.247376
 20
586.532326
 30
0.0
 10
372.086704
 20
586.532326
 30
0.0
 10
372.086704
 20
575.190486
 30
0.0
 10
372.086704
 20
575.190486
 30
0.0
  0
SPLINE
  5
291
100
AcDbEntity
  8
Layer_1
 62
3
100
AcDbSpline
 70
0
 71
3
 72
10
 73
6
 74
4
 40
0.000000
 40
0.000000
 40
0.000000
 40
0.000000
 40
8.990770
 40
19.789772
 40
29.531240
 40
29.531240
 40
29.531240
 40
29.531240
 10
394.874760
 20
563.307046
 30
0.0
 10
397.552908
 20
561.933072
 30
0.0
 10
403.447836
 20
558.908788
 30
0.0
 10
413.270290
 20
557.162766
 30
0.0
 10
420.105269
 20
556.903299
 30
0.0
 10
423.346808
 20
556.780246
 30
0.0
 11
394.874760
 21
563.307046
 31
0.0
 11
403.051083
 21
559.567837
 31
0.0
 11
413.622858
 21
557.364201
 31
0.0
 11
423.346808
 21
556.780246
 31
0.0
  0
LWPOLYLINE
  5
292
100
AcDbEntity
  8
Layer_1
 62
3
100
AcDbPolyline
 90
4
 70
1
 10
423.346808
 20
556.780246
 30
0.0
 10
494.688520
 20
556.780246
 30
0.0
 10
494.688520
 20
606.245606
 30
0.0
 10
420.933856
 20
606.245606
 30
0.0
  0
LWPOLYLINE
  5
293
100
AcDbEntity
  8
Layer_1
 62
3
100
AcDbPolyline
 90
2
 70
1
 10
394.351248
 20
598.541926
 30
0.0
 10
394.874760
 20
563.307046
 30
0.0
  0
LWPOLYLINE
  5
294
100
AcDbEntity
  8
Layer_1
 62
3
100
AcDbPolyline
 90
6
 70
1
 10
1035.489680
 20
742.519576
 30
0.0
 10
1071.600240
 20
742.427576
 30
0.0
 10
1048.361760
 20
796.233840
 30
0.0
 10
1083.183040
 20
795.384040
 30
0.0
 10
1035.245600
 20
808.911576
 30
0.0
 10
1035.489680
 20
742.519576
 30
0.0
  0
LWPOLYLINE
  5
295
100
AcDbEntity
  8
Layer_1
 62
3
100
AcDbPolyline
 90
10
 70
1
 10
648.283936
 20
814.203016
 30
0.0
 10
648.283936
 20
744.179560
 30
0.0
 10
695.870296
 20
744.179560
 30
0.0
 10
695.870296
 20
814.203016
 30
0.0
 10
689.361072
 20
814.203016
 30
0.0
 10
689.361072
 20
796.746464
 30
0.0
 10
654.743848
 20
796.746464
 30
0.0
 10
654.743848
 20
814.203016
 30
0.0
 10
648.283936
 20
814.203016
 30
0.0
 10
648.283936
 20
814.203016
 30
0.0
  0
LWPOLYLINE
  5
296
100
AcDbEntity
  8
Layer_1
 62
3
100
AcDbPolyline
 90
5
 70
1
 10
1107.636560
 20
718.544320
 30
0.0
 10
1138.372160
 20
718.544320
 30
0.0
 10
1138.372160
 20
671.629960
 30
0.0
 10
1107.636560
 20
671.629960
 30
0.0
 10
1107.636560
 20
718.544320
 30
0.0
  0
LWPOLYLINE
  5
297
100
AcDbEntity
  8
Layer_1
 62
7
100
AcDbPolyline
 90
9
 70
1
 10
964.836480
 20
817.877464
 30
0.0
 10
964.836480
 20
737.991568
 30
0.0
 10
1023.074320
 20
737.991568
 30
0.0
 10
1023.074320
 20
805.648024
 30
0.0
 10
999.848240
 20
781.879496
 30
0.0
 10
987.027040
 20
794.404816
 30
0.0
 10
1009.957280
 20
817.877464
 30
0.0
 10
964.836480
 20
817.877464
 30
0.0
 10
964.836480
 20
817.877464
 30
0.0
  0
LWPOLYLINE
  5
298
100
AcDbEntity
  8
Layer_1
 62
3
100
AcDbPolyline
 90
8
 70
1
 10
970.863760
 20
812.969288
 30
0.0
 10
970.863760
 20
743.059280
 30
0.0
 10
1017.920720
 20
743.059280
 30
0.0
 10
1017.920720
 20
792.101088
 30
0.0
 10
1000.411840
 20
773.446048
 30
0.0
 10
978.728960
 20
794.944096
 30
0.0
 10
997.001920
 20
812.969288
 30
0.0
 10
970.863760
 20
812.969288
 30
0.0
  0
LWPOLYLINE
  5
299
100
AcDbEntity
  8
Layer_1
 62
7
100
AcDbPolyline
 90
7
 70
1
 10
763.854976
 20
738.994152
 30
0.0
 10
712.183224
 20
739.183560
 30
0.0
 10
737.037704
 20
791.382472
 30
0.0
 10
706.800008
 20
790.809848
 30
0.0
 10
706.693496
 20
802.353120
 30
0.0
 10
764.147520
 20
818.566136
 30
0.0
 10
763.854976
 20
738.994152
 30
0.0
  0
LWPOLYLINE
  5
29a
100
AcDbEntity
  8
Layer_1
 62
3
100
AcDbPolyline
 90
6
 70
1
 10
758.126024
 20
743.747984
 30
0.0
 10
722.015384
 20
743.655984
 30
0.0
 10
745.253872
 20
797.462248
 30
0.0
 10
710.432616
 20
796.612448
 30
0.0
 10
758.370112
 20
810.139984
 30
0.0
 10
758.126024
 20
743.747984
 30
0.0
  0
LWPOLYLINE
  5
29b
100
AcDbEntity
  8
Layer_1
 62
7
100
AcDbPolyline
 90
10
 70
1
 10
1092.526000
 20
817.007200
 30
0.0
 10
1092.526000
 20
737.170592
 30
0.0
 10
1150.763760
 20
737.170592
 30
0.0
 10
1150.763760
 20
817.007200
 30
0.0
 10
1133.060720
 20
817.007200
 30
0.0
 10
1133.060720
 20
799.846512
 30
0.0
 10
1110.574240
 20
799.846512
 30
0.0
 10
1110.574240
 20
817.007200
 30
0.0
 10
1092.526000
 20
817.007200
 30
0.0
 10
1092.526000
 20
817.007200
 30
0.0
  0
LWPOLYLINE
  5
29c
100
AcDbEntity
  8
Layer_1
 62
3
100
AcDbPolyline
 90
10
 70
1
 10
1097.560640
 20
811.501520
 30
0.0
 10
1097.560640
 20
741.478056
 30
0.0
 10
1145.147040
 20
741.478056
 30
0.0
 10
1145.147040
 20
811.501520
 30
0.0
 10
1138.637760
 20
811.501520
 30
0.0
 10
1138.637760
 20
794.044960
 30
0.0
 10
1104.020560
 20
794.044960
 30
0.0
 10
1104.020560
 20
811.501520
 30
0.0
 10
1097.560640
 20
811.501520
 30
0.0
 10
1097.560640
 20
811.501520
 30
0.0
  0
LWPOLYLINE
  5
29d
100
AcDbEntity
  8
Layer_1
 62
7
100
AcDbPolyline
 90
5
 70
1
 10
650.172584
 20
726.113528
 30
0.0
 10
691.680240
 20
726.113528
 30
0.0
 10
691.680240
 20
667.395376
 30
0.0
 10
650.172584
 20
667.395376
 30
0.0
 10
650.172584
 20
726.113528
 30
0.0
  0
LWPOLYLINE
  5
29e
100
AcDbEntity
  8
Layer_1
 62
3
100
AcDbPolyline
 90
5
 70
1
 10
655.531872
 20
720.175272
 30
0.0
 10
686.267424
 20
720.175272
 30
0.0
 10
686.267424
 20
673.260896
 30
0.0
 10
655.531872
 20
673.260896
 30
0.0
 10
655.531872
 20
720.175272
 30
0.0
  0
LWPOLYLINE
  5
29f
100
AcDbEntity
  8
Layer_1
 62
7
100
AcDbPolyline
 90
5
 70
1
 10
711.057616
 20
726.113528
 30
0.0
 10
752.565280
 20
726.113528
 30
0.0
 10
752.565280
 20
667.395376
 30
0.0
 10
711.057616
 20
667.395376
 30
0.0
 10
711.057616
 20
726.113528
 30
0.0
  0
LWPOLYLINE
  5
2a0
100
AcDbEntity
  8
Layer_1
 62
3
100
AcDbPolyline
 90
5
 70
1
 10
716.416912
 20
720.175272
 30
0.0
 10
747.152464
 20
720.175272
 30
0.0
 10
747.152464
 20
673.260896
 30
0.0
 10
716.416912
 20
673.260896
 30
0.0
 10
716.416912
 20
720.175272
 30
0.0
  0
LWPOLYLINE
  5
2a1
100
AcDbEntity
  8
Layer_1
 62
7
100
AcDbPolyline
 90
5
 70
1
 10
780.398936
 20
726.113528
 30
0.0
 10
821.906560
 20
726.113528
 30
0.0
 10
821.906560
 20
667.395376
 30
0.0
 10
780.398936
 20
667.395376
 30
0.0
 10
780.398936
 20
726.113528
 30
0.0
  0
LWPOLYLINE
  5
2a2
100
AcDbEntity
  8
Layer_1
 62
3
100
AcDbPolyline
 90
5
 70
1
 10
785.758224
 20
720.175272
 30
0.0
 10
816.493760
 20
720.175272
 30
0.0
 10
816.493760
 20
673.260896
 30
0.0
 10
785.758224
 20
673.260896
 30
0.0
 10
785.758224
 20
720.175272
 30
0.0
  0
LWPOLYLINE
  5
2a3
100
AcDbEntity
  8
Layer_1
 62
7
100
AcDbPolyline
 90
5
 70
1
 10
845.512080
 20
726.113544
 30
0.0
 10
887.019760
 20
726.113544
 30
0.0
 10
887.019760
 20
667.395392
 30
0.0
 10
845.512080
 20
667.395392
 30
0.0
 10
845.512080
 20
726.113544
 30
0.0
  0
LWPOLYLINE
  5
2a4
100
AcDbEntity
  8
Layer_1
 62
3
100
AcDbPolyline
 90
5
 70
1
 10
850.871440
 20
720.175288
 30
0.0
 10
881.606960
 20
720.175288
 30
0.0
 10
881.606960
 20
673.260912
 30
0.0
 10
850.871440
 20
673.260912
 30
0.0
 10
850.871440
 20
720.175288
 30
0.0
  0
LWPOLYLINE
  5
2a5
100
AcDbEntity
  8
Layer_1
 62
7
100
AcDbPolyline
 90
5
 70
1
 10
908.088400
 20
724.422280
 30
0.0
 10
949.596080
 20
724.422280
 30
0.0
 10
949.596080
 20
665.704136
 30
0.0
 10
908.088400
 20
665.704136
 30
0.0
 10
908.088400
 20
724.422280
 30
0.0
  0
LWPOLYLINE
  5
2a6
100
AcDbEntity
  8
Layer_1
 62
3
100
AcDbPolyline
 90
5
 70
1
 10
913.447680
 20
718.484024
 30
0.0
 10
944.183280
 20
718.484024
 30
0.0
 10
944.183280
 20
671.569664
 30
0.0
 10
913.447680
 20
671.569664
 30
0.0
 10
913.447680
 20
718.484024
 30
0.0
  0
LWPOLYLINE
  5
2a7
100
AcDbEntity
  8
Layer_1
 62
7
100
AcDbPolyline
 90
5
 70
1
 10
973.201600
 20
724.422280
 30
0.0
 10
1014.709280
 20
724.422280
 30
0.0
 10
1014.709280
 20
665.704136
 30
0.0
 10
973.201600
 20
665.704136
 30
0.0
 10
973.201600
 20
724.422280
 30
0.0
  0
LWPOLYLINE
  5
2a8
100
AcDbEntity
  8
Layer_1
 62
3
100
AcDbPolyline
 90
5
 70
1
 10
978.560880
 20
718.484024
 30
0.0
 10
1009.296400
 20
718.484024
 30
0.0
 10
1009.296400
 20
671.569664
 30
0.0
 10
978.560880
 20
671.569664
 30
0.0
 10
978.560880
 20
718.484024
 30
0.0
  0
LWPOLYLINE
  5
2a9
100
AcDbEntity
  8
Layer_1
 62
7
100
AcDbPolyline
 90
5
 70
1
 10
1033.241040
 20
723.576648
 30
0.0
 10
1074.748640
 20
723.576648
 30
0.0
 10
1074.748640
 20
664.858504
 30
0.0
 10
1033.241040
 20
664.858504
 30
0.0
 10
1033.241040
 20
723.576648
 30
0.0
  0
SPLINE
  5
2aa
100
AcDbEntity
  8
Layer_1
 62
3
100
AcDbSpline
 70
0
 71
3
 72
10
 73
6
 74
4
 40
0.000000
 40
0.000000
 40
0.000000
 40
0.000000
 40
10.092236
 40
19.362447
 40
28.197486
 40
28.197486
 40
28.197486
 40
28.197486
 10
420.933856
 20
606.245606
 30
0.0
 10
417.587772
 20
606.028130
 30
0.0
 10
411.168146
 20
605.610893
 30
0.0
 10
401.731280
 20
603.836914
 30
0.0
 10
396.771522
 20
600.278412
 30
0.0
 10
394.351248
 20
598.541926
 30
0.0
 11
420.933856
 21
606.245606
 31
0.0
 11
410.879191
 21
605.375591
 31
0.0
 11
401.873897
 21
603.175247
 31
0.0
 11
394.351248
 21
598.541926
 31
0.0
  0
LWPOLYLINE
  5
2ab
100
AcDbEntity
  8
Layer_1
 62
3
100
AcDbPolyline
 90
5
 70
1
 10
1038.600320
 20
717.638392
 30
0.0
 10
1069.335840
 20
717.638392
 30
0.0
 10
1069.335840
 20
670.724032
 30
0.0
 10
1038.600320
 20
670.724032
 30
0.0
 10
1038.600320
 20
717.638392
 30
0.0
  0
ENDSEC
  0
SECTION
  2
OBJECTS
  0
DICTIONARY
  5
C
330
0
100
AcDbDictionary
  3
ACAD_GROUP
350
D
  3
ACAD_MLINESTYLE
350
17
  0
DICTIONARY
  5
D
330
C
100
AcDbDictionary
  0
DICTIONARY
  5
1A
330
C
100
AcDbDictionary
  0
DICTIONARY
  5
17
330
C
100
AcDbDictionary
  3
STANDARD
350
18
  0
DICTIONARY
  5
19
330
C
100
AcDbDictionary
  0
ENDSEC
  0
EOF
