  0
SECTION
  2
HEADER
  9
$ACADVER
  1
AC1014
  9
$HANDSEED
  5
FFFF
  9
$MEASUREMENT
 70
     1
  0
ENDSEC
  0
SECTION
  2
TABLES
  0
TABLE
  2
VPORT
  5
8
330
0
100
AcDbSymbolTable
 70
     4
  0
VPORT
  5
2E
330
8
100
AcDbSymbolTableRecord
100
AcDbViewportTableRecord
  2
*ACTIVE
 70
     0
 10
0.0
 20
0.0
 11
1.0
 21
1.0
 12
210.0
 22
148.5
 13
0.0
 23
0.0
 14
10.0
 24
10.0
 15
10.0
 25
10.0
 16
0.0
 26
0.0
 36
1.0
 17
0.0
 27
0.0
 37
0.0
 40
341.0
 41
1.24
 42
50.0
 43
0.0
 44
0.0
 50
0.0
 51
0.0
 71
     0
 72
   100
 73
     1
 74
     3
 75
     0
 76
     0
 77
     0
 78
     0
  0
ENDTAB
  0
TABLE
  2
LTYPE
  5
5
330
0
100
AcDbSymbolTable
 70
     1
  0
LTYPE
  5
14
330
5
100
AcDbSymbolTableRecord
100
AcDbLinetypeTableRecord
  2
BYBLOCK
 70
     0
  3

 72
    65
 73
     0
 40
0.0
  0
LTYPE
  5
15
330
5
100
AcDbSymbolTableRecord
100
AcDbLinetypeTableRecord
  2
BYLAYER
 70
     0
  3

 72
    65
 73
     0
 40
0.0
  0
LTYPE
  5
16
330
5
100
AcDbSymbolTableRecord
100
AcDbLinetypeTableRecord
  2
CONTINUOUS
 70
     0
  3
Solid line
 72
    65
 73
     0
 40
0.0
  0
ENDTAB
  0
TABLE
  2
LAYER
  5
2
100
AcDbSymbolTable
 70
2
  0
LAYER
  5
50
100
AcDbSymbolTableRecord
100
AcDbLayerTableRecord
  2
0
 70
0
  6
CONTINUOUS
  0
LAYER
  5
51
100
AcDbSymbolTableRecord
100
AcDbLayerTableRecord
  2
Layer_1
 70
0
  6
CONTINUOUS
  0
ENDTAB
  0
TABLE
  2
STYLE
  5
3
330
0
100
AcDbSymbolTable
 70
     1
  0
STYLE
  5
11
330
3
100
AcDbSymbolTableRecord
100
AcDbTextStyleTableRecord
  2
STANDARD
 70
     0
 40
0.0
 41
1.0
 50
0.0
 71
     0
 42
2.5
  3
txt
  4

  0
ENDTAB
  0
TABLE
  2
VIEW
  5
6
330
0
100
AcDbSymbolTable
 70
     0
  0
ENDTAB
  0
TABLE
  2
UCS
  5
7
330
0
100
AcDbSymbolTable
 70
     0
  0
ENDTAB
  0
TABLE
  2
APPID
  5
9
330
0
100
AcDbSymbolTable
 70
     2
  0
APPID
  5
12
330
9
100
AcDbSymbolTableRecord
100
AcDbRegAppTableRecord
  2
ACAD
 70
     0
  0
ENDTAB
  0
TABLE
  2
DIMSTYLE
  5
A
330
0
100
AcDbSymbolTable
 70
     1
  0
DIMSTYLE
105
27
330
A
100
AcDbSymbolTableRecord
100
AcDbDimStyleTableRecord
  2
ISO-25
 70
     0
  3

  4

  5

  6

  7

 40
1.0
 41
2.5
 42
0.625
 43
3.75
 44
1.25
 45
0.0
 46
0.0
 47
0.0
 48
0.0
140
2.5
141
2.5
142
0.0
143
0.03937007874016
144
1.0
145
0.0
146
1.0
147
0.625
 71
     0
 72
     0
 73
     0
 74
     0
 75
     0
 76
     0
 77
     1
 78
     8
170
     0
171
     3
172
     1
173
     0
174
     0
175
     0
176
     0
177
     0
178
     0
270
     2
271
     2
272
     2
273
     2
274
     3
340
11
275
     0
280
     0
281
     0
282
     0
283
     0
284
     8
285
     0
286
     0
287
     3
288
     0
  0
ENDTAB
  0
TABLE
  2
BLOCK_RECORD
  5
1
330
0
100
AcDbSymbolTable
 70
     1
  0
BLOCK_RECORD
  5
1F
330
1
100
AcDbSymbolTableRecord
100
AcDbBlockTableRecord
  2
*MODEL_SPACE
  0
BLOCK_RECORD
  5
1B
330
1
100
AcDbSymbolTableRecord
100
AcDbBlockTableRecord
  2
*PAPER_SPACE
  0
ENDTAB
  0
ENDSEC
  0
SECTION
  2
BLOCKS
  0
BLOCK
  5
20
330
1F
100
AcDbEntity
  8
0
100
AcDbBlockBegin
  2
*MODEL_SPACE
 70
     0
 10
0.0
 20
0.0
 30
0.0
  3
*MODEL_SPACE
  1

  0
ENDBLK
  5
21
330
1F
100
AcDbEntity
  8
0
100
AcDbBlockEnd
  0
BLOCK
  5
1C
330
1B
100
AcDbEntity
 67
     1
  8
0
100
AcDbBlockBegin
  2
*PAPER_SPACE
  1

  0
ENDBLK
  5
1D
330
1B
100
AcDbEntity
 67
     1
  8
0
100
AcDbBlockEnd
  0
ENDSEC
  0
SECTION
  2
ENTITIES
  0
SPLINE
  5
100
100
AcDbEntity
  8
Layer_1
 62
7
100
AcDbSpline
 70
0
 71
3
 72
10
 73
6
 74
4
 40
0.000000
 40
0.000000
 40
0.000000
 40
0.000000
 40
51.562206
 40
104.540553
 40
159.476740
 40
159.476740
 40
159.476740
 40
159.476740
 10
488.615736
 20
541.193256
 30
0.0
 10
471.428349
 20
541.150072
 30
0.0
 10
436.581528
 20
541.062517
 30
0.0
 10
383.426646
 20
540.081174
 30
0.0
 10
347.486714
 20
538.548498
 30
0.0
 10
329.190728
 20
537.768256
 30
0.0
 11
488.615736
 21
541.193256
 31
0.0
 11
437.054210
 21
540.928507
 31
0.0
 11
384.086163
 21
539.883874
 31
0.0
 11
329.190728
 21
537.768256
 31
0.0
  0
SPLINE
  5
101
100
AcDbEntity
  8
Layer_1
 62
7
100
AcDbSpline
 70
0
 71
3
 72
10
 73
6
 74
4
 40
0.000000
 40
0.000000
 40
0.000000
 40
0.000000
 40
77.971274
 40
114.533418
 40
129.009252
 40
129.009252
 40
129.009252
 40
129.009252
 10
329.190728
 20
537.768256
 30
0.0
 10
303.468356
 20
535.954629
 30
0.0
 10
265.684298
 20
533.290558
 30
0.0
 10
222.529897
 20
520.853828
 30
0.0
 10
210.696898
 20
508.419880
 30
0.0
 10
207.340720
 20
504.893256
 30
0.0
 11
329.190728
 21
537.768256
 31
0.0
 11
251.778871
 21
528.444960
 31
0.0
 11
217.830748
 21
514.868680
 31
0.0
 11
207.340720
 21
504.893256
 31
0.0
  0
SPLINE
  5
102
100
AcDbEntity
  8
Layer_1
 62
7
100
AcDbSpline
 70
0
 71
3
 72
10
 73
6
 74
4
 40
0.000000
 40
0.000000
 40
0.000000
 40
0.000000
 40
17.320730
 40
44.341936
 40
57.633862
 40
57.633862
 40
57.633862
 40
57.633862
 10
207.340720
 20
504.893256
 30
0.0
 10
207.576089
 20
499.199138
 30
0.0
 10
208.178646
 20
484.621910
 30
0.0
 10
212.215796
 20
463.935861
 30
0.0
 10
223.462878
 20
456.055197
 30
0.0
 10
227.171232
 20
453.456808
 30
0.0
 11
207.340720
 21
504.893256
 31
0.0
 11
208.428819
 21
487.606737
 31
0.0
 11
216.961885
 21
461.968244
 31
0.0
 11
227.171232
 21
453.456808
 31
0.0
  0
SPLINE
  5
103
100
AcDbEntity
  8
Layer_1
 62
7
100
AcDbSpline
 70
0
 71
3
 72
10
 73
6
 74
4
 40
0.000000
 40
0.000000
 40
0.000000
 40
0.000000
 40
58.394194
 40
114.924734
 40
156.506231
 40
156.506231
 40
156.506231
 40
156.506231
 10
227.171232
 20
453.456808
 30
0.0
 10
230.584750
 20
475.073216
 30
0.0
 10
237.302845
 20
517.616142
 30
0.0
 10
300.627058
 20
521.876001
 30
0.0
 10
330.521129
 20
510.317106
 30
0.0
 10
343.190728
 20
505.418256
 30
0.0
 11
227.171232
 21
453.456808
 31
0.0
 11
247.682401
 21
508.130145
 31
0.0
 11
303.421079
 21
517.558924
 31
0.0
 11
343.190728
 21
505.418256
 31
0.0
  0
SPLINE
  5
104
100
AcDbEntity
  8
Layer_1
 62
7
100
AcDbSpline
 70
0
 71
3
 72
10
 73
6
 74
4
 40
0.000000
 40
0.000000
 40
0.000000
 40
0.000000
 40
59.363010
 40
182.489101
 40
308.161673
 40
308.161673
 40
308.161673
 40
308.161673
 10
343.190728
 20
505.418256
 30
0.0
 10
362.981459
 20
505.691178
 30
0.0
 10
423.820571
 20
506.530172
 30
0.0
 10
526.162677
 20
516.546378
 30
0.0
 10
609.088896
 20
518.605565
 30
0.0
 10
650.976384
 20
519.645696
 30
0.0
 11
343.190728
 21
505.418256
 31
0.0
 11
402.538211
 21
506.775893
 31
0.0
 11
525.390176
 21
514.987413
 31
0.0
 11
650.976384
 21
519.645696
 31
0.0
  0
LWPOLYLINE
  5
105
100
AcDbEntity
  8
Layer_1
 62
7
100
AcDbPolyline
 90
6
 70
1
 10
650.976384
 20
519.645696
 30
0.0
 10
650.976384
 20
527.070696
 30
0.0
 10
659.301344
 20
527.070696
 30
0.0
 10
659.301344
 20
535.495696
 30
0.0
 10
650.976384
 20
535.495696
 30
0.0
 10
650.976384
 20
541.895696
 30
0.0
  0
LWPOLYLINE
  5
106
100
AcDbEntity
  8
Layer_1
 62
7
100
AcDbPolyline
 90
2
 70
1
 10
488.615736
 20
541.193256
 30
0.0
 10
488.615736
 20
541.193256
 30
0.0
  0
LWPOLYLINE
  5
107
100
AcDbEntity
  8
Layer_1
 62
7
100
AcDbPolyline
 90
10
 70
1
 10
820.834792
 20
515.483238
 30
0.0
 10
433.984792
 20
370.683238
 30
0.0
 10
433.984792
 20
370.258238
 30
0.0
 10
47.684792
 20
514.858238
 30
0.0
 10
347.609792
 20
257.483238
 30
0.0
 10
434.534792
 20
318.733238
 30
0.0
 10
434.534792
 20
318.958238
 30
0.0
 10
520.909792
 20
258.108238
 30
0.0
 10
820.834792
 20
515.483238
 30
0.0
 10
820.834792
 20
515.483238
 30
0.0
  0
LWPOLYLINE
  5
108
100
AcDbEntity
  8
Layer_1
 62
7
100
AcDbPolyline
 90
5
 70
1
 10
244.384274
 20
366.679526
 30
0.0
 10
252.680730
 20
366.679526
 30
0.0
 10
252.680730
 20
358.383070
 30
0.0
 10
244.384274
 20
358.383070
 30
0.0
 10
244.384274
 20
366.679526
 30
0.0
  0
SPLINE
  5
109
100
AcDbEntity
  8
Layer_1
 62
7
100
AcDbSpline
 70
0
 71
3
 72
10
 73
6
 74
4
 40
0.000000
 40
0.000000
 40
0.000000
 40
0.000000
 40
47.872553
 40
116.600834
 40
162.362591
 40
162.362591
 40
162.362591
 40
162.362591
 10
650.976384
 20
541.895696
 30
0.0
 10
635.019412
 20
541.760871
 30
0.0
 10
596.153795
 20
541.432483
 30
0.0
 10
542.032890
 20
541.284739
 30
0.0
 10
503.869623
 20
541.219380
 30
0.0
 10
488.615736
 20
541.193256
 30
0.0
 11
650.976384
 21
541.895696
 31
0.0
 11
603.105238
 21
541.528689
 31
0.0
 11
534.377415
 21
541.277831
 31
0.0
 11
488.615736
 21
541.193256
 31
0.0
  0
SPLINE
  5
10a
100
AcDbEntity
  8
Layer_1
 62
7
100
AcDbSpline
 70
0
 71
3
 72
10
 73
6
 74
4
 40
0.000000
 40
0.000000
 40
0.000000
 40
0.000000
 40
51.562206
 40
104.540553
 40
159.476740
 40
159.476740
 40
159.476740
 40
159.476740
 10
413.783536
 20
453.860712
 30
0.0
 10
430.970923
 20
453.903896
 30
0.0
 10
465.817744
 20
453.991451
 30
0.0
 10
518.972626
 20
454.972794
 30
0.0
 10
554.912558
 20
456.505470
 30
0.0
 10
573.208544
 20
457.285712
 30
0.0
 11
413.783536
 21
453.860712
 31
0.0
 11
465.345062
 21
454.125461
 31
0.0
 11
518.313109
 21
455.170094
 31
0.0
 11
573.208544
 21
457.285712
 31
0.0
  0
SPLINE
  5
10b
100
AcDbEntity
  8
Layer_1
 62
7
100
AcDbSpline
 70
0
 71
3
 72
10
 73
6
 74
4
 40
0.000000
 40
0.000000
 40
0.000000
 40
0.000000
 40
77.971274
 40
114.533418
 40
129.009252
 40
129.009252
 40
129.009252
 40
129.009252
 10
573.208544
 20
457.285712
 30
0.0
 10
598.930916
 20
459.099339
 30
0.0
 10
636.714974
 20
461.763410
 30
0.0
 10
679.869375
 20
474.200140
 30
0.0
 10
691.702374
 20
486.634088
 30
0.0
 10
695.058552
 20
490.160712
 30
0.0
 11
573.208544
 21
457.285712
 31
0.0
 11
650.620401
 21
466.609008
 31
0.0
 11
684.568524
 21
480.185288
 31
0.0
 11
695.058552
 21
490.160712
 31
0.0
  0
SPLINE
  5
10c
100
AcDbEntity
  8
Layer_1
 62
7
100
AcDbSpline
 70
0
 71
3
 72
10
 73
6
 74
4
 40
0.000000
 40
0.000000
 40
0.000000
 40
0.000000
 40
17.320730
 40
44.341936
 40
57.633862
 40
57.633862
 40
57.633862
 40
57.633862
 10
695.058552
 20
490.160712
 30
0.0
 10
694.823183
 20
495.854830
 30
0.0
 10
694.220626
 20
510.432058
 30
0.0
 10
690.183476
 20
531.118107
 30
0.0
 10
678.936394
 20
538.998771
 30
0.0
 10
675.228040
 20
541.597160
 30
0.0
 11
695.058552
 21
490.160712
 31
0.0
 11
693.970453
 21
507.447231
 31
0.0
 11
685.437387
 21
533.085724
 31
0.0
 11
675.228040
 21
541.597160
 31
0.0
  0
SPLINE
  5
10d
100
AcDbEntity
  8
Layer_1
 62
7
100
AcDbSpline
 70
0
 71
3
 72
10
 73
6
 74
4
 40
0.000000
 40
0.000000
 40
0.000000
 40
0.000000
 40
58.394194
 40
114.924734
 40
156.506231
 40
156.506231
 40
156.506231
 40
156.506231
 10
675.228040
 20
541.597160
 30
0.0
 10
671.814522
 20
519.980752
 30
0.0
 10
665.096427
 20
477.437826
 30
0.0
 10
601.772214
 20
473.177967
 30
0.0
 10
571.878143
 20
484.736862
 30
0.0
 10
559.208544
 20
489.635712
 30
0.0
 11
675.228040
 21
541.597160
 31
0.0
 11
654.716871
 21
486.923823
 31
0.0
 11
598.978193
 21
477.495044
 31
0.0
 11
559.208544
 21
489.635712
 31
0.0
  0
LWPOLYLINE
  5
10e
100
AcDbEntity
  8
Layer_1
 62
7
100
AcDbPolyline
 90
5
 70
1
 10
624.844192
 20
367.297446
 30
0.0
 10
616.547736
 20
367.297446
 30
0.0
 10
616.547736
 20
359.000990
 30
0.0
 10
624.844192
 20
359.000990
 30
0.0
 10
624.844192
 20
367.297446
 30
0.0
  0
SPLINE
  5
10f
100
AcDbEntity
  8
Layer_1
 62
7
100
AcDbSpline
 70
0
 71
3
 72
10
 73
6
 74
4
 40
0.000000
 40
0.000000
 40
0.000000
 40
0.000000
 40
59.363009
 40
182.489098
 40
308.161665
 40
308.161665
 40
308.161665
 40
308.161665
 10
559.208544
 20
489.635712
 30
0.0
 10
539.417813
 20
489.362790
 30
0.0
 10
478.578702
 20
488.523796
 30
0.0
 10
376.236598
 20
478.507590
 30
0.0
 10
293.310383
 20
476.448403
 30
0.0
 10
251.422896
 20
475.408272
 30
0.0
 11
559.208544
 21
489.635712
 31
0.0
 11
499.861061
 21
488.278075
 31
0.0
 11
377.009099
 21
480.066555
 31
0.0
 11
251.422896
 21
475.408272
 31
0.0
  0
LWPOLYLINE
  5
110
100
AcDbEntity
  8
Layer_1
 62
7
100
AcDbPolyline
 90
6
 70
1
 10
251.422896
 20
475.408272
 30
0.0
 10
251.422896
 20
467.983272
 30
0.0
 10
243.097936
 20
467.983272
 30
0.0
 10
243.097936
 20
459.558272
 30
0.0
 10
251.422896
 20
459.558272
 30
0.0
 10
251.422896
 20
453.158272
 30
0.0
  0
SPLINE
  5
111
100
AcDbEntity
  8
Layer_1
 62
7
100
AcDbSpline
 70
0
 71
3
 72
10
 73
6
 74
4
 40
0.000000
 40
0.000000
 40
0.000000
 40
0.000000
 40
47.872547
 40
116.600826
 40
162.362583
 40
162.362583
 40
162.362583
 40
162.362583
 10
251.422896
 20
453.158272
 30
0.0
 10
267.379866
 20
453.293097
 30
0.0
 10
306.245480
 20
453.621485
 30
0.0
 10
360.366383
 20
453.769229
 30
0.0
 10
398.529649
 20
453.834588
 30
0.0
 10
413.783536
 20
453.860712
 30
0.0
 11
251.422896
 21
453.158272
 31
0.0
 11
299.294036
 21
453.525279
 31
0.0
 11
368.021857
 21
453.776137
 31
0.0
 11
413.783536
 21
453.860712
 31
0.0
  0
LWPOLYLINE
  5
112
100
AcDbEntity
  8
Layer_1
 62
7
100
AcDbPolyline
 90
2
 70
1
 10
413.783536
 20
453.860712
 30
0.0
 10
413.783536
 20
453.860712
 30
0.0
  0
ENDSEC
  0
SECTION
  2
OBJECTS
  0
DICTIONARY
  5
C
330
0
100
AcDbDictionary
  3
ACAD_GROUP
350
D
  3
ACAD_MLINESTYLE
350
17
  0
DICTIONARY
  5
D
330
C
100
AcDbDictionary
  0
DICTIONARY
  5
1A
330
C
100
AcDbDictionary
  0
DICTIONARY
  5
17
330
C
100
AcDbDictionary
  3
STANDARD
350
18
  0
DICTIONARY
  5
19
330
C
100
AcDbDictionary
  0
ENDSEC
  0
EOF
