  0
SECTION
  2
HEADER
  9
$ACADVER
  1
AC1009
  9
$DWGCODEPAGE
  3
ansi_1250
  9
$INSBASE
 10
0.0
 20
0.0
 30
0.0
  9
$EXTMIN
 10
71.00665033052337
 20
81.78835243585559
 30
0.0
  9
$EXTMAX
 10
933.5866503305233
 20
1064.629375402856
 30
0.0
  9
$LIMMIN
 10
0.0
 20
0.0
  9
$LIMMAX
 10
12.0
 20
9.0
  9
$ORTHOMODE
 70
     0
  9
$REGENMODE
 70
     1
  9
$FILLMODE
 70
     1
  9
$QTEXTMODE
 70
     0
  9
$MIRRTEXT
 70
     1
  9
$DRAGMODE
 70
     2
  9
$LTSCALE
 40
1.0
  9
$OSMODE
 70
    37
  9
$ATTMODE
 70
     1
  9
$TEXTSIZE
 40
0.2
  9
$TRACEWID
 40
0.05
  9
$TEXTSTYLE
  7
STANDARD
  9
$CLAYER
  8
2_PRZEJAZD_B
  9
$CELTYPE
  6
BYLAYER
  9
$CECOLOR
 62
   256
  9
$DIMSCALE
 40
1.0
  9
$DIMASZ
 40
0.18
  9
$DIMEXO
 40
0.0625
  9
$DIMDLI
 40
0.38
  9
$DIMRND
 40
0.0
  9
$DIMDLE
 40
0.0
  9
$DIMEXE
 40
0.18
  9
$DIMTP
 40
0.0
  9
$DIMTM
 40
0.0
  9
$DIMTXT
 40
0.18
  9
$DIMCEN
 40
0.09
  9
$DIMTSZ
 40
0.0
  9
$DIMTOL
 70
     0
  9
$DIMLIM
 70
     0
  9
$DIMTIH
 70
     1
  9
$DIMTOH
 70
     1
  9
$DIMSE1
 70
     0
  9
$DIMSE2
 70
     0
  9
$DIMTAD
 70
     0
  9
$DIMZIN
 70
     0
  9
$DIMBLK
  1

  9
$DIMASO
 70
     1
  9
$DIMSHO
 70
     1
  9
$DIMPOST
  1

  9
$DIMAPOST
  1

  9
$DIMALT
 70
     0
  9
$DIMALTD
 70
     2
  9
$DIMALTF
 40
25.4
  9
$DIMLFAC
 40
1.0
  9
$DIMTOFL
 70
     0
  9
$DIMTVP
 40
0.0
  9
$DIMTIX
 70
     0
  9
$DIMSOXD
 70
     0
  9
$DIMSAH
 70
     0
  9
$DIMBLK1
  1

  9
$DIMBLK2
  1

  9
$DIMSTYLE
  2
STANDARD
  9
$DIMCLRD
 70
     0
  9
$DIMCLRE
 70
     0
  9
$DIMCLRT
 70
     0
  9
$DIMTFAC
 40
1.0
  9
$DIMGAP
 40
0.09
  9
$LUNITS
 70
     2
  9
$LUPREC
 70
     2
  9
$SKETCHINC
 40
0.1
  9
$FILLETRAD
 40
0.5
  9
$AUNITS
 70
     0
  9
$AUPREC
 70
     0
  9
$MENU
  1
.
  9
$ELEVATION
 40
0.0
  9
$PELEVATION
 40
0.0
  9
$THICKNESS
 40
0.0
  9
$LIMCHECK
 70
     0
  9
$CHAMFERA
 40
0.0
  9
$CHAMFERB
 40
0.0
  9
$SKPOLY
 70
     0
  9
$TDCREATE
 40
2456917.039746319
  9
$TDUPDATE
 40
2456917.039755729
  9
$TDINDWG
 40
0.0000000116
  9
$TDUSRTIMER
 40
0.0000000116
  9
$USRTIMER
 70
     1
  9
$ANGBASE
 50
0.0
  9
$ANGDIR
 70
     0
  9
$PDMODE
 70
     0
  9
$PDSIZE
 40
0.0
  9
$PLINEWID
 40
0.0
  9
$COORDS
 70
     1
  9
$SPLFRAME
 70
     0
  9
$SPLINETYPE
 70
     6
  9
$SPLINESEGS
 70
     8
  9
$ATTDIA
 70
     0
  9
$ATTREQ
 70
     1
  9
$HANDLING
 70
     1
  9
$HANDSEED
  5
7FE
  9
$SURFTAB1
 70
     6
  9
$SURFTAB2
 70
     6
  9
$SURFTYPE
 70
     6
  9
$SURFU
 70
     6
  9
$SURFV
 70
     6
  9
$UCSNAME
  2

  9
$UCSORG
 10
0.0
 20
0.0
 30
0.0
  9
$UCSXDIR
 10
1.0
 20
0.0
 30
0.0
  9
$UCSYDIR
 10
0.0
 20
1.0
 30
0.0
  9
$PUCSNAME
  2

  9
$PUCSORG
 10
0.0
 20
0.0
 30
0.0
  9
$PUCSXDIR
 10
1.0
 20
0.0
 30
0.0
  9
$PUCSYDIR
 10
0.0
 20
1.0
 30
0.0
  9
$USERI1
 70
     0
  9
$USERI2
 70
     0
  9
$USERI3
 70
     0
  9
$USERI4
 70
     0
  9
$USERI5
 70
     0
  9
$USERR1
 40
0.0
  9
$USERR2
 40
0.0
  9
$USERR3
 40
0.0
  9
$USERR4
 40
0.0
  9
$USERR5
 40
0.0
  9
$WORLDVIEW
 70
     1
  9
$SHADEDGE
 70
     3
  9
$SHADEDIF
 70
    70
  9
$TILEMODE
 70
     1
  9
$MAXACTVP
 70
    64
  9
$PLIMCHECK
 70
     0
  9
$PEXTMIN
 10
1.000000000000000E+20
 20
1.000000000000000E+20
 30
1.000000000000000E+20
  9
$PEXTMAX
 10
-1.000000000000000E+20
 20
-1.000000000000000E+20
 30
-1.000000000000000E+20
  9
$PLIMMIN
 10
0.0
 20
0.0
  9
$PLIMMAX
 10
12.0
 20
9.0
  9
$UNITMODE
 70
     0
  9
$VISRETAIN
 70
     1
  9
$PLINEGEN
 70
     0
  9
$PSLTSCALE
 70
     1
  0
ENDSEC
  0
SECTION
  2
TABLES
  0
TABLE
  2
VPORT
 70
     1
  0
VPORT
  2
*ACTIVE
 70
     0
 10
0.0
 20
0.0
 11
1.0
 21
1.0
 12
502.2966503305233
 22
573.2088639193558
 13
0.0
 23
0.0
 14
0.5
 24
0.5
 15
0.5
 25
0.5
 16
0.0
 26
0.0
 36
1.0
 17
0.0
 27
0.0
 37
0.0
 40
1002.497843426341
 41
0.8776393942084788
 42
50.0
 43
0.0
 44
0.0
 50
0.0
 51
0.0
 71
     0
 72
   100
 73
     1
 74
     3
 75
     0
 76
     0
 77
     0
 78
     0
  0
ENDTAB
  0
TABLE
  2
LTYPE
 70
     1
  0
LTYPE
  2
CONTINUOUS
 70
     0
  3
Solid line
 72
    65
 73
     0
 40
0.0
  0
ENDTAB
  0
TABLE
  2
LAYER
 70
     3
  0
LAYER
  2
0
 70
     0
 62
     7
  6
CONTINUOUS
  0
LAYER
  2
2_PRZEJAZD_B
 70
     0
 62
   176
  6
CONTINUOUS
  0
LAYER
  2
1_PRZEJAZD_A
 70
     0
 62
    12
  6
CONTINUOUS
  0
ENDTAB
  0
TABLE
  2
STYLE
 70
     1
  0
STYLE
  2
STANDARD
 70
     0
 40
0.0
 41
1.0
 50
0.0
 71
     0
 42
0.2
  3
txt
  4

  0
ENDTAB
  0
TABLE
  2
VIEW
 70
     0
  0
ENDTAB
  0
TABLE
  2
UCS
 70
     0
  0
ENDTAB
  0
TABLE
  2
APPID
 70
     1
  0
APPID
  2
ACAD
 70
     0
  0
ENDTAB
  0
TABLE
  2
DIMSTYLE
 70
     1
  0
DIMSTYLE
  2
STANDARD
 70
     0
  3

  4

  5

  6

  7

 40
1.0
 41
0.18
 42
0.0625
 43
0.38
 44
0.18
 45
0.0
 46
0.0
 47
0.0
 48
0.0
140
0.18
141
0.09
142
0.0
143
25.4
144
1.0
145
0.0
146
1.0
147
0.09
 71
     0
 72
     0
 73
     1
 74
     1
 75
     0
 76
     0
 77
     0
 78
     0
170
     0
171
     2
172
     0
173
     0
174
     0
175
     0
176
     0
177
     0
178
     0
  0
ENDTAB
  0
ENDSEC
  0
SECTION
  2
BLOCKS
  0
BLOCK
  8
0
  2
$MODEL_SPACE
 70
     0
 10
0.0
 20
0.0
 30
0.0
  3
$MODEL_SPACE
  1

  0
ENDBLK
  5
21
  8
0
  0
BLOCK
 67
     1
  8
0
  2
$PAPER_SPACE
 70
     0
 10
0.0
 20
0.0
 30
0.0
  3
$PAPER_SPACE
  1

  0
ENDBLK
  5
1D
 67
     1
  8
0
  0
ENDSEC
  0
SECTION
  2
ENTITIES
  0
POINT
  5
6B
  8
2_PRZEJAZD_B
 62
     5
 10
901.4851445957463
 20
569.3047428785259
 30
0.0
  0
LINE
  5
6C
  8
2_PRZEJAZD_B
 62
     5
 10
110.7799836638234
 20
364.9583524358555
 30
0.0
 11
152.7799836638234
 21
364.9583524358555
 31
0.0
  0
LINE
  5
6D
  8
2_PRZEJAZD_B
 62
     5
 10
152.7799836638234
 20
375.4583524358555
 30
0.0
 11
110.7799836638234
 21
375.4583524358555
 31
0.0
  0
LINE
  5
6E
  8
2_PRZEJAZD_B
 62
     5
 10
110.7799836638234
 20
364.9583524358555
 30
0.0
 11
110.7799836638234
 21
360.9583524358555
 31
0.0
  0
LINE
  5
6F
  8
2_PRZEJAZD_B
 62
     5
 10
110.7799836638234
 20
375.4583524358555
 30
0.0
 11
110.7799836638234
 21
364.9583524358555
 31
0.0
  0
LINE
  5
70
  8
2_PRZEJAZD_B
 62
     5
 10
110.7799836638234
 20
379.4583524358555
 30
0.0
 11
110.7799836638234
 21
375.4583524358555
 31
0.0
  0
LINE
  5
71
  8
2_PRZEJAZD_B
 62
     5
 10
152.7799836638234
 20
364.9583524358555
 30
0.0
 11
152.7799836638234
 21
360.9583524358555
 31
0.0
  0
LINE
  5
72
  8
2_PRZEJAZD_B
 62
     5
 10
152.7799836638234
 20
375.4583524358555
 30
0.0
 11
152.7799836638234
 21
364.9583524358555
 31
0.0
  0
LINE
  5
73
  8
2_PRZEJAZD_B
 62
     5
 10
152.7799836638234
 20
379.4583524358555
 30
0.0
 11
152.7799836638234
 21
375.4583524358555
 31
0.0
  0
LINE
  5
74
  8
2_PRZEJAZD_B
 62
     5
 10
889.4866503305233
 20
988.2960420695058
 30
0.0
 11
900.4866503305233
 21
988.2960420695058
 31
0.0
  0
LINE
  5
75
  8
2_PRZEJAZD_B
 62
     5
 10
900.4866503305233
 20
1005.296042069506
 30
0.0
 11
889.4866503305233
 21
1005.296042069506
 31
0.0
  0
LINE
  5
76
  8
2_PRZEJAZD_B
 62
     5
 10
889.4866503305233
 20
938.2960420695058
 30
0.0
 11
900.4866503305233
 21
938.2960420695058
 31
0.0
  0
LINE
  5
77
  8
2_PRZEJAZD_B
 62
     5
 10
900.4866503305233
 20
955.2960420695058
 30
0.0
 11
889.4866503305233
 21
955.2960420695058
 31
0.0
  0
LINE
  5
78
  8
2_PRZEJAZD_B
 62
     5
 10
889.4866503305233
 20
888.2960420695058
 30
0.0
 11
900.4866503305233
 21
888.2960420695058
 31
0.0
  0
LINE
  5
79
  8
2_PRZEJAZD_B
 62
     5
 10
900.4866503305233
 20
905.2960420695058
 30
0.0
 11
889.4866503305233
 21
905.2960420695058
 31
0.0
  0
LINE
  5
7A
  8
2_PRZEJAZD_B
 62
     5
 10
889.4866503305233
 20
838.2960420695059
 30
0.0
 11
900.4866503305233
 21
838.2960420695059
 31
0.0
  0
LINE
  5
7B
  8
2_PRZEJAZD_B
 62
     5
 10
900.4866503305233
 20
855.2960420695059
 30
0.0
 11
889.4866503305233
 21
855.2960420695059
 31
0.0
  0
LINE
  5
7C
  8
2_PRZEJAZD_B
 62
     5
 10
889.4866503305233
 20
788.2960420695059
 30
0.0
 11
900.4866503305233
 21
788.2960420695059
 31
0.0
  0
LINE
  5
7D
  8
2_PRZEJAZD_B
 62
     5
 10
900.4866503305233
 20
805.2960420695059
 30
0.0
 11
889.4866503305233
 21
805.2960420695059
 31
0.0
  0
LINE
  5
7E
  8
2_PRZEJAZD_B
 62
     5
 10
889.4866503305233
 20
738.2960420695059
 30
0.0
 11
900.4866503305233
 21
738.2960420695059
 31
0.0
  0
LINE
  5
7F
  8
2_PRZEJAZD_B
 62
     5
 10
900.4866503305233
 20
755.2960420695059
 30
0.0
 11
889.4866503305233
 21
755.2960420695059
 31
0.0
  0
LINE
  5
80
  8
2_PRZEJAZD_B
 62
     5
 10
889.4866503305233
 20
688.2960420695059
 30
0.0
 11
900.4866503305233
 21
688.2960420695059
 31
0.0
  0
LINE
  5
81
  8
2_PRZEJAZD_B
 62
     5
 10
900.4866503305233
 20
705.2960420695059
 30
0.0
 11
889.4866503305233
 21
705.2960420695059
 31
0.0
  0
LINE
  5
82
  8
2_PRZEJAZD_B
 62
     5
 10
889.4866503305233
 20
988.2960420695058
 30
0.0
 11
889.4866503305233
 21
984.2960420695058
 31
0.0
  0
LINE
  5
83
  8
2_PRZEJAZD_B
 62
     5
 10
889.4866503305233
 20
1005.296042069506
 30
0.0
 11
889.4866503305233
 21
988.2960420695058
 31
0.0
  0
LINE
  5
84
  8
2_PRZEJAZD_B
 62
     5
 10
889.4866503305233
 20
1009.296042069506
 30
0.0
 11
889.4866503305233
 21
1005.296042069506
 31
0.0
  0
LINE
  5
85
  8
2_PRZEJAZD_B
 62
     5
 10
900.4866503305233
 20
988.2960420695058
 30
0.0
 11
900.4866503305233
 21
984.2960420695058
 31
0.0
  0
LINE
  5
86
  8
2_PRZEJAZD_B
 62
     5
 10
900.4866503305233
 20
1005.296042069506
 30
0.0
 11
900.4866503305233
 21
988.2960420695058
 31
0.0
  0
LINE
  5
87
  8
2_PRZEJAZD_B
 62
     5
 10
900.4866503305233
 20
1009.296042069506
 30
0.0
 11
900.4866503305233
 21
1005.296042069506
 31
0.0
  0
LINE
  5
88
  8
2_PRZEJAZD_B
 62
     5
 10
889.4866503305233
 20
938.2960420695058
 30
0.0
 11
889.4866503305233
 21
934.2960420695058
 31
0.0
  0
LINE
  5
89
  8
2_PRZEJAZD_B
 62
     5
 10
889.4866503305233
 20
955.2960420695058
 30
0.0
 11
889.4866503305233
 21
938.2960420695058
 31
0.0
  0
LINE
  5
8A
  8
2_PRZEJAZD_B
 62
     5
 10
889.4866503305233
 20
959.2960420695058
 30
0.0
 11
889.4866503305233
 21
955.2960420695058
 31
0.0
  0
LINE
  5
8B
  8
2_PRZEJAZD_B
 62
     5
 10
900.4866503305233
 20
938.2960420695058
 30
0.0
 11
900.4866503305233
 21
934.2960420695058
 31
0.0
  0
LINE
  5
8C
  8
2_PRZEJAZD_B
 62
     5
 10
900.4866503305233
 20
955.2960420695058
 30
0.0
 11
900.4866503305233
 21
938.2960420695058
 31
0.0
  0
LINE
  5
8D
  8
2_PRZEJAZD_B
 62
     5
 10
900.4866503305233
 20
959.2960420695058
 30
0.0
 11
900.4866503305233
 21
955.2960420695058
 31
0.0
  0
LINE
  5
8E
  8
2_PRZEJAZD_B
 62
     5
 10
889.4866503305233
 20
888.2960420695058
 30
0.0
 11
889.4866503305233
 21
884.2960420695058
 31
0.0
  0
LINE
  5
8F
  8
2_PRZEJAZD_B
 62
     5
 10
889.4866503305233
 20
905.2960420695058
 30
0.0
 11
889.4866503305233
 21
888.2960420695058
 31
0.0
  0
LINE
  5
90
  8
2_PRZEJAZD_B
 62
     5
 10
889.4866503305233
 20
909.2960420695058
 30
0.0
 11
889.4866503305233
 21
905.2960420695058
 31
0.0
  0
LINE
  5
91
  8
2_PRZEJAZD_B
 62
     5
 10
889.4866503305233
 20
838.2960420695059
 30
0.0
 11
889.4866503305233
 21
834.2960420695059
 31
0.0
  0
LINE
  5
92
  8
2_PRZEJAZD_B
 62
     5
 10
889.4866503305233
 20
855.2960420695059
 30
0.0
 11
889.4866503305233
 21
838.2960420695059
 31
0.0
  0
LINE
  5
93
  8
2_PRZEJAZD_B
 62
     5
 10
889.4866503305233
 20
859.2960420695059
 30
0.0
 11
889.4866503305233
 21
855.2960420695059
 31
0.0
  0
LINE
  5
94
  8
2_PRZEJAZD_B
 62
     5
 10
889.4866503305233
 20
788.2960420695059
 30
0.0
 11
889.4866503305233
 21
784.2960420695059
 31
0.0
  0
LINE
  5
95
  8
2_PRZEJAZD_B
 62
     5
 10
889.4866503305233
 20
805.2960420695059
 30
0.0
 11
889.4866503305233
 21
788.2960420695059
 31
0.0
  0
LINE
  5
96
  8
2_PRZEJAZD_B
 62
     5
 10
889.4866503305233
 20
809.2960420695059
 30
0.0
 11
889.4866503305233
 21
805.2960420695059
 31
0.0
  0
LINE
  5
97
  8
2_PRZEJAZD_B
 62
     5
 10
889.4866503305233
 20
738.2960420695059
 30
0.0
 11
889.4866503305233
 21
734.2960420695059
 31
0.0
  0
LINE
  5
98
  8
2_PRZEJAZD_B
 62
     5
 10
889.4866503305233
 20
755.2960420695059
 30
0.0
 11
889.4866503305233
 21
738.2960420695059
 31
0.0
  0
LINE
  5
99
  8
2_PRZEJAZD_B
 62
     5
 10
889.4866503305233
 20
759.2960420695059
 30
0.0
 11
889.4866503305233
 21
755.2960420695059
 31
0.0
  0
LINE
  5
9A
  8
2_PRZEJAZD_B
 62
     5
 10
889.4866503305233
 20
688.2960420695059
 30
0.0
 11
889.4866503305233
 21
684.2960420695059
 31
0.0
  0
LINE
  5
9B
  8
2_PRZEJAZD_B
 62
     5
 10
889.4866503305233
 20
705.2960420695059
 30
0.0
 11
889.4866503305233
 21
688.2960420695059
 31
0.0
  0
LINE
  5
9C
  8
2_PRZEJAZD_B
 62
     5
 10
889.4866503305233
 20
709.2960420695059
 30
0.0
 11
889.4866503305233
 21
705.2960420695059
 31
0.0
  0
LINE
  5
9D
  8
2_PRZEJAZD_B
 62
     5
 10
900.4866503305233
 20
888.2960420695058
 30
0.0
 11
900.4866503305233
 21
884.2960420695058
 31
0.0
  0
LINE
  5
9E
  8
2_PRZEJAZD_B
 62
     5
 10
900.4866503305233
 20
905.2960420695058
 30
0.0
 11
900.4866503305233
 21
888.2960420695058
 31
0.0
  0
LINE
  5
9F
  8
2_PRZEJAZD_B
 62
     5
 10
900.4866503305233
 20
909.2960420695058
 30
0.0
 11
900.4866503305233
 21
905.2960420695058
 31
0.0
  0
LINE
  5
A0
  8
2_PRZEJAZD_B
 62
     5
 10
900.4866503305233
 20
838.2960420695059
 30
0.0
 11
900.4866503305233
 21
834.2960420695059
 31
0.0
  0
LINE
  5
A1
  8
2_PRZEJAZD_B
 62
     5
 10
900.4866503305233
 20
855.2960420695059
 30
0.0
 11
900.4866503305233
 21
838.2960420695059
 31
0.0
  0
LINE
  5
A2
  8
2_PRZEJAZD_B
 62
     5
 10
900.4866503305233
 20
859.2960420695059
 30
0.0
 11
900.4866503305233
 21
855.2960420695059
 31
0.0
  0
LINE
  5
A3
  8
2_PRZEJAZD_B
 62
     5
 10
900.4866503305233
 20
788.2960420695059
 30
0.0
 11
900.4866503305233
 21
784.2960420695059
 31
0.0
  0
LINE
  5
A4
  8
2_PRZEJAZD_B
 62
     5
 10
900.4866503305233
 20
805.2960420695059
 30
0.0
 11
900.4866503305233
 21
788.2960420695059
 31
0.0
  0
LINE
  5
A5
  8
2_PRZEJAZD_B
 62
     5
 10
900.4866503305233
 20
809.2960420695059
 30
0.0
 11
900.4866503305233
 21
805.2960420695059
 31
0.0
  0
LINE
  5
A6
  8
2_PRZEJAZD_B
 62
     5
 10
900.4866503305233
 20
738.2960420695059
 30
0.0
 11
900.4866503305233
 21
734.2960420695059
 31
0.0
  0
LINE
  5
A7
  8
2_PRZEJAZD_B
 62
     5
 10
900.4866503305233
 20
755.2960420695059
 30
0.0
 11
900.4866503305233
 21
738.2960420695059
 31
0.0
  0
LINE
  5
A8
  8
2_PRZEJAZD_B
 62
     5
 10
900.4866503305233
 20
759.2960420695059
 30
0.0
 11
900.4866503305233
 21
755.2960420695059
 31
0.0
  0
LINE
  5
A9
  8
2_PRZEJAZD_B
 62
     5
 10
900.4866503305233
 20
688.2960420695059
 30
0.0
 11
900.4866503305233
 21
684.2960420695059
 31
0.0
  0
LINE
  5
AA
  8
2_PRZEJAZD_B
 62
     5
 10
900.4866503305233
 20
705.2960420695059
 30
0.0
 11
900.4866503305233
 21
688.2960420695059
 31
0.0
  0
LINE
  5
AB
  8
2_PRZEJAZD_B
 62
     5
 10
900.4866503305233
 20
709.2960420695059
 30
0.0
 11
900.4866503305233
 21
705.2960420695059
 31
0.0
  0
ARC
  5
AC
  8
2_PRZEJAZD_B
 10
661.7619868419873
 20
288.826423540322
 30
0.0
 40
8.0
 50
149.9999999999999
 51
239.9999999999987
  0
LINE
  5
AD
  8
2_PRZEJAZD_B
 10
682.569497897413
 20
340.8660898673704
 30
0.0
 11
654.8337836117119
 21
292.826423540322
 31
0.0
  0
ARC
  5
AE
  8
2_PRZEJAZD_B
 10
689.4977011276886
 20
336.8660898673705
 30
0.0
 40
8.0
 50
59.99999999999915
 51
150.000000000001
  0
LINE
  5
AF
  8
2_PRZEJAZD_B
 10
695.0386373380995
 20
342.9046331617613
 30
0.0
 11
693.4977011276887
 21
343.794293097646
 31
0.0
  0
ARC
  5
B0
  8
2_PRZEJAZD_B
 10
691.0386373380996
 20
335.9764299314858
 30
0.0
 40
8.0
 50
329.9999999999988
 51
60.00000000000077
  0
LINE
  5
B1
  8
2_PRZEJAZD_B
 10
670.2311262826738
 20
283.9367636044373
 30
0.0
 11
697.9668405683751
 21
331.9764299314856
 31
0.0
  0
ARC
  5
B2
  8
2_PRZEJAZD_B
 10
663.3029230523982
 20
287.9367636044371
 30
0.0
 40
8.0
 50
239.9999999999989
 51
330.0000000000013
  0
LINE
  5
B3
  8
2_PRZEJAZD_B
 10
657.7619868419872
 20
281.8982203100467
 30
0.0
 11
659.3029230523981
 21
281.0085603741617
 31
0.0
  0
LINE
  5
B4
  8
2_PRZEJAZD_B
 62
     5
 10
278.9635198735381
 20
560.6283524358556
 30
0.0
 11
497.3666503305233
 21
560.6283524358556
 31
0.0
  0
LINE
  5
B5
  8
2_PRZEJAZD_B
 62
     5
 10
159.9466503305234
 20
560.6283524358556
 30
0.0
 11
263.9635198735381
 21
560.6283524358556
 31
0.0
  0
LINE
  5
B6
  8
2_PRZEJAZD_B
 62
     5
 10
813.1466503305234
 20
789.6152595002345
 30
0.0
 11
813.1466503305234
 21
760.6293754028558
 31
0.0
  0
LINE
  5
B7
  8
2_PRZEJAZD_B
 62
     5
 10
813.1466503305234
 20
830.2960420694557
 30
0.0
 11
813.1466503305234
 21
804.6152595002346
 31
0.0
  0
LINE
  5
B8
  8
2_PRZEJAZD_B
 62
     5
 10
237.5282648317176
 20
1064.629375402856
 30
0.0
 11
227.7523646162234
 21
1064.629375402856
 31
0.0
  0
LINE
  5
B9
  8
2_PRZEJAZD_B
 62
     5
 10
262.2437931876233
 20
1064.629375402856
 30
0.0
 11
252.5282648317176
 21
1064.629375402856
 31
0.0
  0
LINE
  5
BA
  8
2_PRZEJAZD_B
 62
     5
 10
263.2091579525614
 20
81.78835243585559
 30
0.0
 11
289.9471618140234
 21
81.78835243585559
 31
0.0
  0
LINE
  5
BB
  8
2_PRZEJAZD_B
 62
     5
 10
220.2803246528234
 20
81.78835243585559
 30
0.0
 11
248.2091579525614
 21
81.78835243585559
 31
0.0
  0
LINE
  5
BC
  8
2_PRZEJAZD_B
 62
     5
 10
81.94665033052331
 20
260.1981962582357
 30
0.0
 11
81.94665033052331
 21
102.5683524358556
 31
0.0
  0
LINE
  5
BD
  8
2_PRZEJAZD_B
 62
     5
 10
81.94665033052331
 20
439.9883524358556
 30
0.0
 11
81.94665033052331
 21
275.1981962582357
 31
0.0
  0
LINE
  5
BE
  8
2_PRZEJAZD_B
 62
     5
 10
339.6521757596144
 20
202.4283524358558
 30
0.0
 11
367.9471618140234
 21
202.4283524358558
 31
0.0
  0
LINE
  5
BF
  8
2_PRZEJAZD_B
 62
     5
 10
298.2803246529234
 20
202.4283524358558
 30
0.0
 11
324.6521757596144
 21
202.4283524358558
 31
0.0
  0
LINE
  5
C0
  8
2_PRZEJAZD_B
 62
     5
 10
309.6360375650816
 20
439.9883524358556
 30
0.0
 11
281.9471618140234
 21
439.9883524358556
 31
0.0
  0
LINE
  5
C1
  8
2_PRZEJAZD_B
 62
     5
 10
351.6139989752234
 20
439.9883524358556
 30
0.0
 11
324.6360375650816
 21
439.9883524358556
 31
0.0
  0
LINE
  5
C2
  8
2_PRZEJAZD_B
 62
     5
 10
898.0292395750378
 20
540.7600543673598
 30
0.0
 11
896.0388828536602
 21
540.8377166180982
 31
0.0
  0
LINE
  5
C3
  8
2_PRZEJAZD_B
 62
     5
 10
898.6912906827356
 20
540.759710928995
 30
0.0
 11
898.0292395750378
 21
540.7600543673598
 31
0.0
  0
LINE
  5
C4
  8
2_PRZEJAZD_B
 62
     5
 10
899.350593329955
 20
540.7786349500516
 30
0.0
 11
898.6912906827356
 21
540.759710928995
 31
0.0
  0
LINE
  5
C5
  8
2_PRZEJAZD_B
 62
     5
 10
900.0070492944179
 20
540.8188108035408
 30
0.0
 11
899.350593329955
 21
540.7786349500516
 31
0.0
  0
LINE
  5
C6
  8
2_PRZEJAZD_B
 62
     5
 10
900.3341192131124
 20
540.8475442220183
 30
0.0
 11
900.0070492944179
 21
540.8188108035408
 31
0.0
  0
LINE
  5
C7
  8
2_PRZEJAZD_B
 62
     5
 10
900.6603687921138
 20
540.8824018640887
 30
0.0
 11
900.3341192131124
 21
540.8475442220183
 31
0.0
  0
LINE
  5
C8
  8
2_PRZEJAZD_B
 62
     5
 10
900.9857618084208
 20
540.92365415158
 30
0.0
 11
900.6603687921138
 21
540.8824018640887
 31
0.0
  0
LINE
  5
C9
  8
2_PRZEJAZD_B
 62
     5
 10
901.3102620390317
 20
540.9715715063205
 30
0.0
 11
900.9857618084208
 21
540.92365415158
 31
0.0
  0
LINE
  5
CA
  8
2_PRZEJAZD_B
 62
     5
 10
901.6338290663344
 20
541.0264556648929
 30
0.0
 11
901.3102620390317
 21
540.9715715063205
 31
0.0
  0
LINE
  5
CB
  8
2_PRZEJAZD_B
 62
     5
 10
901.9564176316271
 20
541.0886445048981
 30
0.0
 11
901.6338290663344
 21
541.0264556648929
 31
0.0
  0
LINE
  5
CC
  8
2_PRZEJAZD_B
 62
     5
 10
902.2779842502755
 20
541.1584626596923
 30
0.0
 11
901.9564176316271
 21
541.0886445048981
 31
0.0
  0
LINE
  5
CD
  8
2_PRZEJAZD_B
 62
     5
 10
902.5984854376436
 20
541.236234762632
 30
0.0
 11
902.2779842502755
 21
541.1584626596923
 31
0.0
  0
LINE
  5
CE
  8
2_PRZEJAZD_B
 62
     5
 10
902.9182214130562
 20
541.3224265644814
 30
0.0
 11
902.5984854376436
 21
541.236234762632
 31
0.0
  0
LINE
  5
CF
  8
2_PRZEJAZD_B
 62
     5
 10
903.2369528599544
 20
541.4173026406677
 30
0.0
 11
902.9182214130562
 21
541.3224265644814
 31
0.0
  0
LINE
  5
D0
  8
2_PRZEJAZD_B
 62
     5
 10
903.5538269898781
 20
541.5208858615433
 30
0.0
 11
903.2369528599544
 21
541.4173026406677
 31
0.0
  0
LINE
  5
D1
  8
2_PRZEJAZD_B
 62
     5
 10
903.8679910143667
 20
541.6331990974595
 30
0.0
 11
903.5538269898781
 21
541.5208858615433
 31
0.0
  0
LINE
  5
D2
  8
2_PRZEJAZD_B
 62
     5
 10
904.1779959997684
 20
541.754035038502
 30
0.0
 11
903.8679910143667
 21
541.6331990974595
 31
0.0
  0
LINE
  5
D3
  8
2_PRZEJAZD_B
 62
     5
 10
904.4830353058658
 20
541.8830496296792
 30
0.0
 11
904.1779959997684
 21
541.754035038502
 31
0.0
  0
LINE
  5
D4
  8
2_PRZEJAZD_B
 62
     5
 10
904.7832195843496
 20
542.0200606237274
 30
0.0
 11
904.4830353058658
 21
541.8830496296792
 31
0.0
  0
LINE
  5
D5
  8
2_PRZEJAZD_B
 62
     5
 10
905.0786594869106
 20
542.1648857733824
 30
0.0
 11
904.7832195843496
 21
542.0200606237274
 31
0.0
  0
LINE
  5
D6
  8
2_PRZEJAZD_B
 62
     5
 10
905.3694656652402
 20
542.3173428313798
 30
0.0
 11
905.0786594869106
 21
542.1648857733824
 31
0.0
  0
LINE
  5
D7
  8
2_PRZEJAZD_B
 62
     5
 10
905.6557487710294
 20
542.477249550456
 30
0.0
 11
905.3694656652402
 21
542.3173428313798
 31
0.0
  0
LINE
  5
D8
  8
2_PRZEJAZD_B
 62
     5
 10
905.9376194559686
 20
542.6444236833468
 30
0.0
 11
905.6557487710294
 21
542.477249550456
 31
0.0
  0
LINE
  5
D9
  8
2_PRZEJAZD_B
 62
     5
 10
906.2151883717496
 20
542.818682982788
 30
0.0
 11
905.9376194559686
 21
542.6444236833468
 31
0.0
  0
LINE
  5
DA
  8
2_PRZEJAZD_B
 62
     5
 10
906.4886591695092
 20
542.9996920281253
 30
0.0
 11
906.2151883717496
 21
542.818682982788
 31
0.0
  0
LINE
  5
DB
  8
2_PRZEJAZD_B
 62
     5
 10
906.7585426011374
 20
543.1866095928607
 30
0.0
 11
906.4886591695092
 21
542.9996920281253
 31
0.0
  0
LINE
  5
DC
  8
2_PRZEJAZD_B
 62
     5
 10
909.3972736027854
 20
545.1541799021212
 30
0.0
 11
906.7585426011374
 21
543.1866095928607
 31
0.0
  0
LINE
  5
DD
  8
2_PRZEJAZD_B
 62
     5
 10
910.436342117394
 20
545.9612458764345
 30
0.0
 11
909.3972736027854
 21
545.1541799021212
 31
0.0
  0
LINE
  5
DE
  8
2_PRZEJAZD_B
 62
     5
 10
910.9434109178823
 20
546.3811258010705
 30
0.0
 11
910.436342117394
 21
545.9612458764345
 31
0.0
  0
LINE
  5
DF
  8
2_PRZEJAZD_B
 62
     5
 10
911.4385809542096
 20
546.81544795462
 30
0.0
 11
910.9434109178823
 21
546.3811258010705
 31
0.0
  0
LINE
  5
E0
  8
2_PRZEJAZD_B
 62
     5
 10
911.6805901775925
 20
547.0385261904521
 30
0.0
 11
911.4385809542096
 21
546.81544795462
 31
0.0
  0
LINE
  5
E1
  8
2_PRZEJAZD_B
 62
     5
 10
911.9182882000702
 20
547.2658165713704
 30
0.0
 11
911.6805901775925
 21
547.0385261904521
 31
0.0
  0
LINE
  5
E2
  8
2_PRZEJAZD_B
 62
     5
 10
912.1512295183544
 20
547.4975196266605
 30
0.0
 11
911.9182882000702
 21
547.2658165713704
 31
0.0
  0
LINE
  5
E3
  8
2_PRZEJAZD_B
 62
     5
 10
912.3789686291572
 20
547.7338358856089
 30
0.0
 11
912.1512295183544
 21
547.4975196266605
 31
0.0
  0
LINE
  5
E4
  8
2_PRZEJAZD_B
 62
     5
 10
912.6009332959516
 20
547.9751658167522
 30
0.0
 11
912.3789686291572
 21
547.7338358856089
 31
0.0
  0
LINE
  5
E5
  8
2_PRZEJAZD_B
 62
     5
 10
912.8169481008842
 20
548.2216890777416
 30
0.0
 11
912.6009332959516
 21
547.9751658167522
 31
0.0
  0
LINE
  5
E6
  8
2_PRZEJAZD_B
 62
     5
 10
913.0271627686762
 20
548.4732749815325
 30
0.0
 11
912.8169481008842
 21
548.2216890777416
 31
0.0
  0
LINE
  5
E7
  8
2_PRZEJAZD_B
 62
     5
 10
913.2317270240483
 20
548.7297928410803
 30
0.0
 11
913.0271627686762
 21
548.4732749815325
 31
0.0
  0
LINE
  5
E8
  8
2_PRZEJAZD_B
 62
     5
 10
914.0388828536537
 20
549.7655539413943
 30
0.0
 11
913.2317270240483
 21
548.7297928410803
 31
0.0
  0
LINE
  5
E9
  8
2_PRZEJAZD_B
 62
     5
 10
914.0388828536517
 20
561.4996023153473
 30
0.0
 11
914.0388828536537
 21
549.7655539413943
 31
0.0
  0
LINE
  5
EA
  8
2_PRZEJAZD_B
 62
     5
 10
896.0388828536696
 20
519.66313425566
 30
0.0
 11
869.5419065493215
 21
550.5752765349911
 31
0.0
  0
LINE
  5
EB
  8
2_PRZEJAZD_B
 62
     5
 10
896.0388828536348
 20
540.837716618093
 30
0.0
 11
896.0388828536696
 21
519.66313425566
 31
0.0
  0
LINE
  5
EC
  8
2_PRZEJAZD_B
 62
     5
 10
893.9175625100752
 20
542.9590369616528
 30
0.0
 11
896.0388828536348
 21
540.837716618093
 31
0.0
  0
LINE
  5
ED
  8
2_PRZEJAZD_B
 62
     5
 10
914.0388828536496
 20
603.9610077096503
 30
0.0
 11
914.0388828536503
 21
578.0343938112165
 31
0.0
  0
LINE
  5
EE
  8
2_PRZEJAZD_B
 62
     5
 10
897.0797968102362
 20
588.0740563588109
 30
0.0
 11
914.0388828536496
 21
603.9610077096503
 31
0.0
  0
LINE
  5
EF
  8
2_PRZEJAZD_B
 62
     5
 10
896.5539984331137
 20
587.6300198230825
 30
0.0
 11
897.0797968102362
 21
588.0740563588109
 31
0.0
  0
LINE
  5
F0
  8
2_PRZEJAZD_B
 62
     5
 10
896.0402850339634
 20
587.1747191468402
 30
0.0
 11
896.5539984331137
 21
587.6300198230825
 31
0.0
  0
LINE
  5
F1
  8
2_PRZEJAZD_B
 62
     5
 10
895.5427882223556
 20
586.7043033481863
 30
0.0
 11
896.0402850339634
 21
587.1747191468402
 31
0.0
  0
LINE
  5
F2
  8
2_PRZEJAZD_B
 62
     5
 10
895.0597963686849
 20
586.2203677992015
 30
0.0
 11
895.5427882223556
 21
586.7043033481863
 31
0.0
  0
LINE
  5
F3
  8
2_PRZEJAZD_B
 62
     5
 10
894.5896251026236
 20
585.7244824641973
 30
0.0
 11
895.0597963686849
 21
586.2203677992015
 31
0.0
  0
LINE
  5
F4
  8
2_PRZEJAZD_B
 62
     5
 10
894.1305052125724
 20
585.2182963861561
 30
0.0
 11
894.5896251026236
 21
585.7244824641973
 31
0.0
  0
LINE
  5
F5
  8
2_PRZEJAZD_B
 62
     5
 10
891.0584456449927
 20
581.5429556052325
 30
0.0
 11
894.1305052125724
 21
585.2182963861561
 31
0.0
  0
LINE
  5
F6
  8
2_PRZEJAZD_B
 62
     5
 10
890.6084740891924
 20
581.028561063516
 30
0.0
 11
891.0584456449927
 21
581.5429556052325
 31
0.0
  0
LINE
  5
F7
  8
2_PRZEJAZD_B
 62
     5
 10
890.3784200253598
 20
580.7762002939762
 30
0.0
 11
890.6084740891924
 21
581.028561063516
 31
0.0
  0
LINE
  5
F8
  8
2_PRZEJAZD_B
 62
     5
 10
890.1437407882212
 20
580.5282531777094
 30
0.0
 11
890.3784200253598
 21
580.7762002939762
 31
0.0
  0
LINE
  5
F9
  8
2_PRZEJAZD_B
 62
     5
 10
889.9031437397313
 20
580.2859532373876
 30
0.0
 11
890.1437407882212
 21
580.5282531777094
 31
0.0
  0
LINE
  5
FA
  8
2_PRZEJAZD_B
 62
     5
 10
889.6553362418458
 20
580.0505339956835
 30
0.0
 11
889.9031437397313
 21
580.2859532373876
 31
0.0
  0
LINE
  5
FB
  8
2_PRZEJAZD_B
 62
     5
 10
889.5282676659641
 20
579.9358386597836
 30
0.0
 11
889.6553362418458
 21
580.0505339956835
 31
0.0
  0
LINE
  5
FC
  8
2_PRZEJAZD_B
 62
     5
 10
889.398620148805
 20
579.8236004723052
 30
0.0
 11
889.5282676659641
 21
579.9358386597836
 31
0.0
  0
LINE
  5
FD
  8
2_PRZEJAZD_B
 62
     5
 10
889.2659656032005
 20
579.7142395863235
 30
0.0
 11
889.398620148805
 21
579.8236004723052
 31
0.0
  0
LINE
  5
FE
  8
2_PRZEJAZD_B
 62
     5
 10
889.1298759419824
 20
579.6081761549145
 30
0.0
 11
889.2659656032005
 21
579.7142395863235
 31
0.0
  0
LINE
  5
FF
  8
2_PRZEJAZD_B
 62
     5
 10
888.9905351385753
 20
579.5062509818839
 30
0.0
 11
889.1298759419824
 21
579.6081761549145
 31
0.0
  0
LINE
  5
100
  8
2_PRZEJAZD_B
 62
     5
 10
888.9196706957982
 20
579.4573053617746
 30
0.0
 11
888.9905351385753
 21
579.5062509818839
 31
0.0
  0
LINE
  5
101
  8
2_PRZEJAZD_B
 62
     5
 10
888.8478761149023
 20
579.4099309249187
 30
0.0
 11
888.9196706957982
 21
579.4573053617746
 31
0.0
  0
LINE
  5
102
  8
2_PRZEJAZD_B
 62
     5
 10
888.7750508128353
 20
579.3642975755536
 30
0.0
 11
888.8478761149023
 21
579.4099309249187
 31
0.0
  0
LINE
  5
103
  8
2_PRZEJAZD_B
 62
     5
 10
888.7010942065444
 20
579.3205752179159
 30
0.0
 11
888.7750508128353
 21
579.3642975755536
 31
0.0
  0
LINE
  5
104
  8
2_PRZEJAZD_B
 62
     5
 10
888.6259057129777
 20
579.278933756243
 30
0.0
 11
888.7010942065444
 21
579.3205752179159
 31
0.0
  0
LINE
  5
105
  8
2_PRZEJAZD_B
 62
     5
 10
888.5493847490826
 20
579.2395430947719
 30
0.0
 11
888.6259057129777
 21
579.278933756243
 31
0.0
  0
LINE
  5
106
  8
2_PRZEJAZD_B
 62
     5
 10
888.5105343101675
 20
579.2207535643729
 30
0.0
 11
888.5493847490826
 21
579.2395430947719
 31
0.0
  0
LINE
  5
107
  8
2_PRZEJAZD_B
 62
     5
 10
888.4712273680835
 20
579.2026495041184
 30
0.0
 11
888.5105343101675
 21
579.2207535643729
 31
0.0
  0
LINE
  5
108
  8
2_PRZEJAZD_B
 62
     5
 10
888.4314993947089
 20
579.1853147704848
 30
0.0
 11
888.4712273680835
 21
579.2026495041184
 31
0.0
  0
LINE
  5
109
  8
2_PRZEJAZD_B
 62
     5
 10
888.3913858619205
 20
579.1688332199486
 30
0.0
 11
888.4314993947089
 21
579.1853147704848
 31
0.0
  0
LINE
  5
10A
  8
2_PRZEJAZD_B
 62
     5
 10
888.3509222415962
 20
579.153288708986
 30
0.0
 11
888.3913858619205
 21
579.1688332199486
 31
0.0
  0
LINE
  5
10B
  8
2_PRZEJAZD_B
 62
     5
 10
888.3101440056137
 20
579.1387650940741
 30
0.0
 11
888.3509222415962
 21
579.153288708986
 31
0.0
  0
LINE
  5
10C
  8
2_PRZEJAZD_B
 62
     5
 10
888.2690866258504
 20
579.1253462316888
 30
0.0
 11
888.3101440056137
 21
579.1387650940741
 31
0.0
  0
LINE
  5
10D
  8
2_PRZEJAZD_B
 62
     5
 10
888.2277855741839
 20
579.1131159783071
 30
0.0
 11
888.2690866258504
 21
579.1253462316888
 31
0.0
  0
LINE
  5
10E
  8
2_PRZEJAZD_B
 62
     5
 10
888.1862406057251
 20
579.1021737076788
 30
0.0
 11
888.2277855741839
 21
579.1131159783071
 31
0.0
  0
LINE
  5
10F
  8
2_PRZEJAZD_B
 62
     5
 10
888.1444275507642
 20
579.0925642658955
 30
0.0
 11
888.1862406057251
 21
579.1021737076788
 31
0.0
  0
LINE
  5
110
  8
2_PRZEJAZD_B
 62
     5
 10
888.102345993947
 20
579.0842897179444
 30
0.0
 11
888.1444275507642
 21
579.0925642658955
 31
0.0
  0
LINE
  5
111
  8
2_PRZEJAZD_B
 62
     5
 10
888.0599955199207
 20
579.0773521288131
 30
0.0
 11
888.102345993947
 21
579.0842897179444
 31
0.0
  0
LINE
  5
112
  8
2_PRZEJAZD_B
 62
     5
 10
888.0173757133311
 20
579.0717535634894
 30
0.0
 11
888.0599955199207
 21
579.0773521288131
 31
0.0
  0
LINE
  5
113
  8
2_PRZEJAZD_B
 62
     5
 10
887.9744861588249
 20
579.0674960869607
 30
0.0
 11
888.0173757133311
 21
579.0717535634894
 31
0.0
  0
LINE
  5
114
  8
2_PRZEJAZD_B
 62
     5
 10
887.931326441048
 20
579.0645817642143
 30
0.0
 11
887.9744861588249
 21
579.0674960869607
 31
0.0
  0
LINE
  5
115
  8
2_PRZEJAZD_B
 62
     5
 10
887.8878961446472
 20
579.0630126602383
 30
0.0
 11
887.931326441048
 21
579.0645817642143
 31
0.0
  0
LINE
  5
116
  8
2_PRZEJAZD_B
 62
     5
 10
887.8443940786161
 20
579.0626962498361
 30
0.0
 11
887.8878961446472
 21
579.0630126602383
 31
0.0
  0
LINE
  5
117
  8
2_PRZEJAZD_B
 62
     5
 10
887.8010185195761
 20
579.0635073828131
 30
0.0
 11
887.8443940786161
 21
579.0626962498361
 31
0.0
  0
LINE
  5
118
  8
2_PRZEJAZD_B
 62
     5
 10
887.757768253617
 20
579.0653991866606
 30
0.0
 11
887.8010185195761
 21
579.0635073828131
 31
0.0
  0
LINE
  5
119
  8
2_PRZEJAZD_B
 62
     5
 10
887.7146420668279
 20
579.068324788869
 30
0.0
 11
887.757768253617
 21
579.0653991866606
 31
0.0
  0
LINE
  5
11A
  8
2_PRZEJAZD_B
 62
     5
 10
887.6716387452979
 20
579.0722373169293
 30
0.0
 11
887.7146420668279
 21
579.068324788869
 31
0.0
  0
LINE
  5
11B
  8
2_PRZEJAZD_B
 62
     5
 10
887.6287570751168
 20
579.0770898983324
 30
0.0
 11
887.6716387452979
 21
579.0722373169293
 31
0.0
  0
LINE
  5
11C
  8
2_PRZEJAZD_B
 62
     5
 10
887.5859958423737
 20
579.0828356605689
 30
0.0
 11
887.6287570751168
 21
579.0770898983324
 31
0.0
  0
LINE
  5
11D
  8
2_PRZEJAZD_B
 62
     5
 10
887.5433538331579
 20
579.0894277311295
 30
0.0
 11
887.5859958423737
 21
579.0828356605689
 31
0.0
  0
LINE
  5
11E
  8
2_PRZEJAZD_B
 62
     5
 10
887.5008298335591
 20
579.0968192375053
 30
0.0
 11
887.5433538331579
 21
579.0894277311295
 31
0.0
  0
LINE
  5
11F
  8
2_PRZEJAZD_B
 62
     5
 10
887.458422629666
 20
579.1049633071868
 30
0.0
 11
887.5008298335591
 21
579.0968192375053
 31
0.0
  0
LINE
  5
120
  8
2_PRZEJAZD_B
 62
     5
 10
887.3739537533554
 20
579.1233216464307
 30
0.0
 11
887.458422629666
 21
579.1049633071868
 31
0.0
  0
LINE
  5
121
  8
2_PRZEJAZD_B
 62
     5
 10
887.2899374929411
 20
579.1441277687873
 30
0.0
 11
887.3739537533554
 21
579.1233216464307
 31
0.0
  0
LINE
  5
122
  8
2_PRZEJAZD_B
 62
     5
 10
887.2063641371371
 20
579.1670066941829
 30
0.0
 11
887.2899374929411
 21
579.1441277687873
 31
0.0
  0
LINE
  5
123
  8
2_PRZEJAZD_B
 62
     5
 10
887.1233542252559
 20
579.1916995799191
 30
0.0
 11
887.2063641371371
 21
579.1670066941829
 31
0.0
  0
LINE
  5
124
  8
2_PRZEJAZD_B
 62
     5
 10
887.0410092143533
 20
579.2181307562623
 30
0.0
 11
887.1233542252559
 21
579.1916995799191
 31
0.0
  0
LINE
  5
125
  8
2_PRZEJAZD_B
 62
     5
 10
886.9592907697617
 20
579.2462000025855
 30
0.0
 11
887.0410092143533
 21
579.2181307562623
 31
0.0
  0
LINE
  5
126
  8
2_PRZEJAZD_B
 62
     5
 10
886.8781605568136
 20
579.2758070982613
 30
0.0
 11
886.9592907697617
 21
579.2462000025855
 31
0.0
  0
LINE
  5
127
  8
2_PRZEJAZD_B
 62
     5
 10
886.7175114871765
 20
579.3392339551654
 30
0.0
 11
886.8781605568136
 21
579.2758070982613
 31
0.0
  0
LINE
  5
128
  8
2_PRZEJAZD_B
 62
     5
 10
886.5587553280992
 20
579.4076095619588
 30
0.0
 11
886.7175114871765
 21
579.3392339551654
 31
0.0
  0
LINE
  5
129
  8
2_PRZEJAZD_B
 62
     5
 10
886.4017720435019
 20
579.4802406932419
 30
0.0
 11
886.5587553280992
 21
579.4076095619588
 31
0.0
  0
LINE
  5
12A
  8
2_PRZEJAZD_B
 62
     5
 10
886.2466588193789
 20
579.5566785328342
 30
0.0
 11
886.4017720435019
 21
579.4802406932419
 31
0.0
  0
LINE
  5
12B
  8
2_PRZEJAZD_B
 62
     5
 10
886.093434811501
 20
579.6364879295495
 30
0.0
 11
886.2466588193789
 21
579.5566785328342
 31
0.0
  0
LINE
  5
12C
  8
2_PRZEJAZD_B
 62
     5
 10
885.9421191756381
 20
579.7192337322022
 30
0.0
 11
886.093434811501
 21
579.6364879295495
 31
0.0
  0
LINE
  5
12D
  8
2_PRZEJAZD_B
 62
     5
 10
885.6445883036623
 20
579.8923591866389
 30
0.0
 11
885.9421191756381
 21
579.7192337322022
 31
0.0
  0
LINE
  5
12E
  8
2_PRZEJAZD_B
 62
     5
 10
885.3529539326748
 20
580.074734933201
 30
0.0
 11
885.6445883036623
 21
579.8923591866389
 31
0.0
  0
LINE
  5
12F
  8
2_PRZEJAZD_B
 62
     5
 10
885.0665230424954
 20
580.2652737781224
 30
0.0
 11
885.3529539326748
 21
580.074734933201
 31
0.0
  0
LINE
  5
130
  8
2_PRZEJAZD_B
 62
     5
 10
884.7846026129438
 20
580.4628885276366
 30
0.0
 11
885.0665230424954
 21
580.2652737781224
 31
0.0
  0
LINE
  5
131
  8
2_PRZEJAZD_B
 62
     5
 10
884.5066343370922
 20
580.666696057939
 30
0.0
 11
884.7846026129438
 21
580.4628885276366
 31
0.0
  0
LINE
  5
132
  8
2_PRZEJAZD_B
 62
     5
 10
884.2324931519342
 20
580.8760598538582
 30
0.0
 11
884.5066343370922
 21
580.666696057939
 31
0.0
  0
LINE
  5
133
  8
2_PRZEJAZD_B
 62
     5
 10
883.6955194364939
 20
581.3085871192781
 30
0.0
 11
884.2324931519342
 21
580.8760598538582
 31
0.0
  0
LINE
  5
134
  8
2_PRZEJAZD_B
 62
     5
 10
883.1725056931058
 20
581.7559096775929
 30
0.0
 11
883.6955194364939
 21
581.3085871192781
 31
0.0
  0
LINE
  5
135
  8
2_PRZEJAZD_B
 62
     5
 10
882.6612938118653
 20
582.2159824557281
 30
0.0
 11
883.1725056931058
 21
581.7559096775929
 31
0.0
  0
LINE
  5
136
  8
2_PRZEJAZD_B
 62
     5
 10
882.1601511201039
 20
582.6869335493078
 30
0.0
 11
882.6612938118653
 21
582.2159824557281
 31
0.0
  0
LINE
  5
137
  8
2_PRZEJAZD_B
 62
     5
 10
881.6679390528201
 20
583.1675329021023
 30
0.0
 11
882.1601511201039
 21
582.6869335493078
 31
0.0
  0
LINE
  5
138
  8
2_PRZEJAZD_B
 62
     5
 10
880.7065964817068
 20
584.1536679274647
 30
0.0
 11
881.6679390528201
 21
583.1675329021023
 31
0.0
  0
LINE
  5
139
  8
2_PRZEJAZD_B
 62
     5
 10
864.5640704900658
 20
601.3680005895818
 30
0.0
 11
880.7065964817068
 21
584.1536679274647
 31
0.0
  0
LINE
  5
13A
  8
2_PRZEJAZD_B
 62
     5
 10
861.7486004243897
 20
599.456075499186
 30
0.0
 11
864.5640704900658
 21
601.3680005895818
 31
0.0
  0
LINE
  5
13B
  8
2_PRZEJAZD_B
 62
     5
 10
858.9599092539261
 20
597.5066063432309
 30
0.0
 11
861.7486004243897
 21
599.456075499186
 31
0.0
  0
LINE
  5
13C
  8
2_PRZEJAZD_B
 62
     5
 10
857.5886828034871
 20
596.499458691224
 30
0.0
 11
858.9599092539261
 21
597.5066063432309
 31
0.0
  0
LINE
  5
13D
  8
2_PRZEJAZD_B
 62
     5
 10
856.2361494081758
 20
595.466103337886
 30
0.0
 11
857.5886828034871
 21
596.499458691224
 31
0.0
  0
LINE
  5
13E
  8
2_PRZEJAZD_B
 62
     5
 10
854.9067068539957
 20
594.4033167260529
 30
0.0
 11
856.2361494081758
 21
595.466103337886
 31
0.0
  0
LINE
  5
13F
  8
2_PRZEJAZD_B
 62
     5
 10
853.6079961995616
 20
593.3082797264951
 30
0.0
 11
854.9067068539957
 21
594.4033167260529
 31
0.0
  0
LINE
  5
140
  8
2_PRZEJAZD_B
 62
     5
 10
852.3470514853107
 20
592.1763220639177
 30
0.0
 11
853.6079961995616
 21
593.3082797264951
 31
0.0
  0
LINE
  5
141
  8
2_PRZEJAZD_B
 62
     5
 10
851.7331435887921
 20
591.5939122958364
 30
0.0
 11
852.3470514853107
 21
592.1763220639177
 31
0.0
  0
LINE
  5
142
  8
2_PRZEJAZD_B
 62
     5
 10
851.131779275015
 20
590.9990600570915
 30
0.0
 11
851.7331435887921
 21
591.5939122958364
 31
0.0
  0
LINE
  5
143
  8
2_PRZEJAZD_B
 62
     5
 10
850.5441461553389
 20
590.3905873094924
 30
0.0
 11
851.131779275015
 21
590.9990600570915
 31
0.0
  0
LINE
  5
144
  8
2_PRZEJAZD_B
 62
     5
 10
849.972078681189
 20
589.7666743888725
 30
0.0
 11
850.5441461553389
 21
590.3905873094924
 31
0.0
  0
LINE
  5
145
  8
2_PRZEJAZD_B
 62
     5
 10
849.4176725694156
 20
589.1252424716635
 30
0.0
 11
849.972078681189
 21
589.7666743888725
 31
0.0
  0
LINE
  5
146
  8
2_PRZEJAZD_B
 62
     5
 10
848.8830235368687
 20
588.4642127342977
 30
0.0
 11
849.4176725694156
 21
589.1252424716635
 31
0.0
  0
LINE
  5
147
  8
2_PRZEJAZD_B
 62
     5
 10
848.6236597161743
 20
588.1253661201599
 30
0.0
 11
848.8830235368687
 21
588.4642127342977
 31
0.0
  0
LINE
  5
148
  8
2_PRZEJAZD_B
 62
     5
 10
848.3702027339747
 20
587.7804719165026
 30
0.0
 11
848.6236597161743
 21
588.1253661201599
 31
0.0
  0
LINE
  5
149
  8
2_PRZEJAZD_B
 62
     5
 10
848.1234964291218
 20
587.4297161985083
 30
0.0
 11
848.3702027339747
 21
587.7804719165026
 31
0.0
  0
LINE
  5
14A
  8
2_PRZEJAZD_B
 62
     5
 10
847.8843846404654
 20
587.07328504136
 30
0.0
 11
848.1234964291218
 21
587.4297161985083
 31
0.0
  0
LINE
  5
14B
  8
2_PRZEJAZD_B
 62
     5
 10
847.6539767312438
 20
586.7118328839114
 30
0.0
 11
847.8843846404654
 21
587.07328504136
 31
0.0
  0
LINE
  5
14C
  8
2_PRZEJAZD_B
 62
     5
 10
847.433154054772
 20
586.3457277127296
 30
0.0
 11
847.6539767312438
 21
586.7118328839114
 31
0.0
  0
LINE
  5
14D
  8
2_PRZEJAZD_B
 62
     5
 10
847.2224184350174
 20
585.9747259245692
 30
0.0
 11
847.433154054772
 21
586.3457277127296
 31
0.0
  0
LINE
  5
14E
  8
2_PRZEJAZD_B
 62
     5
 10
847.0222716959477
 20
585.5985839161837
 30
0.0
 11
847.2224184350174
 21
585.9747259245692
 31
0.0
  0
LINE
  5
14F
  8
2_PRZEJAZD_B
 62
     5
 10
846.8332306484701
 20
585.2170508091318
 30
0.0
 11
847.0222716959477
 21
585.5985839161837
 31
0.0
  0
LINE
  5
150
  8
2_PRZEJAZD_B
 62
     5
 10
846.655904032191
 20
584.8298310995051
 30
0.0
 11
846.8332306484701
 21
585.2170508091318
 31
0.0
  0
LINE
  5
151
  8
2_PRZEJAZD_B
 62
     5
 10
846.4909315641241
 20
584.4366142458556
 30
0.0
 11
846.655904032191
 21
584.8298310995051
 31
0.0
  0
LINE
  5
152
  8
2_PRZEJAZD_B
 62
     5
 10
846.3389529612843
 20
584.037089706736
 30
0.0
 11
846.4909315641241
 21
584.4366142458556
 31
0.0
  0
LINE
  5
153
  8
2_PRZEJAZD_B
 62
     5
 10
846.2680461551566
 20
583.8347528143637
 30
0.0
 11
846.3389529612843
 21
584.037089706736
 31
0.0
  0
LINE
  5
154
  8
2_PRZEJAZD_B
 62
     5
 10
846.2006854718621
 20
583.630674231326
 30
0.0
 11
846.2680461551566
 21
583.8347528143637
 31
0.0
  0
LINE
  5
155
  8
2_PRZEJAZD_B
 62
     5
 10
846.1370078672007
 20
583.4250792552359
 30
0.0
 11
846.2006854718621
 21
583.630674231326
 31
0.0
  0
LINE
  5
156
  8
2_PRZEJAZD_B
 62
     5
 10
846.0771502969721
 20
583.2181931837064
 30
0.0
 11
846.1370078672007
 21
583.4250792552359
 31
0.0
  0
LINE
  5
157
  8
2_PRZEJAZD_B
 62
     5
 10
846.0212497169763
 20
583.0102413143503
 30
0.0
 11
846.0771502969721
 21
583.2181931837064
 31
0.0
  0
LINE
  5
158
  8
2_PRZEJAZD_B
 62
     5
 10
845.9694430830128
 20
582.8014489447808
 30
0.0
 11
846.0212497169763
 21
583.0102413143503
 31
0.0
  0
LINE
  5
159
  8
2_PRZEJAZD_B
 62
     5
 10
845.921867350882
 20
582.5920413726107
 30
0.0
 11
845.9694430830128
 21
582.8014489447808
 31
0.0
  0
LINE
  5
15A
  8
2_PRZEJAZD_B
 62
     5
 10
845.8786594763835
 20
582.3822438954529
 30
0.0
 11
845.921867350882
 21
582.5920413726107
 31
0.0
  0
LINE
  5
15B
  8
2_PRZEJAZD_B
 62
     5
 10
845.8398538738066
 20
582.1720681544303
 30
0.0
 11
845.8786594763835
 21
582.3822438954529
 31
0.0
  0
LINE
  5
15C
  8
2_PRZEJAZD_B
 62
     5
 10
845.8054255389765
 20
581.9613717999442
 30
0.0
 11
845.8398538738066
 21
582.1720681544303
 31
0.0
  0
LINE
  5
15D
  8
2_PRZEJAZD_B
 62
     5
 10
845.7754222999952
 20
581.7501491435248
 30
0.0
 11
845.8054255389765
 21
581.9613717999442
 31
0.0
  0
LINE
  5
15E
  8
2_PRZEJAZD_B
 62
     5
 10
845.7498919849656
 20
581.5383944967027
 30
0.0
 11
845.7754222999952
 21
581.7501491435248
 31
0.0
  0
LINE
  5
15F
  8
2_PRZEJAZD_B
 62
     5
 10
845.7288824219897
 20
581.3261021710085
 30
0.0
 11
845.7498919849656
 21
581.5383944967027
 31
0.0
  0
LINE
  5
160
  8
2_PRZEJAZD_B
 62
     5
 10
845.7124414391702
 20
581.1132664779727
 30
0.0
 11
845.7288824219897
 21
581.3261021710085
 31
0.0
  0
LINE
  5
161
  8
2_PRZEJAZD_B
 62
     5
 10
845.7006168646095
 20
580.8998817291259
 30
0.0
 11
845.7124414391702
 21
581.1132664779727
 31
0.0
  0
LINE
  5
162
  8
2_PRZEJAZD_B
 62
     5
 10
845.6934565264098
 20
580.6859422359984
 30
0.0
 11
845.7006168646095
 21
580.8998817291259
 31
0.0
  0
LINE
  5
163
  8
2_PRZEJAZD_B
 62
     5
 10
845.691066959829
 20
580.4713718171765
 30
0.0
 11
845.6934565264098
 21
580.6859422359984
 31
0.0
  0
LINE
  5
164
  8
2_PRZEJAZD_B
 62
     5
 10
845.6935097597517
 20
580.2562979999233
 30
0.0
 11
845.691066959829
 21
580.4713718171765
 31
0.0
  0
LINE
  5
165
  8
2_PRZEJAZD_B
 62
     5
 10
845.7007653437219
 20
580.0410206587821
 30
0.0
 11
845.6935097597517
 21
580.2562979999233
 31
0.0
  0
LINE
  5
166
  8
2_PRZEJAZD_B
 62
     5
 10
845.7128141292826
 20
579.8258396682976
 30
0.0
 11
845.7007653437219
 21
580.0410206587821
 31
0.0
  0
LINE
  5
167
  8
2_PRZEJAZD_B
 62
     5
 10
845.729636533978
 20
579.611054903014
 30
0.0
 11
845.7128141292826
 21
579.8258396682976
 31
0.0
  0
LINE
  5
168
  8
2_PRZEJAZD_B
 62
     5
 10
845.7512129753513
 20
579.3969662374757
 30
0.0
 11
845.729636533978
 21
579.611054903014
 31
0.0
  0
LINE
  5
169
  8
2_PRZEJAZD_B
 62
     5
 10
845.7775238709467
 20
579.1838735462263
 30
0.0
 11
845.7512129753513
 21
579.3969662374757
 31
0.0
  0
LINE
  5
16A
  8
2_PRZEJAZD_B
 62
     5
 10
845.8085496383075
 20
578.9720767038107
 30
0.0
 11
845.7775238709467
 21
579.1838735462263
 31
0.0
  0
LINE
  5
16B
  8
2_PRZEJAZD_B
 62
     5
 10
845.8442395120214
 20
578.7615579700347
 30
0.0
 11
845.8085496383075
 21
578.9720767038107
 31
0.0
  0
LINE
  5
16C
  8
2_PRZEJAZD_B
 62
     5
 10
845.8845343392376
 20
578.5520947733601
 30
0.0
 11
845.8442395120214
 21
578.7615579700347
 31
0.0
  0
LINE
  5
16D
  8
2_PRZEJAZD_B
 62
     5
 10
845.9294019563404
 20
578.3436797413157
 30
0.0
 11
845.8845343392376
 21
578.5520947733601
 31
0.0
  0
LINE
  5
16E
  8
2_PRZEJAZD_B
 62
     5
 10
845.978810199715
 20
578.1363055014294
 30
0.0
 11
845.9294019563404
 21
578.3436797413157
 31
0.0
  0
LINE
  5
16F
  8
2_PRZEJAZD_B
 62
     5
 10
846.0327269057462
 20
577.9299646812301
 30
0.0
 11
845.978810199715
 21
578.1363055014294
 31
0.0
  0
LINE
  5
170
  8
2_PRZEJAZD_B
 62
     5
 10
846.0911199108187
 20
577.7246499082459
 30
0.0
 11
846.0327269057462
 21
577.9299646812301
 31
0.0
  0
LINE
  5
171
  8
2_PRZEJAZD_B
 62
     5
 10
846.1539570513178
 20
577.520353810005
 30
0.0
 11
846.0911199108187
 21
577.7246499082459
 31
0.0
  0
LINE
  5
172
  8
2_PRZEJAZD_B
 62
     5
 10
846.2212061636282
 20
577.3170690140357
 30
0.0
 11
846.1539570513178
 21
577.520353810005
 31
0.0
  0
LINE
  5
173
  8
2_PRZEJAZD_B
 62
     5
 10
846.2929170911484
 20
577.1146140361041
 30
0.0
 11
846.2212061636282
 21
577.3170690140357
 31
0.0
  0
LINE
  5
174
  8
2_PRZEJAZD_B
 62
     5
 10
846.3690064616543
 20
576.9131033681051
 30
0.0
 11
846.2929170911484
 21
577.1146140361041
 31
0.0
  0
LINE
  5
175
  8
2_PRZEJAZD_B
 62
     5
 10
846.4492422880954
 20
576.712973601761
 30
0.0
 11
846.3690064616543
 21
576.9131033681051
 31
0.0
  0
LINE
  5
176
  8
2_PRZEJAZD_B
 62
     5
 10
846.5333925834216
 20
576.5146613287942
 30
0.0
 11
846.4492422880954
 21
576.712973601761
 31
0.0
  0
LINE
  5
177
  8
2_PRZEJAZD_B
 62
     5
 10
846.6211479025396
 20
576.3186707072821
 30
0.0
 11
846.5333925834216
 21
576.5146613287942
 31
0.0
  0
LINE
  5
178
  8
2_PRZEJAZD_B
 62
     5
 10
846.7122829607622
 20
576.1251630424179
 30
0.0
 11
846.6211479025396
 21
576.3186707072821
 31
0.0
  0
LINE
  5
179
  8
2_PRZEJAZD_B
 62
     5
 10
846.8066920116463
 20
575.9340606465976
 30
0.0
 11
846.7122829607622
 21
576.1251630424179
 31
0.0
  0
LINE
  5
17A
  8
2_PRZEJAZD_B
 62
     5
 10
846.9042693087499
 20
575.7452858322175
 30
0.0
 11
846.8066920116463
 21
575.9340606465976
 31
0.0
  0
LINE
  5
17B
  8
2_PRZEJAZD_B
 62
     5
 10
847.108501538109
 20
575.3744051722306
 30
0.0
 11
846.9042693087499
 21
575.7452858322175
 31
0.0
  0
LINE
  5
17C
  8
2_PRZEJAZD_B
 62
     5
 10
847.3242083238259
 20
575.0119544013886
 30
0.0
 11
847.108501538109
 21
575.3744051722306
 31
0.0
  0
LINE
  5
17D
  8
2_PRZEJAZD_B
 62
     5
 10
847.5506618407544
 20
574.6573988162047
 30
0.0
 11
847.3242083238259
 21
575.0119544013886
 31
0.0
  0
LINE
  5
17E
  8
2_PRZEJAZD_B
 62
     5
 10
847.7871342637492
 20
574.3102037131923
 30
0.0
 11
847.5506618407544
 21
574.6573988162047
 31
0.0
  0
LINE
  5
17F
  8
2_PRZEJAZD_B
 62
     5
 10
848.0328977676639
 20
573.9698343888635
 30
0.0
 11
847.7871342637492
 21
574.3102037131923
 31
0.0
  0
LINE
  5
180
  8
2_PRZEJAZD_B
 62
     5
 10
848.287224527353
 20
573.6357561397324
 30
0.0
 11
848.0328977676639
 21
573.9698343888635
 31
0.0
  0
LINE
  5
181
  8
2_PRZEJAZD_B
 62
     5
 10
848.5493867176708
 20
573.3074342623113
 30
0.0
 11
848.287224527353
 21
573.6357561397324
 31
0.0
  0
LINE
  5
182
  8
2_PRZEJAZD_B
 62
     5
 10
848.8186565134714
 20
572.9843340531133
 30
0.0
 11
848.5493867176708
 21
573.3074342623113
 31
0.0
  0
LINE
  5
183
  8
2_PRZEJAZD_B
 62
     5
 10
849.3757948952467
 20
572.351738596308
 30
0.0
 11
848.8186565134714
 21
572.9843340531133
 31
0.0
  0
LINE
  5
184
  8
2_PRZEJAZD_B
 62
     5
 10
849.9525711019166
 20
571.7335651933664
 30
0.0
 11
849.3757948952467
 21
572.351738596308
 31
0.0
  0
LINE
  5
185
  8
2_PRZEJAZD_B
 62
     5
 10
851.1391471218458
 20
570.5221397239501
 30
0.0
 11
849.9525711019166
 21
571.7335651933664
 31
0.0
  0
LINE
  5
186
  8
2_PRZEJAZD_B
 62
     5
 10
855.8735679886231
 20
565.6591676293743
 30
0.0
 11
851.1391471218458
 21
570.5221397239501
 31
0.0
  0
LINE
  5
187
  8
2_PRZEJAZD_B
 62
     5
 10
860.5018844265164
 20
560.6968057386491
 30
0.0
 11
855.8735679886231
 21
565.6591676293743
 31
0.0
  0
LINE
  5
188
  8
2_PRZEJAZD_B
 62
     5
 10
913.7918890274553
 20
500.4697399575647
 30
0.0
 11
913.7918890274534
 21
473.008334563266
 31
0.0
  0
LINE
  5
189
  8
2_PRZEJAZD_B
 62
     5
 10
896.8328029840404
 20
484.582788606727
 30
0.0
 11
913.7918890274553
 21
500.4697399575647
 31
0.0
  0
LINE
  5
18A
  8
2_PRZEJAZD_B
 62
     5
 10
896.3070046069179
 20
484.1387520709987
 30
0.0
 11
896.8328029840404
 21
484.582788606727
 31
0.0
  0
LINE
  5
18B
  8
2_PRZEJAZD_B
 62
     5
 10
895.7932912077674
 20
483.6834513947563
 30
0.0
 11
896.3070046069179
 21
484.1387520709987
 31
0.0
  0
LINE
  5
18C
  8
2_PRZEJAZD_B
 62
     5
 10
895.2957943961596
 20
483.2130355961025
 30
0.0
 11
895.7932912077674
 21
483.6834513947563
 31
0.0
  0
LINE
  5
18D
  8
2_PRZEJAZD_B
 62
     5
 10
894.8128025424888
 20
482.7291000471178
 30
0.0
 11
895.2957943961596
 21
483.2130355961025
 31
0.0
  0
LINE
  5
18E
  8
2_PRZEJAZD_B
 62
     5
 10
894.3426312764276
 20
482.2332147121136
 30
0.0
 11
894.8128025424888
 21
482.7291000471178
 31
0.0
  0
LINE
  5
18F
  8
2_PRZEJAZD_B
 62
     5
 10
893.8835113863763
 20
481.7270286340724
 30
0.0
 11
894.3426312764276
 21
482.2332147121136
 31
0.0
  0
LINE
  5
190
  8
2_PRZEJAZD_B
 62
     5
 10
890.8114518187963
 20
478.0516878531491
 30
0.0
 11
893.8835113863763
 21
481.7270286340724
 31
0.0
  0
LINE
  5
191
  8
2_PRZEJAZD_B
 62
     5
 10
890.3614802629959
 20
477.5372933114327
 30
0.0
 11
890.8114518187963
 21
478.0516878531491
 31
0.0
  0
LINE
  5
192
  8
2_PRZEJAZD_B
 62
     5
 10
890.1314261991632
 20
477.284932541893
 30
0.0
 11
890.3614802629959
 21
477.5372933114327
 31
0.0
  0
LINE
  5
193
  8
2_PRZEJAZD_B
 62
     5
 10
889.8967469620246
 20
477.0369854256261
 30
0.0
 11
890.1314261991632
 21
477.284932541893
 31
0.0
  0
LINE
  5
194
  8
2_PRZEJAZD_B
 62
     5
 10
889.6561499135346
 20
476.7946854853044
 30
0.0
 11
889.8967469620246
 21
477.0369854256261
 31
0.0
  0
LINE
  5
195
  8
2_PRZEJAZD_B
 62
     5
 10
889.4083424156491
 20
476.5592662436004
 30
0.0
 11
889.6561499135346
 21
476.7946854853044
 31
0.0
  0
LINE
  5
196
  8
2_PRZEJAZD_B
 62
     5
 10
889.2812738397676
 20
476.4445709077004
 30
0.0
 11
889.4083424156491
 21
476.5592662436004
 31
0.0
  0
LINE
  5
197
  8
2_PRZEJAZD_B
 62
     5
 10
889.1516263226083
 20
476.332332720222
 30
0.0
 11
889.2812738397676
 21
476.4445709077004
 31
0.0
  0
LINE
  5
198
  8
2_PRZEJAZD_B
 62
     5
 10
889.0189717770037
 20
476.2229718342404
 30
0.0
 11
889.1516263226083
 21
476.332332720222
 31
0.0
  0
LINE
  5
199
  8
2_PRZEJAZD_B
 62
     5
 10
888.8828821157857
 20
476.1169084028314
 30
0.0
 11
889.0189717770037
 21
476.2229718342404
 31
0.0
  0
LINE
  5
19A
  8
2_PRZEJAZD_B
 62
     5
 10
888.7435413123786
 20
476.0149832298007
 30
0.0
 11
888.8828821157857
 21
476.1169084028314
 31
0.0
  0
LINE
  5
19B
  8
2_PRZEJAZD_B
 62
     5
 10
888.6726768696016
 20
475.9660376096915
 30
0.0
 11
888.7435413123786
 21
476.0149832298007
 31
0.0
  0
LINE
  5
19C
  8
2_PRZEJAZD_B
 62
     5
 10
888.6008822887055
 20
475.9186631728356
 30
0.0
 11
888.6726768696016
 21
475.9660376096915
 31
0.0
  0
LINE
  5
19D
  8
2_PRZEJAZD_B
 62
     5
 10
888.5280569866386
 20
475.8730298234704
 30
0.0
 11
888.6008822887055
 21
475.9186631728356
 31
0.0
  0
LINE
  5
19E
  8
2_PRZEJAZD_B
 62
     5
 10
888.4541003803478
 20
475.8293074658327
 30
0.0
 11
888.5280569866386
 21
475.8730298234704
 31
0.0
  0
LINE
  5
19F
  8
2_PRZEJAZD_B
 62
     5
 10
888.378911886781
 20
475.7876660041598
 30
0.0
 11
888.4541003803478
 21
475.8293074658327
 31
0.0
  0
LINE
  5
1A0
  8
2_PRZEJAZD_B
 62
     5
 10
888.3023909228859
 20
475.7482753426888
 30
0.0
 11
888.378911886781
 21
475.7876660041598
 31
0.0
  0
LINE
  5
1A1
  8
2_PRZEJAZD_B
 62
     5
 10
888.2635404839708
 20
475.7294858122899
 30
0.0
 11
888.3023909228859
 21
475.7482753426888
 31
0.0
  0
LINE
  5
1A2
  8
2_PRZEJAZD_B
 62
     5
 10
888.2242335418869
 20
475.7113817520353
 30
0.0
 11
888.2635404839708
 21
475.7294858122899
 31
0.0
  0
LINE
  5
1A3
  8
2_PRZEJAZD_B
 62
     5
 10
888.1845055685122
 20
475.6940470184017
 30
0.0
 11
888.2242335418869
 21
475.7113817520353
 31
0.0
  0
LINE
  5
1A4
  8
2_PRZEJAZD_B
 62
     5
 10
888.1443920357239
 20
475.6775654678656
 30
0.0
 11
888.1845055685122
 21
475.6940470184017
 31
0.0
  0
LINE
  5
1A5
  8
2_PRZEJAZD_B
 62
     5
 10
888.1039284153995
 20
475.662020956903
 30
0.0
 11
888.1443920357239
 21
475.6775654678656
 31
0.0
  0
LINE
  5
1A6
  8
2_PRZEJAZD_B
 62
     5
 10
888.063150179417
 20
475.647497341991
 30
0.0
 11
888.1039284153995
 21
475.662020956903
 31
0.0
  0
LINE
  5
1A7
  8
2_PRZEJAZD_B
 62
     5
 10
888.0220927996537
 20
475.6340784796058
 30
0.0
 11
888.063150179417
 21
475.647497341991
 31
0.0
  0
LINE
  5
1A8
  8
2_PRZEJAZD_B
 62
     5
 10
887.9807917479872
 20
475.621848226224
 30
0.0
 11
888.0220927996537
 21
475.6340784796058
 31
0.0
  0
LINE
  5
1A9
  8
2_PRZEJAZD_B
 62
     5
 10
887.9392467795284
 20
475.6109059555958
 30
0.0
 11
887.9807917479872
 21
475.621848226224
 31
0.0
  0
LINE
  5
1AA
  8
2_PRZEJAZD_B
 62
     5
 10
887.8974337245676
 20
475.6012965138124
 30
0.0
 11
887.9392467795284
 21
475.6109059555958
 31
0.0
  0
LINE
  5
1AB
  8
2_PRZEJAZD_B
 62
     5
 10
887.8553521677503
 20
475.5930219658613
 30
0.0
 11
887.8974337245676
 21
475.6012965138124
 31
0.0
  0
LINE
  5
1AC
  8
2_PRZEJAZD_B
 62
     5
 10
887.813001693724
 20
475.58608437673
 30
0.0
 11
887.8553521677503
 21
475.5930219658613
 31
0.0
  0
LINE
  5
1AD
  8
2_PRZEJAZD_B
 62
     5
 10
887.7703818871344
 20
475.5804858114063
 30
0.0
 11
887.813001693724
 21
475.58608437673
 31
0.0
  0
LINE
  5
1AE
  8
2_PRZEJAZD_B
 62
     5
 10
887.727492332628
 20
475.5762283348776
 30
0.0
 11
887.7703818871344
 21
475.5804858114063
 31
0.0
  0
LINE
  5
1AF
  8
2_PRZEJAZD_B
 62
     5
 10
887.6843326148512
 20
475.5733140121313
 30
0.0
 11
887.727492332628
 21
475.5762283348776
 31
0.0
  0
LINE
  5
1B0
  8
2_PRZEJAZD_B
 62
     5
 10
887.6409023184506
 20
475.5717449081553
 30
0.0
 11
887.6843326148512
 21
475.5733140121313
 31
0.0
  0
LINE
  5
1B1
  8
2_PRZEJAZD_B
 62
     5
 10
887.5974002524193
 20
475.571428497753
 30
0.0
 11
887.6409023184506
 21
475.5717449081553
 31
0.0
  0
LINE
  5
1B2
  8
2_PRZEJAZD_B
 62
     5
 10
887.5540246933793
 20
475.57223963073
 30
0.0
 11
887.5974002524193
 21
475.571428497753
 31
0.0
  0
LINE
  5
1B3
  8
2_PRZEJAZD_B
 62
     5
 10
887.5107744274203
 20
475.5741314345775
 30
0.0
 11
887.5540246933793
 21
475.57223963073
 31
0.0
  0
LINE
  5
1B4
  8
2_PRZEJAZD_B
 62
     5
 10
887.4676482406312
 20
475.5770570367859
 30
0.0
 11
887.5107744274203
 21
475.5741314345775
 31
0.0
  0
LINE
  5
1B5
  8
2_PRZEJAZD_B
 62
     5
 10
887.4246449191012
 20
475.5809695648463
 30
0.0
 11
887.4676482406312
 21
475.5770570367859
 31
0.0
  0
LINE
  5
1B6
  8
2_PRZEJAZD_B
 62
     5
 10
887.38176324892
 20
475.5858221462493
 30
0.0
 11
887.4246449191012
 21
475.5809695648463
 31
0.0
  0
LINE
  5
1B7
  8
2_PRZEJAZD_B
 62
     5
 10
887.3390020161769
 20
475.5915679084859
 30
0.0
 11
887.38176324892
 21
475.5858221462493
 31
0.0
  0
LINE
  5
1B8
  8
2_PRZEJAZD_B
 62
     5
 10
887.2963600069612
 20
475.5981599790465
 30
0.0
 11
887.3390020161769
 21
475.5915679084859
 31
0.0
  0
LINE
  5
1B9
  8
2_PRZEJAZD_B
 62
     5
 10
887.2538360073623
 20
475.6055514854223
 30
0.0
 11
887.2963600069612
 21
475.5981599790465
 31
0.0
  0
LINE
  5
1BA
  8
2_PRZEJAZD_B
 62
     5
 10
887.2114288034692
 20
475.6136955551038
 30
0.0
 11
887.2538360073623
 21
475.6055514854223
 31
0.0
  0
LINE
  5
1BB
  8
2_PRZEJAZD_B
 62
     5
 10
887.1269599271587
 20
475.6320538943477
 30
0.0
 11
887.2114288034692
 21
475.6136955551038
 31
0.0
  0
LINE
  5
1BC
  8
2_PRZEJAZD_B
 62
     5
 10
887.0429436667443
 20
475.6528600167043
 30
0.0
 11
887.1269599271587
 21
475.6320538943477
 31
0.0
  0
LINE
  5
1BD
  8
2_PRZEJAZD_B
 62
     5
 10
886.9593703109404
 20
475.6757389420998
 30
0.0
 11
887.0429436667443
 21
475.6528600167043
 31
0.0
  0
LINE
  5
1BE
  8
2_PRZEJAZD_B
 62
     5
 10
886.8763603990591
 20
475.7004318278362
 30
0.0
 11
886.9593703109404
 21
475.6757389420998
 31
0.0
  0
LINE
  5
1BF
  8
2_PRZEJAZD_B
 62
     5
 10
886.7940153881564
 20
475.7268630041793
 30
0.0
 11
886.8763603990591
 21
475.7004318278362
 31
0.0
  0
LINE
  5
1C0
  8
2_PRZEJAZD_B
 62
     5
 10
886.712296943565
 20
475.7549322505025
 30
0.0
 11
886.7940153881564
 21
475.7268630041793
 31
0.0
  0
LINE
  5
1C1
  8
2_PRZEJAZD_B
 62
     5
 10
886.6311667306168
 20
475.7845393461784
 30
0.0
 11
886.712296943565
 21
475.7549322505025
 31
0.0
  0
LINE
  5
1C2
  8
2_PRZEJAZD_B
 62
     5
 10
886.4705176609797
 20
475.8479662030824
 30
0.0
 11
886.6311667306168
 21
475.7845393461784
 31
0.0
  0
LINE
  5
1C3
  8
2_PRZEJAZD_B
 62
     5
 10
886.3117615019025
 20
475.9163418098759
 30
0.0
 11
886.4705176609797
 21
475.8479662030824
 31
0.0
  0
LINE
  5
1C4
  8
2_PRZEJAZD_B
 62
     5
 10
886.1547782173052
 20
475.988972941159
 30
0.0
 11
886.3117615019025
 21
475.9163418098759
 31
0.0
  0
LINE
  5
1C5
  8
2_PRZEJAZD_B
 62
     5
 10
885.9996649931823
 20
476.0654107807513
 30
0.0
 11
886.1547782173052
 21
475.988972941159
 31
0.0
  0
LINE
  5
1C6
  8
2_PRZEJAZD_B
 62
     5
 10
885.8464409853043
 20
476.1452201774667
 30
0.0
 11
885.9996649931823
 21
476.0654107807513
 31
0.0
  0
LINE
  5
1C7
  8
2_PRZEJAZD_B
 62
     5
 10
885.6951253494414
 20
476.2279659801193
 30
0.0
 11
885.8464409853043
 21
476.1452201774667
 31
0.0
  0
LINE
  5
1C8
  8
2_PRZEJAZD_B
 62
     5
 10
885.3975944774656
 20
476.4010914345561
 30
0.0
 11
885.6951253494414
 21
476.2279659801193
 31
0.0
  0
LINE
  5
1C9
  8
2_PRZEJAZD_B
 62
     5
 10
885.1059601064783
 20
476.5834671811182
 30
0.0
 11
885.3975944774656
 21
476.4010914345561
 31
0.0
  0
LINE
  5
1CA
  8
2_PRZEJAZD_B
 62
     5
 10
884.8195292162989
 20
476.7740060260396
 30
0.0
 11
885.1059601064783
 21
476.5834671811182
 31
0.0
  0
LINE
  5
1CB
  8
2_PRZEJAZD_B
 62
     5
 10
884.5376087867471
 20
476.9716207755538
 30
0.0
 11
884.8195292162989
 21
476.7740060260396
 31
0.0
  0
LINE
  5
1CC
  8
2_PRZEJAZD_B
 62
     5
 10
884.2596405108957
 20
477.1754283058563
 30
0.0
 11
884.5376087867471
 21
476.9716207755538
 31
0.0
  0
LINE
  5
1CD
  8
2_PRZEJAZD_B
 62
     5
 10
883.9854993257377
 20
477.3847921017755
 30
0.0
 11
884.2596405108957
 21
477.1754283058563
 31
0.0
  0
LINE
  5
1CE
  8
2_PRZEJAZD_B
 62
     5
 10
883.4485256102975
 20
477.8173193671955
 30
0.0
 11
883.9854993257377
 21
477.3847921017755
 31
0.0
  0
LINE
  5
1CF
  8
2_PRZEJAZD_B
 62
     5
 10
882.9255118669093
 20
478.2646419255104
 30
0.0
 11
883.4485256102975
 21
477.8173193671955
 31
0.0
  0
LINE
  5
1D0
  8
2_PRZEJAZD_B
 62
     5
 10
882.414299985669
 20
478.7247147036455
 30
0.0
 11
882.9255118669093
 21
478.2646419255104
 31
0.0
  0
LINE
  5
1D1
  8
2_PRZEJAZD_B
 62
     5
 10
881.9131572939076
 20
479.1956657972252
 30
0.0
 11
882.414299985669
 21
478.7247147036455
 31
0.0
  0
LINE
  5
1D2
  8
2_PRZEJAZD_B
 62
     5
 10
881.4209452266238
 20
479.6762651500199
 30
0.0
 11
881.9131572939076
 21
479.1956657972252
 31
0.0
  0
LINE
  5
1D3
  8
2_PRZEJAZD_B
 62
     5
 10
880.4596026555106
 20
480.6624001753823
 30
0.0
 11
881.4209452266238
 21
479.6762651500199
 31
0.0
  0
LINE
  5
1D4
  8
2_PRZEJAZD_B
 62
     5
 10
864.3170766638713
 20
497.876732837501
 30
0.0
 11
880.4596026555106
 21
480.6624001753823
 31
0.0
  0
LINE
  5
1D5
  8
2_PRZEJAZD_B
 62
     5
 10
861.5016065981949
 20
495.9648077471056
 30
0.0
 11
864.3170766638713
 21
497.876732837501
 31
0.0
  0
LINE
  5
1D6
  8
2_PRZEJAZD_B
 62
     5
 10
858.712915427731
 20
494.0153385911507
 30
0.0
 11
861.5016065981949
 21
495.9648077471056
 31
0.0
  0
LINE
  5
1D7
  8
2_PRZEJAZD_B
 62
     5
 10
857.3416889772922
 20
493.008190939144
 30
0.0
 11
858.712915427731
 21
494.0153385911507
 31
0.0
  0
LINE
  5
1D8
  8
2_PRZEJAZD_B
 62
     5
 10
855.9891555819806
 20
491.9748355858061
 30
0.0
 11
857.3416889772922
 21
493.008190939144
 31
0.0
  0
LINE
  5
1D9
  8
2_PRZEJAZD_B
 62
     5
 10
854.6597130278005
 20
490.912048973973
 30
0.0
 11
855.9891555819806
 21
491.9748355858061
 31
0.0
  0
LINE
  5
1DA
  8
2_PRZEJAZD_B
 62
     5
 10
853.3610023733663
 20
489.8170119744153
 30
0.0
 11
854.6597130278005
 21
490.912048973973
 31
0.0
  0
LINE
  5
1DB
  8
2_PRZEJAZD_B
 62
     5
 10
852.1000576591151
 20
488.6850543118381
 30
0.0
 11
853.3610023733663
 21
489.8170119744153
 31
0.0
  0
LINE
  5
1DC
  8
2_PRZEJAZD_B
 62
     5
 10
851.4861497625966
 20
488.1026445437569
 30
0.0
 11
852.1000576591151
 21
488.6850543118381
 31
0.0
  0
LINE
  5
1DD
  8
2_PRZEJAZD_B
 62
     5
 10
850.8847854488195
 20
487.5077923050119
 30
0.0
 11
851.4861497625966
 21
488.1026445437569
 31
0.0
  0
LINE
  5
1DE
  8
2_PRZEJAZD_B
 62
     5
 10
850.2971523291433
 20
486.899319557413
 30
0.0
 11
850.8847854488195
 21
487.5077923050119
 31
0.0
  0
LINE
  5
1DF
  8
2_PRZEJAZD_B
 62
     5
 10
849.7250848549934
 20
486.275406636793
 30
0.0
 11
850.2971523291433
 21
486.899319557413
 31
0.0
  0
LINE
  5
1E0
  8
2_PRZEJAZD_B
 62
     5
 10
849.1706787432199
 20
485.6339747195842
 30
0.0
 11
849.7250848549934
 21
486.275406636793
 31
0.0
  0
LINE
  5
1E1
  8
2_PRZEJAZD_B
 62
     5
 10
848.6360297106729
 20
484.9729449822184
 30
0.0
 11
849.1706787432199
 21
485.6339747195842
 31
0.0
  0
LINE
  5
1E2
  8
2_PRZEJAZD_B
 62
     5
 10
848.3766658899783
 20
484.6340983680807
 30
0.0
 11
848.6360297106729
 21
484.9729449822184
 31
0.0
  0
LINE
  5
1E3
  8
2_PRZEJAZD_B
 62
     5
 10
848.1232089077788
 20
484.2892041644233
 30
0.0
 11
848.3766658899783
 21
484.6340983680807
 31
0.0
  0
LINE
  5
1E4
  8
2_PRZEJAZD_B
 62
     5
 10
847.8765026029258
 20
483.9384484464292
 30
0.0
 11
848.1232089077788
 21
484.2892041644233
 31
0.0
  0
LINE
  5
1E5
  8
2_PRZEJAZD_B
 62
     5
 10
847.6373908142695
 20
483.5820172892809
 30
0.0
 11
847.8765026029258
 21
483.9384484464292
 31
0.0
  0
LINE
  5
1E6
  8
2_PRZEJAZD_B
 62
     5
 10
847.4069829050478
 20
483.2205651318322
 30
0.0
 11
847.6373908142695
 21
483.5820172892809
 31
0.0
  0
LINE
  5
1E7
  8
2_PRZEJAZD_B
 62
     5
 10
847.186160228576
 20
482.8544599606506
 30
0.0
 11
847.4069829050478
 21
483.2205651318322
 31
0.0
  0
LINE
  5
1E8
  8
2_PRZEJAZD_B
 62
     5
 10
846.9754246088214
 20
482.48345817249
 30
0.0
 11
847.186160228576
 21
482.8544599606506
 31
0.0
  0
LINE
  5
1E9
  8
2_PRZEJAZD_B
 62
     5
 10
846.7752778697516
 20
482.1073161641045
 30
0.0
 11
846.9754246088214
 21
482.48345817249
 31
0.0
  0
LINE
  5
1EA
  8
2_PRZEJAZD_B
 62
     5
 10
846.586236822274
 20
481.7257830570527
 30
0.0
 11
846.7752778697516
 21
482.1073161641045
 31
0.0
  0
LINE
  5
1EB
  8
2_PRZEJAZD_B
 62
     5
 10
846.4089102059947
 20
481.338563347426
 30
0.0
 11
846.586236822274
 21
481.7257830570527
 31
0.0
  0
LINE
  5
1EC
  8
2_PRZEJAZD_B
 62
     5
 10
846.2439377379279
 20
480.9453464937765
 30
0.0
 11
846.4089102059947
 21
481.338563347426
 31
0.0
  0
LINE
  5
1ED
  8
2_PRZEJAZD_B
 62
     5
 10
846.091959135088
 20
480.5458219546569
 30
0.0
 11
846.2439377379279
 21
480.9453464937765
 31
0.0
  0
LINE
  5
1EE
  8
2_PRZEJAZD_B
 62
     5
 10
846.0210523289604
 20
480.3434850622847
 30
0.0
 11
846.091959135088
 21
480.5458219546569
 31
0.0
  0
LINE
  5
1EF
  8
2_PRZEJAZD_B
 62
     5
 10
845.9536916456658
 20
480.139406479247
 30
0.0
 11
846.0210523289604
 21
480.3434850622847
 31
0.0
  0
LINE
  5
1F0
  8
2_PRZEJAZD_B
 62
     5
 10
845.8900140410044
 20
479.933811503157
 30
0.0
 11
845.9536916456658
 21
480.139406479247
 31
0.0
  0
LINE
  5
1F1
  8
2_PRZEJAZD_B
 62
     5
 10
845.8301564707758
 20
479.7269254316274
 30
0.0
 11
845.8900140410044
 21
479.933811503157
 31
0.0
  0
LINE
  5
1F2
  8
2_PRZEJAZD_B
 62
     5
 10
845.77425589078
 20
479.5189735622713
 30
0.0
 11
845.8301564707758
 21
479.7269254316274
 31
0.0
  0
LINE
  5
1F3
  8
2_PRZEJAZD_B
 62
     5
 10
845.7224492568165
 20
479.3101811927019
 30
0.0
 11
845.77425589078
 21
479.5189735622713
 31
0.0
  0
LINE
  5
1F4
  8
2_PRZEJAZD_B
 62
     5
 10
845.6748735246855
 20
479.1007736205316
 30
0.0
 11
845.7224492568165
 21
479.3101811927019
 31
0.0
  0
LINE
  5
1F5
  8
2_PRZEJAZD_B
 62
     5
 10
845.6316656501871
 20
478.890976143374
 30
0.0
 11
845.6748735246855
 21
479.1007736205316
 31
0.0
  0
LINE
  5
1F6
  8
2_PRZEJAZD_B
 62
     5
 10
845.5928600476102
 20
478.6808004023513
 30
0.0
 11
845.6316656501871
 21
478.890976143374
 31
0.0
  0
LINE
  5
1F7
  8
2_PRZEJAZD_B
 62
     5
 10
845.5584317127799
 20
478.4701040478652
 30
0.0
 11
845.5928600476102
 21
478.6808004023513
 31
0.0
  0
LINE
  5
1F8
  8
2_PRZEJAZD_B
 62
     5
 10
845.5284284737987
 20
478.2588813914459
 30
0.0
 11
845.5584317127799
 21
478.4701040478652
 31
0.0
  0
LINE
  5
1F9
  8
2_PRZEJAZD_B
 62
     5
 10
845.5028981587692
 20
478.0471267446238
 30
0.0
 11
845.5284284737987
 21
478.2588813914459
 31
0.0
  0
LINE
  5
1FA
  8
2_PRZEJAZD_B
 62
     5
 10
845.4818885957933
 20
477.8348344189296
 30
0.0
 11
845.5028981587692
 21
478.0471267446238
 31
0.0
  0
LINE
  5
1FB
  8
2_PRZEJAZD_B
 62
     5
 10
845.4654476129738
 20
477.6219987258938
 30
0.0
 11
845.4818885957933
 21
477.8348344189296
 31
0.0
  0
LINE
  5
1FC
  8
2_PRZEJAZD_B
 62
     5
 10
845.453623038413
 20
477.408613977047
 30
0.0
 11
845.4654476129738
 21
477.6219987258938
 31
0.0
  0
LINE
  5
1FD
  8
2_PRZEJAZD_B
 62
     5
 10
845.4464627002134
 20
477.1946744839194
 30
0.0
 11
845.453623038413
 21
477.408613977047
 31
0.0
  0
LINE
  5
1FE
  8
2_PRZEJAZD_B
 62
     5
 10
845.4440731336323
 20
476.9801040650976
 30
0.0
 11
845.4464627002134
 21
477.1946744839194
 31
0.0
  0
LINE
  5
1FF
  8
2_PRZEJAZD_B
 62
     5
 10
845.446515933555
 20
476.7650302478442
 30
0.0
 11
845.4440731336323
 21
476.9801040650976
 31
0.0
  0
LINE
  5
200
  8
2_PRZEJAZD_B
 62
     5
 10
845.4537715175253
 20
476.5497529067031
 30
0.0
 11
845.446515933555
 21
476.7650302478442
 31
0.0
  0
LINE
  5
201
  8
2_PRZEJAZD_B
 62
     5
 10
845.4658203030859
 20
476.3345719162186
 30
0.0
 11
845.4537715175253
 21
476.5497529067031
 31
0.0
  0
LINE
  5
202
  8
2_PRZEJAZD_B
 62
     5
 10
845.4826427077812
 20
476.119787150935
 30
0.0
 11
845.4658203030859
 21
476.3345719162186
 31
0.0
  0
LINE
  5
203
  8
2_PRZEJAZD_B
 62
     5
 10
845.5042191491546
 20
475.9056984853966
 30
0.0
 11
845.4826427077812
 21
476.119787150935
 31
0.0
  0
LINE
  5
204
  8
2_PRZEJAZD_B
 62
     5
 10
845.5305300447498
 20
475.6926057941473
 30
0.0
 11
845.5042191491546
 21
475.9056984853966
 31
0.0
  0
LINE
  5
205
  8
2_PRZEJAZD_B
 62
     5
 10
845.5615558121107
 20
475.4808089517317
 30
0.0
 11
845.5305300447498
 21
475.6926057941473
 31
0.0
  0
LINE
  5
206
  8
2_PRZEJAZD_B
 62
     5
 10
845.5972456858246
 20
475.2702902179556
 30
0.0
 11
845.5615558121107
 21
475.4808089517317
 31
0.0
  0
LINE
  5
207
  8
2_PRZEJAZD_B
 62
     5
 10
845.6375405130408
 20
475.0608270212811
 30
0.0
 11
845.5972456858246
 21
475.2702902179556
 31
0.0
  0
LINE
  5
208
  8
2_PRZEJAZD_B
 62
     5
 10
845.6824081301435
 20
474.8524119892367
 30
0.0
 11
845.6375405130408
 21
475.0608270212811
 31
0.0
  0
LINE
  5
209
  8
2_PRZEJAZD_B
 62
     5
 10
845.7318163735181
 20
474.6450377493505
 30
0.0
 11
845.6824081301435
 21
474.8524119892367
 31
0.0
  0
LINE
  5
20A
  8
2_PRZEJAZD_B
 62
     5
 10
845.7857330795493
 20
474.438696929151
 30
0.0
 11
845.7318163735181
 21
474.6450377493505
 31
0.0
  0
LINE
  5
20B
  8
2_PRZEJAZD_B
 62
     5
 10
845.8441260846218
 20
474.2333821561668
 30
0.0
 11
845.7857330795493
 21
474.438696929151
 31
0.0
  0
LINE
  5
20C
  8
2_PRZEJAZD_B
 62
     5
 10
845.906963225121
 20
474.0290860579259
 30
0.0
 11
845.8441260846218
 21
474.2333821561668
 31
0.0
  0
LINE
  5
20D
  8
2_PRZEJAZD_B
 62
     5
 10
845.9742123374314
 20
473.8258012619568
 30
0.0
 11
845.906963225121
 21
474.0290860579259
 31
0.0
  0
LINE
  5
20E
  8
2_PRZEJAZD_B
 62
     5
 10
846.0459232649514
 20
473.623346284025
 30
0.0
 11
845.9742123374314
 21
473.8258012619568
 31
0.0
  0
LINE
  5
20F
  8
2_PRZEJAZD_B
 62
     5
 10
846.1220126354573
 20
473.421835616026
 30
0.0
 11
846.0459232649514
 21
473.623346284025
 31
0.0
  0
LINE
  5
210
  8
2_PRZEJAZD_B
 62
     5
 10
846.2022484618985
 20
473.2217058496819
 30
0.0
 11
846.1220126354573
 21
473.421835616026
 31
0.0
  0
LINE
  5
211
  8
2_PRZEJAZD_B
 62
     5
 10
846.2863987572246
 20
473.0233935767152
 30
0.0
 11
846.2022484618985
 21
473.2217058496819
 31
0.0
  0
LINE
  5
212
  8
2_PRZEJAZD_B
 62
     5
 10
846.3741540763427
 20
472.827402955203
 30
0.0
 11
846.2863987572246
 21
473.0233935767152
 31
0.0
  0
LINE
  5
213
  8
2_PRZEJAZD_B
 62
     5
 10
846.4652891345651
 20
472.6338952903387
 30
0.0
 11
846.3741540763427
 21
472.827402955203
 31
0.0
  0
LINE
  5
214
  8
2_PRZEJAZD_B
 62
     5
 10
846.5596981854493
 20
472.4427928945186
 30
0.0
 11
846.4652891345651
 21
472.6338952903387
 31
0.0
  0
LINE
  5
215
  8
2_PRZEJAZD_B
 62
     5
 10
846.6572754825529
 20
472.2540180801384
 30
0.0
 11
846.5596981854493
 21
472.4427928945186
 31
0.0
  0
LINE
  5
216
  8
2_PRZEJAZD_B
 62
     5
 10
846.8615077119119
 20
471.8831374201515
 30
0.0
 11
846.6572754825529
 21
472.2540180801384
 31
0.0
  0
LINE
  5
217
  8
2_PRZEJAZD_B
 62
     5
 10
847.0772144976287
 20
471.5206866493095
 30
0.0
 11
846.8615077119119
 21
471.8831374201515
 31
0.0
  0
LINE
  5
218
  8
2_PRZEJAZD_B
 62
     5
 10
847.3036680145572
 20
471.1661310641256
 30
0.0
 11
847.0772144976287
 21
471.5206866493095
 31
0.0
  0
LINE
  5
219
  8
2_PRZEJAZD_B
 62
     5
 10
847.5401404375519
 20
470.8189359611131
 30
0.0
 11
847.3036680145572
 21
471.1661310641256
 31
0.0
  0
LINE
  5
21A
  8
2_PRZEJAZD_B
 62
     5
 10
847.7859039414667
 20
470.4785666367844
 30
0.0
 11
847.5401404375519
 21
470.8189359611131
 31
0.0
  0
LINE
  5
21B
  8
2_PRZEJAZD_B
 62
     5
 10
848.0402307011558
 20
470.1444883876532
 30
0.0
 11
847.7859039414667
 21
470.4785666367844
 31
0.0
  0
LINE
  5
21C
  8
2_PRZEJAZD_B
 62
     5
 10
848.3023928914736
 20
469.8161665102321
 30
0.0
 11
848.0402307011558
 21
470.1444883876532
 31
0.0
  0
LINE
  5
21D
  8
2_PRZEJAZD_B
 62
     5
 10
848.5716626872742
 20
469.493066301034
 30
0.0
 11
848.3023928914736
 21
469.8161665102321
 31
0.0
  0
LINE
  5
21E
  8
2_PRZEJAZD_B
 62
     5
 10
849.1288010690494
 20
468.8604708442288
 30
0.0
 11
848.5716626872742
 21
469.493066301034
 31
0.0
  0
LINE
  5
21F
  8
2_PRZEJAZD_B
 62
     5
 10
849.7055772757193
 20
468.242297441287
 30
0.0
 11
849.1288010690494
 21
468.8604708442288
 31
0.0
  0
LINE
  5
220
  8
2_PRZEJAZD_B
 62
     5
 10
850.8921532956483
 20
467.0308719718707
 30
0.0
 11
849.7055772757193
 21
468.242297441287
 31
0.0
  0
LINE
  5
221
  8
2_PRZEJAZD_B
 62
     5
 10
855.6265741624251
 20
462.1678998772944
 30
0.0
 11
850.8921532956483
 21
467.0308719718707
 31
0.0
  0
LINE
  5
222
  8
2_PRZEJAZD_B
 62
     5
 10
860.2548906003179
 20
457.2055379865687
 30
0.0
 11
855.6265741624251
 21
462.1678998772944
 31
0.0
  0
LINE
  5
223
  8
2_PRZEJAZD_B
 62
     5
 10
897.7822457488384
 20
437.2687866152784
 30
0.0
 11
895.7918890274608
 21
437.3464488660169
 31
0.0
  0
LINE
  5
224
  8
2_PRZEJAZD_B
 62
     5
 10
898.4442968565362
 20
437.2684431769138
 30
0.0
 11
897.7822457488384
 21
437.2687866152784
 31
0.0
  0
LINE
  5
225
  8
2_PRZEJAZD_B
 62
     5
 10
899.1035995037556
 20
437.2873671979702
 30
0.0
 11
898.4442968565362
 21
437.2684431769138
 31
0.0
  0
LINE
  5
226
  8
2_PRZEJAZD_B
 62
     5
 10
899.7600554682185
 20
437.3275430514595
 30
0.0
 11
899.1035995037556
 21
437.2873671979702
 31
0.0
  0
LINE
  5
227
  8
2_PRZEJAZD_B
 62
     5
 10
900.087125386913
 20
437.356276469937
 30
0.0
 11
899.7600554682185
 21
437.3275430514595
 31
0.0
  0
LINE
  5
228
  8
2_PRZEJAZD_B
 62
     5
 10
900.4133749659144
 20
437.3911341120074
 30
0.0
 11
900.087125386913
 21
437.356276469937
 31
0.0
  0
LINE
  5
229
  8
2_PRZEJAZD_B
 62
     5
 10
900.7387679822214
 20
437.4323863994987
 30
0.0
 11
900.4133749659144
 21
437.3911341120074
 31
0.0
  0
LINE
  5
22A
  8
2_PRZEJAZD_B
 62
     5
 10
901.0632682128323
 20
437.4803037542393
 30
0.0
 11
900.7387679822214
 21
437.4323863994987
 31
0.0
  0
LINE
  5
22B
  8
2_PRZEJAZD_B
 62
     5
 10
901.386835240135
 20
437.5351879128115
 30
0.0
 11
901.0632682128323
 21
437.4803037542393
 31
0.0
  0
LINE
  5
22C
  8
2_PRZEJAZD_B
 62
     5
 10
901.7094238054277
 20
437.5973767528168
 30
0.0
 11
901.386835240135
 21
437.5351879128115
 31
0.0
  0
LINE
  5
22D
  8
2_PRZEJAZD_B
 62
     5
 10
902.0309904240761
 20
437.6671949076111
 30
0.0
 11
901.7094238054277
 21
437.5973767528168
 31
0.0
  0
LINE
  5
22E
  8
2_PRZEJAZD_B
 62
     5
 10
902.3514916114442
 20
437.7449670105507
 30
0.0
 11
902.0309904240761
 21
437.6671949076111
 31
0.0
  0
LINE
  5
22F
  8
2_PRZEJAZD_B
 62
     5
 10
902.6712275868568
 20
437.8311588124001
 30
0.0
 11
902.3514916114442
 21
437.7449670105507
 31
0.0
  0
LINE
  5
230
  8
2_PRZEJAZD_B
 62
     5
 10
902.989959033755
 20
437.9260348885865
 30
0.0
 11
902.6712275868568
 21
437.8311588124001
 31
0.0
  0
LINE
  5
231
  8
2_PRZEJAZD_B
 62
     5
 10
903.3068331636787
 20
438.029618109462
 30
0.0
 11
902.989959033755
 21
437.9260348885865
 31
0.0
  0
LINE
  5
232
  8
2_PRZEJAZD_B
 62
     5
 10
903.6209971881673
 20
438.1419313453782
 30
0.0
 11
903.3068331636787
 21
438.029618109462
 31
0.0
  0
LINE
  5
233
  8
2_PRZEJAZD_B
 62
     5
 10
903.931002173569
 20
438.2627672864207
 30
0.0
 11
903.6209971881673
 21
438.1419313453782
 31
0.0
  0
LINE
  5
234
  8
2_PRZEJAZD_B
 62
     5
 10
904.2360414796664
 20
438.391781877598
 30
0.0
 11
903.931002173569
 21
438.2627672864207
 31
0.0
  0
LINE
  5
235
  8
2_PRZEJAZD_B
 62
     5
 10
904.5362257581502
 20
438.5287928716461
 30
0.0
 11
904.2360414796664
 21
438.391781877598
 31
0.0
  0
LINE
  5
236
  8
2_PRZEJAZD_B
 62
     5
 10
904.8316656607112
 20
438.673618021301
 30
0.0
 11
904.5362257581502
 21
438.5287928716461
 31
0.0
  0
LINE
  5
237
  8
2_PRZEJAZD_B
 62
     5
 10
905.1224718390408
 20
438.8260750792986
 30
0.0
 11
904.8316656607112
 21
438.673618021301
 31
0.0
  0
LINE
  5
238
  8
2_PRZEJAZD_B
 62
     5
 10
905.40875494483
 20
438.9859817983747
 30
0.0
 11
905.1224718390408
 21
438.8260750792986
 31
0.0
  0
LINE
  5
239
  8
2_PRZEJAZD_B
 62
     5
 10
905.6906256297692
 20
439.1531559312655
 30
0.0
 11
905.40875494483
 21
438.9859817983747
 31
0.0
  0
LINE
  5
23A
  8
2_PRZEJAZD_B
 62
     5
 10
905.9681945455502
 20
439.3274152307068
 30
0.0
 11
905.6906256297692
 21
439.1531559312655
 31
0.0
  0
LINE
  5
23B
  8
2_PRZEJAZD_B
 62
     5
 10
906.2416653433098
 20
439.5084242760441
 30
0.0
 11
905.9681945455502
 21
439.3274152307068
 31
0.0
  0
LINE
  5
23C
  8
2_PRZEJAZD_B
 62
     5
 10
906.511548774938
 20
439.6953418407794
 30
0.0
 11
906.2416653433098
 21
439.5084242760441
 31
0.0
  0
LINE
  5
23D
  8
2_PRZEJAZD_B
 62
     5
 10
909.150279776586
 20
441.6629121500399
 30
0.0
 11
906.511548774938
 21
439.6953418407794
 31
0.0
  0
LINE
  5
23E
  8
2_PRZEJAZD_B
 62
     5
 10
910.1893482911946
 20
442.4699781243532
 30
0.0
 11
909.150279776586
 21
441.6629121500399
 31
0.0
  0
LINE
  5
23F
  8
2_PRZEJAZD_B
 62
     5
 10
910.6964170916829
 20
442.8898580489892
 30
0.0
 11
910.1893482911946
 21
442.4699781243532
 31
0.0
  0
LINE
  5
240
  8
2_PRZEJAZD_B
 62
     5
 10
911.1915871280102
 20
443.3241802025387
 30
0.0
 11
910.6964170916829
 21
442.8898580489892
 31
0.0
  0
LINE
  5
241
  8
2_PRZEJAZD_B
 62
     5
 10
911.4335963513931
 20
443.5472584383709
 30
0.0
 11
911.1915871280102
 21
443.3241802025387
 31
0.0
  0
LINE
  5
242
  8
2_PRZEJAZD_B
 62
     5
 10
911.6712943738708
 20
443.7745488192891
 30
0.0
 11
911.4335963513931
 21
443.5472584383709
 31
0.0
  0
LINE
  5
243
  8
2_PRZEJAZD_B
 62
     5
 10
911.904235692155
 20
444.0062518745793
 30
0.0
 11
911.6712943738708
 21
443.7745488192891
 31
0.0
  0
LINE
  5
244
  8
2_PRZEJAZD_B
 62
     5
 10
912.1319748029578
 20
444.2425681335275
 30
0.0
 11
911.904235692155
 21
444.0062518745793
 31
0.0
  0
LINE
  5
245
  8
2_PRZEJAZD_B
 62
     5
 10
912.3539394697522
 20
444.4838980646709
 30
0.0
 11
912.1319748029578
 21
444.2425681335275
 31
0.0
  0
LINE
  5
246
  8
2_PRZEJAZD_B
 62
     5
 10
912.5699542746848
 20
444.7304213256604
 30
0.0
 11
912.3539394697522
 21
444.4838980646709
 31
0.0
  0
LINE
  5
247
  8
2_PRZEJAZD_B
 62
     5
 10
912.7801689424768
 20
444.9820072294512
 30
0.0
 11
912.5699542746848
 21
444.7304213256604
 31
0.0
  0
LINE
  5
248
  8
2_PRZEJAZD_B
 62
     5
 10
912.9847331978489
 20
445.2385250889991
 30
0.0
 11
912.7801689424768
 21
444.9820072294512
 31
0.0
  0
LINE
  5
249
  8
2_PRZEJAZD_B
 62
     5
 10
913.7918890274543
 20
446.274286189313
 30
0.0
 11
912.9847331978489
 21
445.2385250889991
 31
0.0
  0
LINE
  5
24A
  8
2_PRZEJAZD_B
 62
     5
 10
913.7918890274523
 20
458.008334563266
 30
0.0
 11
913.7918890274543
 21
446.274286189313
 31
0.0
  0
LINE
  5
24B
  8
2_PRZEJAZD_B
 62
     5
 10
895.7918890274702
 20
416.1718665035786
 30
0.0
 11
869.2949127231221
 21
447.0840087829097
 31
0.0
  0
LINE
  5
24C
  8
2_PRZEJAZD_B
 62
     5
 10
895.7918890274354
 20
437.3464488660118
 30
0.0
 11
895.7918890274702
 21
416.1718665035786
 31
0.0
  0
LINE
  5
24D
  8
2_PRZEJAZD_B
 62
     5
 10
893.6705686838758
 20
439.4677692095714
 30
0.0
 11
895.7918890274354
 21
437.3464488660118
 31
0.0
  0
LINE
  5
24E
  8
2_PRZEJAZD_B
 62
     5
 10
618.4511686784139
 20
153.714152785517
 30
0.0
 11
887.7377539214809
 21
309.18683526474
 31
0.0
  0
LINE
  5
24F
  8
2_PRZEJAZD_B
 62
     5
 10
581.4476732975223
 20
132.3501747664045
 30
0.0
 11
602.849264721244
 21
144.7063893359753
 31
0.0
  0
LINE
  5
250
  8
2_PRZEJAZD_B
 62
     5
 10
567.9476732975235
 20
373.3749298664681
 30
0.0
 11
567.9476732975235
 21
539.8483524358556
 31
0.0
  0
LINE
  5
251
  8
2_PRZEJAZD_B
 62
     5
 10
567.9476732975235
 20
140.1444034004646
 30
0.0
 11
567.9476732975235
 21
358.3749298664681
 31
0.0
  0
LINE
  5
252
  8
2_PRZEJAZD_B
 62
     5
 10
846.4762946241136
 20
348.5976071653922
 30
0.0
 11
581.4476732975066
 21
501.611953031262
 31
0.0
  0
LINE
  5
253
  8
2_PRZEJAZD_B
 62
     5
 10
887.7377539215171
 20
324.7752925328798
 30
0.0
 11
863.8589899794719
 21
338.5617033227351
 31
0.0
  0
LINE
  5
254
  8
2_PRZEJAZD_B
 62
     5
 10
686.9511911507218
 20
542.6293754028555
 30
0.0
 11
674.8923646163233
 21
542.6293754028555
 31
0.0
  0
LINE
  5
255
  8
2_PRZEJAZD_B
 62
     5
 10
709.3837931877233
 20
542.6293754028555
 30
0.0
 11
701.9511911507218
 21
542.6293754028555
 31
0.0
  0
LINE
  5
256
  8
2_PRZEJAZD_B
 62
     5
 10
933.5866503305233
 20
821.8386586734769
 30
0.0
 11
933.5866503305233
 21
846.6293754028558
 31
0.0
  0
LINE
  5
257
  8
2_PRZEJAZD_B
 62
     5
 10
933.5866503305233
 20
776.9627087361558
 30
0.0
 11
933.5866503305233
 21
806.838658673477
 31
0.0
  0
LINE
  5
258
  8
2_PRZEJAZD_B
 62
     5
 10
638.5866503305233
 20
742.5039972545911
 30
0.0
 11
638.5866503305233
 21
715.2960420695557
 31
0.0
  0
LINE
  5
259
  8
2_PRZEJAZD_B
 62
     5
 10
638.5866503305233
 20
784.9627087361558
 30
0.0
 11
638.5866503305233
 21
757.5039972545911
 31
0.0
  0
LINE
  5
25A
  8
2_PRZEJAZD_B
 62
     5
 10
752.1203704116054
 20
1064.629375402856
 30
0.0
 11
742.3495074733232
 21
1064.629375402856
 31
0.0
  0
LINE
  5
25B
  8
2_PRZEJAZD_B
 62
     5
 10
776.8409360448234
 20
1064.629375402856
 30
0.0
 11
767.1203704116054
 21
1064.629375402856
 31
0.0
  0
LINE
  5
25C
  8
2_PRZEJAZD_B
 62
     5
 10
518.1466503305234
 20
867.2480325161005
 30
0.0
 11
518.1466503305234
 21
891.962708736156
 31
0.0
  0
LINE
  5
25D
  8
2_PRZEJAZD_B
 62
     5
 10
518.1466503305234
 20
822.2960420694557
 30
0.0
 11
518.1466503305234
 21
852.2480325161005
 31
0.0
  0
LINE
  5
25E
  8
2_PRZEJAZD_B
 62
     5
 10
518.1466503305234
 20
608.4780187669346
 30
0.0
 11
518.1466503305234
 21
645.2960420694557
 31
0.0
  0
LINE
  5
25F
  8
2_PRZEJAZD_B
 62
     5
 10
518.1466503305234
 20
575.6293754028555
 30
0.0
 11
518.1466503305234
 21
593.4780187669346
 31
0.0
  0
LINE
  5
260
  8
2_PRZEJAZD_B
 62
     5
 10
518.1466503305234
 20
968.6293754028557
 30
0.0
 11
562.0587200472205
 21
968.6293754028557
 31
0.0
  0
LINE
  5
261
  8
2_PRZEJAZD_B
 62
     5
 10
518.1466503305234
 20
968.6293754028557
 30
0.0
 11
467.1685210691448
 21
968.6293754028557
 31
0.0
  0
LINE
  5
262
  8
2_PRZEJAZD_B
 62
     5
 10
366.0066503305234
 20
820.8993645783892
 30
0.0
 11
366.0066503305234
 21
846.6293754028558
 31
0.0
  0
LINE
  5
263
  8
2_PRZEJAZD_B
 62
     5
 10
366.0066503305234
 20
776.9627087361558
 30
0.0
 11
366.0066503305234
 21
805.8993645783892
 31
0.0
  0
LINE
  5
264
  8
2_PRZEJAZD_B
 62
     5
 10
71.00665033052337
 20
990.3780991640272
 30
0.0
 11
71.00665033052337
 21
961.962708736156
 31
0.0
  0
LINE
  5
265
  8
2_PRZEJAZD_B
 62
     5
 10
71.00665033052337
 20
1031.629375402856
 30
0.0
 11
71.00665033052337
 21
1005.378099164027
 31
0.0
  0
POINT
  5
266
  8
2_PRZEJAZD_B
 62
     5
 10
900.7918890274268
 20
466.2898529484289
 30
0.0
  0
LINE
  5
267
  8
2_PRZEJAZD_B
 62
     5
 10
644.6368064396494
 20
199.1367056334085
 30
0.0
 11
641.1727048245115
 21
197.1367056334087
 31
0.0
  0
LINE
  5
268
  8
2_PRZEJAZD_B
 62
     5
 10
660.6508533347475
 20
208.3824199191076
 30
0.0
 11
644.6368064396494
 21
199.1367056334085
 31
0.0
  0
LINE
  5
269
  8
2_PRZEJAZD_B
 62
     5
 10
664.1149549498854
 20
210.3824199191075
 30
0.0
 11
660.6508533347475
 21
208.3824199191076
 31
0.0
  0
LINE
  5
26A
  8
2_PRZEJAZD_B
 62
     5
 10
782.2828841171512
 20
278.6067056334022
 30
0.0
 11
778.8187825020133
 21
276.6067056334024
 31
0.0
  0
LINE
  5
26B
  8
2_PRZEJAZD_B
 62
     5
 10
798.2969310122493
 20
287.8524199191013
 30
0.0
 11
782.2828841171512
 21
278.6067056334022
 31
0.0
  0
LINE
  5
26C
  8
2_PRZEJAZD_B
 62
     5
 10
801.7610326273872
 20
289.8524199191011
 30
0.0
 11
798.2969310122493
 21
287.8524199191013
 31
0.0
  0
LINE
  5
26D
  8
2_PRZEJAZD_B
 62
     5
 10
736.4008582246505
 20
252.1167056334042
 30
0.0
 11
732.9367566095126
 21
250.1167056334044
 31
0.0
  0
LINE
  5
26E
  8
2_PRZEJAZD_B
 62
     5
 10
752.4149051197486
 20
261.3624199191033
 30
0.0
 11
736.4008582246505
 21
252.1167056334042
 31
0.0
  0
LINE
  5
26F
  8
2_PRZEJAZD_B
 62
     5
 10
755.8790067348865
 20
263.3624199191032
 30
0.0
 11
752.4149051197486
 21
261.3624199191033
 31
0.0
  0
LINE
  5
270
  8
2_PRZEJAZD_B
 62
     5
 10
690.5188323321498
 20
225.6267056334063
 30
0.0
 11
687.0547307170119
 21
223.6267056334065
 31
0.0
  0
LINE
  5
271
  8
2_PRZEJAZD_B
 62
     5
 10
706.5328792272479
 20
234.8724199191055
 30
0.0
 11
690.5188323321498
 21
225.6267056334063
 31
0.0
  0
LINE
  5
272
  8
2_PRZEJAZD_B
 62
     5
 10
709.9969808423858
 20
236.8724199191053
 30
0.0
 11
706.5328792272479
 21
234.8724199191055
 31
0.0
  0
CIRCLE
  5
273
  8
2_PRZEJAZD_B
 62
     5
 10
862.787139249591
 20
476.9465004035162
 30
0.0
 40
3.99999999999999
  0
CIRCLE
  5
274
  8
2_PRZEJAZD_B
 62
     5
 10
863.0341330757875
 20
580.4377681555967
 30
0.0
 40
3.99999999999999
  0
LINE
  5
275
  8
2_PRZEJAZD_B
 62
     5
 10
639.6368064396505
 20
207.796959671253
 30
0.0
 11
636.1727048245126
 21
205.7969596712532
 31
0.0
  0
LINE
  5
276
  8
2_PRZEJAZD_B
 62
     5
 10
655.6508533347486
 20
217.0426739569522
 30
0.0
 11
639.6368064396505
 21
207.796959671253
 31
0.0
  0
LINE
  5
277
  8
2_PRZEJAZD_B
 62
     5
 10
659.1149549498865
 20
219.042673956952
 30
0.0
 11
655.6508533347486
 21
217.0426739569522
 31
0.0
  0
LINE
  5
278
  8
2_PRZEJAZD_B
 62
     5
 10
777.2828841171523
 20
287.2669596712467
 30
0.0
 11
773.8187825020144
 21
285.2669596712469
 31
0.0
  0
LINE
  5
279
  8
2_PRZEJAZD_B
 62
     5
 10
793.2969310122504
 20
296.5126739569458
 30
0.0
 11
777.2828841171523
 21
287.2669596712467
 31
0.0
  0
LINE
  5
27A
  8
2_PRZEJAZD_B
 62
     5
 10
796.7610326273883
 20
298.5126739569457
 30
0.0
 11
793.2969310122504
 21
296.5126739569458
 31
0.0
  0
LINE
  5
27B
  8
2_PRZEJAZD_B
 62
     5
 10
731.4008582246516
 20
260.7769596712487
 30
0.0
 11
727.9367566095137
 21
258.776959671249
 31
0.0
  0
LINE
  5
27C
  8
2_PRZEJAZD_B
 62
     5
 10
747.4149051197497
 20
270.0226739569479
 30
0.0
 11
731.4008582246516
 21
260.7769596712487
 31
0.0
  0
LINE
  5
27D
  8
2_PRZEJAZD_B
 62
     5
 10
750.8790067348876
 20
272.0226739569477
 30
0.0
 11
747.4149051197497
 21
270.0226739569479
 31
0.0
  0
LINE
  5
27E
  8
2_PRZEJAZD_B
 62
     5
 10
685.518832332151
 20
234.2869596712509
 30
0.0
 11
682.0547307170131
 21
232.2869596712511
 31
0.0
  0
LINE
  5
27F
  8
2_PRZEJAZD_B
 62
     5
 10
701.532879227249
 20
243.53267395695
 30
0.0
 11
685.518832332151
 21
234.2869596712509
 31
0.0
  0
LINE
  5
280
  8
2_PRZEJAZD_B
 62
     5
 10
704.996980842387
 20
245.5326739569498
 30
0.0
 11
701.532879227249
 21
243.53267395695
 31
0.0
  0
LINE
  5
281
  8
2_PRZEJAZD_B
 62
     5
 10
594.1933609961692
 20
246.7538061135521
 30
0.0
 11
594.1933609961692
 21
250.7538061135521
 31
0.0
  0
LINE
  5
282
  8
2_PRZEJAZD_B
 62
     5
 10
594.1933609961694
 20
228.26237754215
 30
0.0
 11
594.1933609961692
 21
246.7538061135521
 31
0.0
  0
LINE
  5
283
  8
2_PRZEJAZD_B
 62
     5
 10
594.1933609961694
 20
224.26237754215
 30
0.0
 11
594.1933609961694
 21
228.26237754215
 31
0.0
  0
LINE
  5
284
  8
2_PRZEJAZD_B
 62
     5
 10
604.1933609962172
 20
246.7538061135793
 30
0.0
 11
604.1933609962172
 21
250.7538061135793
 31
0.0
  0
LINE
  5
285
  8
2_PRZEJAZD_B
 62
     5
 10
604.1933609962174
 20
228.2623775421773
 30
0.0
 11
604.1933609962172
 21
246.7538061135793
 31
0.0
  0
LINE
  5
286
  8
2_PRZEJAZD_B
 62
     5
 10
604.1933609962174
 20
224.2623775421773
 30
0.0
 11
604.1933609962174
 21
228.2623775421773
 31
0.0
  0
LINE
  5
287
  8
2_PRZEJAZD_B
 62
     5
 10
604.1933609962197
 20
299.7338061135798
 30
0.0
 11
604.1933609962197
 21
303.7338061135798
 31
0.0
  0
LINE
  5
288
  8
2_PRZEJAZD_B
 62
     5
 10
604.1933609962199
 20
281.2423775421778
 30
0.0
 11
604.1933609962197
 21
299.7338061135798
 31
0.0
  0
LINE
  5
289
  8
2_PRZEJAZD_B
 62
     5
 10
604.1933609962199
 20
277.2423775421778
 30
0.0
 11
604.1933609962199
 21
281.2423775421778
 31
0.0
  0
LINE
  5
28A
  8
2_PRZEJAZD_B
 62
     5
 10
594.193360996173
 20
352.713806113553
 30
0.0
 11
594.193360996173
 21
356.713806113553
 31
0.0
  0
LINE
  5
28B
  8
2_PRZEJAZD_B
 62
     5
 10
594.1933609961733
 20
334.222377542151
 30
0.0
 11
594.193360996173
 21
352.713806113553
 31
0.0
  0
LINE
  5
28C
  8
2_PRZEJAZD_B
 62
     5
 10
594.1933609961733
 20
330.222377542151
 30
0.0
 11
594.1933609961733
 21
334.222377542151
 31
0.0
  0
LINE
  5
28D
  8
2_PRZEJAZD_B
 62
     5
 10
604.193360996221
 20
352.7138061135805
 30
0.0
 11
604.193360996221
 21
356.7138061135805
 31
0.0
  0
LINE
  5
28E
  8
2_PRZEJAZD_B
 62
     5
 10
604.1933609962213
 20
334.2223775421785
 30
0.0
 11
604.193360996221
 21
352.7138061135805
 31
0.0
  0
LINE
  5
28F
  8
2_PRZEJAZD_B
 62
     5
 10
604.1933609962213
 20
330.2223775421785
 30
0.0
 11
604.1933609962213
 21
334.2223775421785
 31
0.0
  0
LINE
  5
290
  8
2_PRZEJAZD_B
 62
     5
 10
594.1933609961706
 20
299.7338061135528
 30
0.0
 11
594.1933609961706
 21
303.7338061135528
 31
0.0
  0
LINE
  5
291
  8
2_PRZEJAZD_B
 62
     5
 10
594.1933609961708
 20
281.2423775421507
 30
0.0
 11
594.1933609961706
 21
299.7338061135528
 31
0.0
  0
LINE
  5
292
  8
2_PRZEJAZD_B
 62
     5
 10
594.1933609961708
 20
277.2423775421507
 30
0.0
 11
594.1933609961708
 21
281.2423775421507
 31
0.0
  0
LINE
  5
293
  8
2_PRZEJAZD_B
 62
     5
 10
594.1933609961758
 20
405.6938061135534
 30
0.0
 11
594.1933609961758
 21
409.6938061135534
 31
0.0
  0
LINE
  5
294
  8
2_PRZEJAZD_B
 62
     5
 10
594.193360996176
 20
387.2023775421513
 30
0.0
 11
594.1933609961758
 21
405.6938061135534
 31
0.0
  0
LINE
  5
295
  8
2_PRZEJAZD_B
 62
     5
 10
594.193360996176
 20
383.2023775421513
 30
0.0
 11
594.193360996176
 21
387.2023775421513
 31
0.0
  0
LINE
  5
296
  8
2_PRZEJAZD_B
 62
     5
 10
604.1933609962235
 20
405.6938061135808
 30
0.0
 11
604.1933609962235
 21
409.6938061135808
 31
0.0
  0
LINE
  5
297
  8
2_PRZEJAZD_B
 62
     5
 10
604.1933609962238
 20
387.2023775421787
 30
0.0
 11
604.1933609962235
 21
405.6938061135808
 31
0.0
  0
LINE
  5
298
  8
2_PRZEJAZD_B
 62
     5
 10
604.1933609962238
 20
383.2023775421787
 30
0.0
 11
604.1933609962238
 21
387.2023775421787
 31
0.0
  0
LINE
  5
299
  8
2_PRZEJAZD_B
 62
     5
 10
777.2853575234698
 20
346.6937271244418
 30
0.0
 11
773.8212559083322
 21
348.6937271244421
 31
0.0
  0
LINE
  5
29A
  8
2_PRZEJAZD_B
 62
     5
 10
793.2994044185683
 20
337.4480128387393
 30
0.0
 11
777.2853575234698
 21
346.6937271244418
 31
0.0
  0
LINE
  5
29B
  8
2_PRZEJAZD_B
 62
     5
 10
796.7635060337059
 20
335.4480128387389
 30
0.0
 11
793.2994044185683
 21
337.4480128387393
 31
0.0
  0
LINE
  5
29C
  8
2_PRZEJAZD_B
 62
     5
 10
731.4033316309709
 20
373.1837271244447
 30
0.0
 11
727.9392300158333
 21
375.183727124445
 31
0.0
  0
LINE
  5
29D
  8
2_PRZEJAZD_B
 62
     5
 10
747.4173785260695
 20
363.9380128387421
 30
0.0
 11
731.4033316309709
 21
373.1837271244447
 31
0.0
  0
LINE
  5
29E
  8
2_PRZEJAZD_B
 62
     5
 10
750.881480141207
 20
361.9380128387418
 30
0.0
 11
747.4173785260695
 21
363.9380128387421
 31
0.0
  0
LINE
  5
29F
  8
2_PRZEJAZD_B
 62
     5
 10
685.5213057384725
 20
399.6737271244473
 30
0.0
 11
682.0572041233349
 21
401.6737271244476
 31
0.0
  0
LINE
  5
2A0
  8
2_PRZEJAZD_B
 62
     5
 10
701.535352633571
 20
390.4280128387447
 30
0.0
 11
685.5213057384725
 21
399.6737271244473
 31
0.0
  0
LINE
  5
2A1
  8
2_PRZEJAZD_B
 62
     5
 10
704.9994542487086
 20
388.4280128387444
 30
0.0
 11
701.535352633571
 21
390.4280128387447
 31
0.0
  0
LINE
  5
2A2
  8
2_PRZEJAZD_B
 62
     5
 10
782.2853575235184
 20
355.3539811623137
 30
0.0
 11
778.8212559083809
 21
357.3539811623141
 31
0.0
  0
LINE
  5
2A3
  8
2_PRZEJAZD_B
 62
     5
 10
798.299404418617
 20
346.1082668766112
 30
0.0
 11
782.2853575235184
 21
355.3539811623137
 31
0.0
  0
LINE
  5
2A4
  8
2_PRZEJAZD_B
 62
     5
 10
801.7635060337545
 20
344.1082668766109
 30
0.0
 11
798.299404418617
 21
346.1082668766112
 31
0.0
  0
LINE
  5
2A5
  8
2_PRZEJAZD_B
 62
     5
 10
736.4033316310193
 20
381.8439811623168
 30
0.0
 11
732.9392300158818
 21
383.8439811623172
 31
0.0
  0
LINE
  5
2A6
  8
2_PRZEJAZD_B
 62
     5
 10
752.4173785261179
 20
372.5982668766143
 30
0.0
 11
736.4033316310193
 21
381.8439811623168
 31
0.0
  0
LINE
  5
2A7
  8
2_PRZEJAZD_B
 62
     5
 10
755.8814801412555
 20
370.5982668766139
 30
0.0
 11
752.4173785261179
 21
372.5982668766143
 31
0.0
  0
LINE
  5
2A8
  8
2_PRZEJAZD_B
 62
     5
 10
690.5213057385212
 20
408.333981162319
 30
0.0
 11
687.0572041233836
 21
410.3339811623193
 31
0.0
  0
LINE
  5
2A9
  8
2_PRZEJAZD_B
 62
     5
 10
706.5353526336197
 20
399.0882668766164
 30
0.0
 11
690.5213057385212
 21
408.333981162319
 31
0.0
  0
LINE
  5
2AA
  8
2_PRZEJAZD_B
 62
     5
 10
709.9994542487573
 20
397.0882668766161
 30
0.0
 11
706.5353526336197
 21
399.0882668766164
 31
0.0
  0
LINE
  5
2AB
  8
2_PRZEJAZD_B
 62
     5
 10
639.6392798459741
 20
426.1637271244493
 30
0.0
 11
636.1751782308365
 21
428.1637271244497
 31
0.0
  0
LINE
  5
2AC
  8
2_PRZEJAZD_B
 62
     5
 10
655.6533267410726
 20
416.9180128387468
 30
0.0
 11
639.6392798459741
 21
426.1637271244493
 31
0.0
  0
LINE
  5
2AD
  8
2_PRZEJAZD_B
 62
     5
 10
659.1174283562102
 20
414.9180128387464
 30
0.0
 11
655.6533267410726
 21
416.9180128387468
 31
0.0
  0
LINE
  5
2AE
  8
2_PRZEJAZD_B
 62
     5
 10
644.639279846023
 20
434.8239811623212
 30
0.0
 11
641.1751782308854
 21
436.8239811623215
 31
0.0
  0
LINE
  5
2AF
  8
2_PRZEJAZD_B
 62
     5
 10
660.6533267411215
 20
425.5782668766186
 30
0.0
 11
644.639279846023
 21
434.8239811623212
 31
0.0
  0
LINE
  5
2B0
  8
2_PRZEJAZD_B
 62
     5
 10
664.1174283562591
 20
423.5782668766183
 30
0.0
 11
660.6533267411215
 21
425.5782668766186
 31
0.0
  0
LINE
  5
2B1
  8
2_PRZEJAZD_B
 62
     5
 10
762.3666503305234
 20
546.6293754028555
 30
0.0
 11
762.3666503305234
 21
542.6293754028555
 31
0.0
  0
LINE
  5
2B2
  8
2_PRZEJAZD_B
 62
     5
 10
762.3666503305234
 20
564.6293754028555
 30
0.0
 11
762.3666503305234
 21
546.6293754028555
 31
0.0
  0
LINE
  5
2B3
  8
2_PRZEJAZD_B
 62
     5
 10
538.9266503305233
 20
891.9627087360559
 30
0.0
 11
538.9266503305233
 21
887.9627087360559
 31
0.0
  0
LINE
  5
2B4
  8
2_PRZEJAZD_B
 62
     5
 10
538.9266503305233
 20
945.629375402656
 30
0.0
 11
538.9266503305233
 21
891.9627087360559
 31
0.0
  0
LINE
  5
2B5
  8
2_PRZEJAZD_B
 62
     5
 10
538.9266503305233
 20
949.629375402656
 30
0.0
 11
538.9266503305233
 21
945.629375402656
 31
0.0
  0
LINE
  5
2B6
  8
2_PRZEJAZD_B
 62
     5
 10
538.9266503305233
 20
645.2960420694557
 30
0.0
 11
538.9266503305233
 21
641.2960420694557
 31
0.0
  0
LINE
  5
2B7
  8
2_PRZEJAZD_B
 62
     5
 10
538.9266503305233
 20
698.9627087360558
 30
0.0
 11
538.9266503305233
 21
645.2960420694557
 31
0.0
  0
LINE
  5
2B8
  8
2_PRZEJAZD_B
 62
     5
 10
538.9266503305233
 20
702.9627087360558
 30
0.0
 11
538.9266503305233
 21
698.9627087360558
 31
0.0
  0
LINE
  5
2B9
  8
2_PRZEJAZD_B
 62
     5
 10
538.9266503305233
 20
768.6293754027557
 30
0.0
 11
538.9266503305233
 21
764.6293754027557
 31
0.0
  0
LINE
  5
2BA
  8
2_PRZEJAZD_B
 62
     5
 10
538.9266503305233
 20
822.2960420693558
 30
0.0
 11
538.9266503305233
 21
768.6293754027557
 31
0.0
  0
LINE
  5
2BB
  8
2_PRZEJAZD_B
 62
     5
 10
538.9266503305233
 20
826.2960420693558
 30
0.0
 11
538.9266503305233
 21
822.2960420693558
 31
0.0
  0
LINE
  5
2BC
  8
2_PRZEJAZD_B
 62
     5
 10
497.3666503305233
 20
891.961856263556
 30
0.0
 11
497.3666503305233
 21
887.961856263556
 31
0.0
  0
LINE
  5
2BD
  8
2_PRZEJAZD_B
 62
     5
 10
497.3666503305233
 20
945.6285229301561
 30
0.0
 11
497.3666503305233
 21
891.961856263556
 31
0.0
  0
LINE
  5
2BE
  8
2_PRZEJAZD_B
 62
     5
 10
497.3666503305233
 20
949.6285229301561
 30
0.0
 11
497.3666503305233
 21
945.6285229301561
 31
0.0
  0
LINE
  5
2BF
  8
2_PRZEJAZD_B
 62
     5
 10
497.3666503305233
 20
645.2951895969558
 30
0.0
 11
497.3666503305233
 21
641.2951895969558
 31
0.0
  0
LINE
  5
2C0
  8
2_PRZEJAZD_B
 62
     5
 10
497.3666503305233
 20
698.9618562635559
 30
0.0
 11
497.3666503305233
 21
645.2951895969558
 31
0.0
  0
LINE
  5
2C1
  8
2_PRZEJAZD_B
 62
     5
 10
497.3666503305233
 20
702.9618562635559
 30
0.0
 11
497.3666503305233
 21
698.9618562635559
 31
0.0
  0
LINE
  5
2C2
  8
2_PRZEJAZD_B
 62
     5
 10
497.3666503305233
 20
768.6285229302558
 30
0.0
 11
497.3666503305233
 21
764.6285229302558
 31
0.0
  0
LINE
  5
2C3
  8
2_PRZEJAZD_B
 62
     5
 10
497.3666503305233
 20
822.295189596856
 30
0.0
 11
497.3666503305233
 21
768.6285229302558
 31
0.0
  0
LINE
  5
2C4
  8
2_PRZEJAZD_B
 62
     5
 10
497.3666503305233
 20
826.295189596856
 30
0.0
 11
497.3666503305233
 21
822.295189596856
 31
0.0
  0
LINE
  5
2C5
  8
2_PRZEJAZD_B
 62
     5
 10
538.9266503305233
 20
575.6293754028555
 30
0.0
 11
538.9266503305233
 21
579.6293754028555
 31
0.0
  0
LINE
  5
2C6
  8
2_PRZEJAZD_B
 62
     5
 10
538.9266503305233
 20
560.6283524358556
 30
0.0
 11
538.9266503305233
 21
575.6293754028555
 31
0.0
  0
LINE
  5
2C7
  8
2_PRZEJAZD_B
 62
     5
 10
497.3666503305233
 20
575.6283524358556
 30
0.0
 11
497.3666503305233
 21
579.6283524358556
 31
0.0
  0
LINE
  5
2C8
  8
2_PRZEJAZD_B
 62
     5
 10
497.3666503305233
 20
560.6273294688557
 30
0.0
 11
497.3666503305233
 21
575.6283524358556
 31
0.0
  0
LINE
  5
2C9
  8
2_PRZEJAZD_B
 62
     5
 10
345.2266503305235
 20
653.6293754028555
 30
0.0
 11
345.2266503305235
 21
657.6293754028555
 31
0.0
  0
LINE
  5
2CA
  8
2_PRZEJAZD_B
 62
     5
 10
345.2266503305235
 20
638.6283524358556
 30
0.0
 11
345.2266503305235
 21
653.6293754028555
 31
0.0
  0
LINE
  5
2CB
  8
2_PRZEJAZD_B
 62
     5
 10
345.2266503305235
 20
969.9627087362555
 30
0.0
 11
345.2266503305235
 21
965.9627087362555
 31
0.0
  0
LINE
  5
2CC
  8
2_PRZEJAZD_B
 62
     5
 10
345.2266503305235
 20
1023.629375402856
 30
0.0
 11
345.2266503305235
 21
969.9627087362555
 31
0.0
  0
LINE
  5
2CD
  8
2_PRZEJAZD_B
 62
     5
 10
345.2266503305235
 20
1027.629375402856
 30
0.0
 11
345.2266503305235
 21
1023.629375402856
 31
0.0
  0
LINE
  5
2CE
  8
2_PRZEJAZD_B
 62
     5
 10
345.2266503305235
 20
723.2960420696553
 30
0.0
 11
345.2266503305235
 21
719.2960420696553
 31
0.0
  0
LINE
  5
2CF
  8
2_PRZEJAZD_B
 62
     5
 10
345.2266503305235
 20
776.9627087362554
 30
0.0
 11
345.2266503305235
 21
723.2960420696553
 31
0.0
  0
LINE
  5
2D0
  8
2_PRZEJAZD_B
 62
     5
 10
345.2266503305235
 20
780.9627087362554
 30
0.0
 11
345.2266503305235
 21
776.9627087362554
 31
0.0
  0
LINE
  5
2D1
  8
2_PRZEJAZD_B
 62
     5
 10
345.2266503305235
 20
846.6293754029554
 30
0.0
 11
345.2266503305235
 21
842.6293754029554
 31
0.0
  0
LINE
  5
2D2
  8
2_PRZEJAZD_B
 62
     5
 10
345.2266503305235
 20
900.2960420695555
 30
0.0
 11
345.2266503305235
 21
846.6293754029554
 31
0.0
  0
LINE
  5
2D3
  8
2_PRZEJAZD_B
 62
     5
 10
345.2266503305235
 20
904.2960420695555
 30
0.0
 11
345.2266503305235
 21
900.2960420695555
 31
0.0
  0
LINE
  5
2D4
  8
2_PRZEJAZD_B
 62
     5
 10
96.94665033052343
 20
102.5683524358556
 30
0.0
 11
100.9466503305234
 21
102.5683524358556
 31
0.0
  0
LINE
  5
2D5
  8
2_PRZEJAZD_B
 62
     5
 10
81.94665033052331
 20
102.5683524358556
 30
0.0
 11
96.94665033052343
 21
102.5683524358556
 31
0.0
  0
LINE
  5
2D6
  8
2_PRZEJAZD_B
 62
     5
 10
174.9466503305234
 20
223.2083524358555
 30
0.0
 11
178.9466503305234
 21
223.2083524358555
 31
0.0
  0
LINE
  5
2D7
  8
2_PRZEJAZD_B
 62
     5
 10
159.9466503305233
 20
223.2083524358555
 30
0.0
 11
174.9466503305234
 21
223.2083524358555
 31
0.0
  0
LINE
  5
2D8
  8
2_PRZEJAZD_B
 62
     5
 10
552.9476732975235
 20
539.8483524358556
 30
0.0
 11
548.9476732975235
 21
539.8483524358556
 31
0.0
  0
LINE
  5
2D9
  8
2_PRZEJAZD_B
 62
     5
 10
567.9476732975235
 20
539.8483524358556
 30
0.0
 11
552.9476732975235
 21
539.8483524358556
 31
0.0
  0
LINE
  5
2DA
  8
2_PRZEJAZD_B
 62
     5
 10
413.2806656418235
 20
102.5683524358556
 30
0.0
 11
409.2806656418235
 21
102.5683524358556
 31
0.0
  0
LINE
  5
2DB
  8
2_PRZEJAZD_B
 62
     5
 10
466.9473323084237
 20
102.5683524358556
 30
0.0
 11
413.2806656418235
 21
102.5683524358556
 31
0.0
  0
LINE
  5
2DC
  8
2_PRZEJAZD_B
 62
     5
 10
470.9473323084237
 20
102.5683524358556
 30
0.0
 11
466.9473323084237
 21
102.5683524358556
 31
0.0
  0
LINE
  5
2DD
  8
2_PRZEJAZD_B
 62
     5
 10
289.9469913195235
 20
102.5683524358556
 30
0.0
 11
285.9469913195235
 21
102.5683524358556
 31
0.0
  0
LINE
  5
2DE
  8
2_PRZEJAZD_B
 62
     5
 10
343.6136579861237
 20
102.5683524358556
 30
0.0
 11
289.9469913195235
 21
102.5683524358556
 31
0.0
  0
LINE
  5
2DF
  8
2_PRZEJAZD_B
 62
     5
 10
347.6136579861237
 20
102.5683524358556
 30
0.0
 11
343.6136579861237
 21
102.5683524358556
 31
0.0
  0
LINE
  5
2E0
  8
2_PRZEJAZD_B
 62
     5
 10
166.6134874917234
 20
102.5683524358556
 30
0.0
 11
162.6134874917234
 21
102.5683524358556
 31
0.0
  0
LINE
  5
2E1
  8
2_PRZEJAZD_B
 62
     5
 10
220.2801541583236
 20
102.5683524358556
 30
0.0
 11
166.6134874917234
 21
102.5683524358556
 31
0.0
  0
LINE
  5
2E2
  8
2_PRZEJAZD_B
 62
     5
 10
224.2801541583236
 20
102.5683524358556
 30
0.0
 11
220.2801541583236
 21
102.5683524358556
 31
0.0
  0
LINE
  5
2E3
  8
2_PRZEJAZD_B
 62
     5
 10
491.2806656418235
 20
223.2083524358555
 30
0.0
 11
487.2806656418235
 21
223.2083524358555
 31
0.0
  0
LINE
  5
2E4
  8
2_PRZEJAZD_B
 62
     5
 10
544.9473323084237
 20
223.2083524358555
 30
0.0
 11
491.2806656418235
 21
223.2083524358555
 31
0.0
  0
LINE
  5
2E5
  8
2_PRZEJAZD_B
 62
     5
 10
548.9473323084237
 20
223.2083524358555
 30
0.0
 11
544.9473323084237
 21
223.2083524358555
 31
0.0
  0
LINE
  5
2E6
  8
2_PRZEJAZD_B
 62
     5
 10
367.9469913195235
 20
223.2083524358555
 30
0.0
 11
363.9469913195235
 21
223.2083524358555
 31
0.0
  0
LINE
  5
2E7
  8
2_PRZEJAZD_B
 62
     5
 10
421.6136579861237
 20
223.2083524358555
 30
0.0
 11
367.9469913195235
 21
223.2083524358555
 31
0.0
  0
LINE
  5
2E8
  8
2_PRZEJAZD_B
 62
     5
 10
425.6136579861237
 20
223.2083524358555
 30
0.0
 11
421.6136579861237
 21
223.2083524358555
 31
0.0
  0
LINE
  5
2E9
  8
2_PRZEJAZD_B
 62
     5
 10
244.6134874917234
 20
223.2083524358555
 30
0.0
 11
240.6134874917234
 21
223.2083524358555
 31
0.0
  0
LINE
  5
2EA
  8
2_PRZEJAZD_B
 62
     5
 10
298.2801541583236
 20
223.2083524358555
 30
0.0
 11
244.6134874917234
 21
223.2083524358555
 31
0.0
  0
LINE
  5
2EB
  8
2_PRZEJAZD_B
 62
     5
 10
302.2801541583236
 20
223.2083524358555
 30
0.0
 11
298.2801541583236
 21
223.2083524358555
 31
0.0
  0
LINE
  5
2EC
  8
2_PRZEJAZD_B
 62
     5
 10
182.9468208251233
 20
539.8483524358556
 30
0.0
 11
178.9468208251233
 21
539.8483524358556
 31
0.0
  0
LINE
  5
2ED
  8
2_PRZEJAZD_B
 62
     5
 10
236.6134874917234
 20
539.8483524358556
 30
0.0
 11
182.9468208251233
 21
539.8483524358556
 31
0.0
  0
LINE
  5
2EE
  8
2_PRZEJAZD_B
 62
     5
 10
240.6134874917234
 20
539.8483524358556
 30
0.0
 11
236.6134874917234
 21
539.8483524358556
 31
0.0
  0
LINE
  5
2EF
  8
2_PRZEJAZD_B
 62
     5
 10
306.2803246529234
 20
539.8483524358556
 30
0.0
 11
302.2803246529234
 21
539.8483524358556
 31
0.0
  0
LINE
  5
2F0
  8
2_PRZEJAZD_B
 62
     5
 10
359.9469913195235
 20
539.8483524358556
 30
0.0
 11
306.2803246529234
 21
539.8483524358556
 31
0.0
  0
LINE
  5
2F1
  8
2_PRZEJAZD_B
 62
     5
 10
363.9469913195235
 20
539.8483524358556
 30
0.0
 11
359.9469913195235
 21
539.8483524358556
 31
0.0
  0
LINE
  5
2F2
  8
2_PRZEJAZD_B
 62
     5
 10
429.6139989752234
 20
539.8483524358556
 30
0.0
 11
425.6139989752234
 21
539.8483524358556
 31
0.0
  0
LINE
  5
2F3
  8
2_PRZEJAZD_B
 62
     5
 10
483.2806656418235
 20
539.8483524358556
 30
0.0
 11
429.6139989752234
 21
539.8483524358556
 31
0.0
  0
LINE
  5
2F4
  8
2_PRZEJAZD_B
 62
     5
 10
487.2806656418235
 20
539.8483524358556
 30
0.0
 11
483.2806656418235
 21
539.8483524358556
 31
0.0
  0
LINE
  5
2F5
  8
2_PRZEJAZD_B
 62
     5
 10
474.9476732975234
 20
419.2083524358557
 30
0.0
 11
470.9476732975234
 21
419.2083524358557
 31
0.0
  0
LINE
  5
2F6
  8
2_PRZEJAZD_B
 62
     5
 10
489.9476732975234
 20
419.2083524358557
 30
0.0
 11
474.9476732975234
 21
419.2083524358557
 31
0.0
  0
LINE
  5
2F7
  8
2_PRZEJAZD_B
 62
     5
 10
568.9266503305233
 20
546.6293754028555
 30
0.0
 11
568.9266503305233
 21
542.6293754028555
 31
0.0
  0
LINE
  5
2F8
  8
2_PRZEJAZD_B
 62
     5
 10
568.9266503305233
 20
564.6293754028555
 30
0.0
 11
568.9266503305233
 21
546.6293754028555
 31
0.0
  0
LINE
  5
2F9
  8
2_PRZEJAZD_B
 62
     5
 10
603.4180789019232
 20
546.6293754028555
 30
0.0
 11
603.4180789019232
 21
542.6293754028555
 31
0.0
  0
LINE
  5
2FA
  8
2_PRZEJAZD_B
 62
     5
 10
603.4180789019232
 20
564.6293754028555
 30
0.0
 11
603.4180789019232
 21
546.6293754028555
 31
0.0
  0
LINE
  5
2FB
  8
2_PRZEJAZD_B
 62
     5
 10
621.9095074733233
 20
546.6293754028555
 30
0.0
 11
621.9095074733233
 21
542.6293754028555
 31
0.0
  0
LINE
  5
2FC
  8
2_PRZEJAZD_B
 62
     5
 10
621.9095074733233
 20
564.6293754028555
 30
0.0
 11
621.9095074733233
 21
546.6293754028555
 31
0.0
  0
LINE
  5
2FD
  8
2_PRZEJAZD_B
 62
     5
 10
656.4009360448234
 20
546.6293754028555
 30
0.0
 11
656.4009360448234
 21
542.6293754028555
 31
0.0
  0
LINE
  5
2FE
  8
2_PRZEJAZD_B
 62
     5
 10
656.4009360448234
 20
564.6293754028555
 30
0.0
 11
656.4009360448234
 21
546.6293754028555
 31
0.0
  0
LINE
  5
2FF
  8
2_PRZEJAZD_B
 62
     5
 10
674.8923646162233
 20
546.6293754028555
 30
0.0
 11
674.8923646162233
 21
542.6293754028555
 31
0.0
  0
LINE
  5
300
  8
2_PRZEJAZD_B
 62
     5
 10
674.8923646162233
 20
564.6293754028555
 30
0.0
 11
674.8923646162233
 21
546.6293754028555
 31
0.0
  0
LINE
  5
301
  8
2_PRZEJAZD_B
 62
     5
 10
709.3837931876234
 20
546.6293754028555
 30
0.0
 11
709.3837931876234
 21
542.6293754028555
 31
0.0
  0
LINE
  5
302
  8
2_PRZEJAZD_B
 62
     5
 10
709.3837931876234
 20
564.6293754028555
 30
0.0
 11
709.3837931876234
 21
546.6293754028555
 31
0.0
  0
LINE
  5
303
  8
2_PRZEJAZD_B
 62
     5
 10
727.8752217591233
 20
546.6293754028555
 30
0.0
 11
727.8752217591233
 21
542.6293754028555
 31
0.0
  0
LINE
  5
304
  8
2_PRZEJAZD_B
 62
     5
 10
727.8752217591233
 20
564.6293754028555
 30
0.0
 11
727.8752217591233
 21
546.6293754028555
 31
0.0
  0
LINE
  5
305
  8
2_PRZEJAZD_B
 62
     5
 10
351.6138284806235
 20
419.2083524358557
 30
0.0
 11
347.6138284806235
 21
419.2083524358557
 31
0.0
  0
LINE
  5
306
  8
2_PRZEJAZD_B
 62
     5
 10
405.2804951472236
 20
419.2083524358557
 30
0.0
 11
351.6138284806235
 21
419.2083524358557
 31
0.0
  0
LINE
  5
307
  8
2_PRZEJAZD_B
 62
     5
 10
409.2804951472236
 20
419.2083524358557
 30
0.0
 11
405.2804951472236
 21
419.2083524358557
 31
0.0
  0
LINE
  5
308
  8
2_PRZEJAZD_B
 62
     5
 10
228.2803246528234
 20
419.2083524358557
 30
0.0
 11
224.2803246528234
 21
419.2083524358557
 31
0.0
  0
LINE
  5
309
  8
2_PRZEJAZD_B
 62
     5
 10
281.9469913194235
 20
419.2083524358557
 30
0.0
 11
228.2803246528234
 21
419.2083524358557
 31
0.0
  0
LINE
  5
30A
  8
2_PRZEJAZD_B
 62
     5
 10
285.9469913194235
 20
419.2083524358557
 30
0.0
 11
281.9469913194235
 21
419.2083524358557
 31
0.0
  0
LINE
  5
30B
  8
2_PRZEJAZD_B
 62
     5
 10
104.9466503305233
 20
419.2083524358557
 30
0.0
 11
100.9466503305233
 21
419.2083524358557
 31
0.0
  0
LINE
  5
30C
  8
2_PRZEJAZD_B
 62
     5
 10
158.6133169971234
 20
419.2083524358557
 30
0.0
 11
104.9466503305233
 21
419.2083524358557
 31
0.0
  0
LINE
  5
30D
  8
2_PRZEJAZD_B
 62
     5
 10
162.6133169971234
 20
419.2083524358557
 30
0.0
 11
158.6133169971234
 21
419.2083524358557
 31
0.0
  0
LINE
  5
30E
  8
2_PRZEJAZD_B
 62
     5
 10
552.9476732975235
 20
539.8483524358556
 30
0.0
 11
552.9476732975235
 21
560.6283524358556
 31
0.0
  0
LINE
  5
30F
  8
2_PRZEJAZD_B
 62
     5
 10
483.2808361364234
 20
539.8483524358556
 30
0.0
 11
483.2808361364234
 21
560.6283524358556
 31
0.0
  0
LINE
  5
310
  8
2_PRZEJAZD_B
 62
     5
 10
429.6139989752234
 20
539.8483524358556
 30
0.0
 11
429.6139989752234
 21
560.6283524358556
 31
0.0
  0
LINE
  5
311
  8
2_PRZEJAZD_B
 62
     5
 10
359.9471618140234
 20
539.8483524358556
 30
0.0
 11
359.9471618140234
 21
560.6283524358556
 31
0.0
  0
LINE
  5
312
  8
2_PRZEJAZD_B
 62
     5
 10
306.2803246529234
 20
539.8483524358556
 30
0.0
 11
306.2803246529234
 21
560.6283524358556
 31
0.0
  0
LINE
  5
313
  8
2_PRZEJAZD_B
 62
     5
 10
236.6134874917234
 20
539.8483524358556
 30
0.0
 11
236.6134874917234
 21
560.6283524358555
 31
0.0
  0
LINE
  5
314
  8
2_PRZEJAZD_B
 62
     5
 10
182.9466503305234
 20
539.8483524358556
 30
0.0
 11
182.9466503305234
 21
560.6283524358556
 31
0.0
  0
LINE
  5
315
  8
2_PRZEJAZD_B
 62
     5
 10
180.7266503305235
 20
583.6285229303555
 30
0.0
 11
180.7266503305235
 21
579.6285229303555
 31
0.0
  0
LINE
  5
316
  8
2_PRZEJAZD_B
 62
     5
 10
180.7266503305235
 20
637.2951895969557
 30
0.0
 11
180.7266503305235
 21
583.6285229303555
 31
0.0
  0
LINE
  5
317
  8
2_PRZEJAZD_B
 62
     5
 10
180.7266503305235
 20
641.2951895969557
 30
0.0
 11
180.7266503305235
 21
637.2951895969557
 31
0.0
  0
LINE
  5
318
  8
2_PRZEJAZD_B
 62
     5
 10
180.7266503305235
 20
706.9621972527556
 30
0.0
 11
180.7266503305235
 21
702.9621972527556
 31
0.0
  0
LINE
  5
319
  8
2_PRZEJAZD_B
 62
     5
 10
180.7266503305235
 20
760.6288639193557
 30
0.0
 11
180.7266503305235
 21
706.9621972527556
 31
0.0
  0
LINE
  5
31A
  8
2_PRZEJAZD_B
 62
     5
 10
180.7266503305235
 20
764.6288639193557
 30
0.0
 11
180.7266503305235
 21
760.6288639193557
 31
0.0
  0
LINE
  5
31B
  8
2_PRZEJAZD_B
 62
     5
 10
180.7266503305235
 20
830.2958715750556
 30
0.0
 11
180.7266503305235
 21
826.2958715750556
 31
0.0
  0
LINE
  5
31C
  8
2_PRZEJAZD_B
 62
     5
 10
180.7266503305235
 20
883.9625382416557
 30
0.0
 11
180.7266503305235
 21
830.2958715750556
 31
0.0
  0
LINE
  5
31D
  8
2_PRZEJAZD_B
 62
     5
 10
180.7266503305235
 20
887.9625382416557
 30
0.0
 11
180.7266503305235
 21
883.9625382416557
 31
0.0
  0
LINE
  5
31E
  8
2_PRZEJAZD_B
 62
     5
 10
91.78665033052339
 20
908.2960420695558
 30
0.0
 11
91.78665033052339
 21
904.2960420695558
 31
0.0
  0
LINE
  5
31F
  8
2_PRZEJAZD_B
 62
     5
 10
91.78665033052339
 20
961.962708736156
 30
0.0
 11
91.78665033052339
 21
908.2960420695558
 31
0.0
  0
LINE
  5
320
  8
2_PRZEJAZD_B
 62
     5
 10
91.78665033052339
 20
965.962708736156
 30
0.0
 11
91.78665033052339
 21
961.962708736156
 31
0.0
  0
LINE
  5
321
  8
2_PRZEJAZD_B
 62
     5
 10
180.7266503305235
 20
953.6293754028557
 30
0.0
 11
180.7266503305235
 21
949.6293754028557
 31
0.0
  0
LINE
  5
322
  8
2_PRZEJAZD_B
 62
     5
 10
180.7266503305235
 20
968.6293754028557
 30
0.0
 11
180.7266503305235
 21
953.6293754028557
 31
0.0
  0
LINE
  5
323
  8
2_PRZEJAZD_B
 62
     5
 10
91.78665033052339
 20
661.6293754029556
 30
0.0
 11
91.78665033052339
 21
657.6293754029556
 31
0.0
  0
LINE
  5
324
  8
2_PRZEJAZD_B
 62
     5
 10
91.78665033052339
 20
715.2960420695557
 30
0.0
 11
91.78665033052339
 21
661.6293754029556
 31
0.0
  0
LINE
  5
325
  8
2_PRZEJAZD_B
 62
     5
 10
91.78665033052339
 20
719.2960420695557
 30
0.0
 11
91.78665033052339
 21
715.2960420695557
 31
0.0
  0
LINE
  5
326
  8
2_PRZEJAZD_B
 62
     5
 10
91.78665033052339
 20
784.9627087362556
 30
0.0
 11
91.78665033052339
 21
780.9627087362556
 31
0.0
  0
LINE
  5
327
  8
2_PRZEJAZD_B
 62
     5
 10
91.78665033052339
 20
838.6293754028558
 30
0.0
 11
91.78665033052339
 21
784.9627087362556
 31
0.0
  0
LINE
  5
328
  8
2_PRZEJAZD_B
 62
     5
 10
91.78665033052339
 20
842.6293754028558
 30
0.0
 11
91.78665033052339
 21
838.6293754028558
 31
0.0
  0
LINE
  5
329
  8
2_PRZEJAZD_B
 62
     5
 10
71.00665033052337
 20
961.962708736156
 30
0.0
 11
91.78665033052339
 21
961.962708736156
 31
0.0
  0
LINE
  5
32A
  8
2_PRZEJAZD_B
 62
     5
 10
71.00665033052337
 20
908.2960420695558
 30
0.0
 11
91.78665033052339
 21
908.2960420695558
 31
0.0
  0
LINE
  5
32B
  8
2_PRZEJAZD_B
 62
     5
 10
71.00665033052337
 20
838.6293754028558
 30
0.0
 11
91.78665033052339
 21
838.6293754028558
 31
0.0
  0
LINE
  5
32C
  8
2_PRZEJAZD_B
 62
     5
 10
71.00665033052337
 20
784.9627087361558
 30
0.0
 11
91.78665033052339
 21
784.9627087361558
 31
0.0
  0
LINE
  5
32D
  8
2_PRZEJAZD_B
 62
     5
 10
71.00665033052337
 20
715.2960420695557
 30
0.0
 11
91.78665033052339
 21
715.2960420695557
 31
0.0
  0
LINE
  5
32E
  8
2_PRZEJAZD_B
 62
     5
 10
71.00665033052337
 20
661.6293754028555
 30
0.0
 11
91.78665033052339
 21
661.6293754028555
 31
0.0
  0
LINE
  5
32F
  8
2_PRZEJAZD_B
 62
     5
 10
159.9466503305234
 20
953.6293754028557
 30
0.0
 11
180.7266503305235
 21
953.6293754028557
 31
0.0
  0
LINE
  5
330
  8
2_PRZEJAZD_B
 62
     5
 10
159.9466503305234
 20
883.9625382416557
 30
0.0
 11
180.7266503305235
 21
883.9625382416557
 31
0.0
  0
LINE
  5
331
  8
2_PRZEJAZD_B
 62
     5
 10
159.9466503305234
 20
830.2957010804558
 30
0.0
 11
180.7266503305235
 21
830.2957010804558
 31
0.0
  0
LINE
  5
332
  8
2_PRZEJAZD_B
 62
     5
 10
180.7266503305235
 20
760.6288639193557
 30
0.0
 11
159.9466503305234
 21
760.6288639193557
 31
0.0
  0
LINE
  5
333
  8
2_PRZEJAZD_B
 62
     5
 10
159.9466503305234
 20
706.9620267581557
 30
0.0
 11
180.7266503305235
 21
706.9620267581557
 31
0.0
  0
LINE
  5
334
  8
2_PRZEJAZD_B
 62
     5
 10
159.9466503305234
 20
637.2951895969557
 30
0.0
 11
180.7266503305235
 21
637.2951895969557
 31
0.0
  0
LINE
  5
335
  8
2_PRZEJAZD_B
 62
     5
 10
159.9466503305234
 20
583.6283524358556
 30
0.0
 11
180.7266503305235
 21
583.6283524358556
 31
0.0
  0
LINE
  5
336
  8
2_PRZEJAZD_B
 62
     5
 10
345.2266503305235
 20
1023.629375402856
 30
0.0
 11
366.0066503305234
 21
1023.629375402856
 31
0.0
  0
LINE
  5
337
  8
2_PRZEJAZD_B
 62
     5
 10
345.2266503305235
 20
969.962708736156
 30
0.0
 11
366.0066503305234
 21
969.962708736156
 31
0.0
  0
LINE
  5
338
  8
2_PRZEJAZD_B
 62
     5
 10
366.0066503305234
 20
900.2960420695558
 30
0.0
 11
345.2266503305235
 21
900.2960420695558
 31
0.0
  0
LINE
  5
339
  8
2_PRZEJAZD_B
 62
     5
 10
345.2266503305235
 20
846.6293754028558
 30
0.0
 11
366.0066503305234
 21
846.6293754028558
 31
0.0
  0
LINE
  5
33A
  8
2_PRZEJAZD_B
 62
     5
 10
366.0066503305234
 20
776.9627087361558
 30
0.0
 11
345.2266503305235
 21
776.9627087361558
 31
0.0
  0
LINE
  5
33B
  8
2_PRZEJAZD_B
 62
     5
 10
345.2266503305235
 20
723.2960420695557
 30
0.0
 11
366.0066503305234
 21
723.2960420695557
 31
0.0
  0
LINE
  5
33C
  8
2_PRZEJAZD_B
 62
     5
 10
366.0066503305234
 20
653.6293754028555
 30
0.0
 11
345.2266503305235
 21
653.6293754028555
 31
0.0
  0
LINE
  5
33D
  8
2_PRZEJAZD_B
 62
     5
 10
538.9266503305233
 20
575.6293754028555
 30
0.0
 11
497.3666503305233
 21
575.6283524358556
 31
0.0
  0
LINE
  5
33E
  8
2_PRZEJAZD_B
 62
     5
 10
538.9266503305233
 20
645.2960420694557
 30
0.0
 11
497.3666503305233
 21
645.2951895969558
 31
0.0
  0
LINE
  5
33F
  8
2_PRZEJAZD_B
 62
     5
 10
497.3666503305233
 20
698.9620267581557
 30
0.0
 11
538.9266503305233
 21
698.9627087361557
 31
0.0
  0
LINE
  5
340
  8
2_PRZEJAZD_B
 62
     5
 10
538.9266503305233
 20
768.6293754028558
 30
0.0
 11
497.3666503305233
 21
768.6288639193557
 31
0.0
  0
LINE
  5
341
  8
2_PRZEJAZD_B
 62
     5
 10
497.3666503305233
 20
822.2957010804558
 30
0.0
 11
538.9266503305233
 21
822.2960420694557
 31
0.0
  0
LINE
  5
342
  8
2_PRZEJAZD_B
 62
     5
 10
538.9266503305233
 20
891.962708736156
 30
0.0
 11
497.3666503305233
 21
891.9625382416557
 31
0.0
  0
LINE
  5
343
  8
2_PRZEJAZD_B
 62
     5
 10
497.3666503305233
 20
945.6293754028557
 30
0.0
 11
538.9266503305233
 21
945.6293754028557
 31
0.0
  0
LINE
  5
344
  8
2_PRZEJAZD_B
 62
     5
 10
659.3666503305233
 20
661.6293754028554
 30
0.0
 11
659.3666503305233
 21
657.6293754028554
 31
0.0
  0
LINE
  5
345
  8
2_PRZEJAZD_B
 62
     5
 10
659.3666503305233
 20
715.2960420695557
 30
0.0
 11
659.3666503305233
 21
661.6293754028554
 31
0.0
  0
LINE
  5
346
  8
2_PRZEJAZD_B
 62
     5
 10
659.3666503305233
 20
719.2960420695557
 30
0.0
 11
659.3666503305233
 21
715.2960420695557
 31
0.0
  0
LINE
  5
347
  8
2_PRZEJAZD_B
 62
     5
 10
659.3666503305233
 20
784.9627087361555
 30
0.0
 11
659.3666503305233
 21
780.9627087361555
 31
0.0
  0
LINE
  5
348
  8
2_PRZEJAZD_B
 62
     5
 10
659.3666503305233
 20
838.6293754028558
 30
0.0
 11
659.3666503305233
 21
784.9627087361555
 31
0.0
  0
LINE
  5
349
  8
2_PRZEJAZD_B
 62
     5
 10
659.3666503305233
 20
842.6293754028558
 30
0.0
 11
659.3666503305233
 21
838.6293754028558
 31
0.0
  0
LINE
  5
34A
  8
2_PRZEJAZD_B
 62
     5
 10
659.3666503305233
 20
908.2960420694557
 30
0.0
 11
659.3666503305233
 21
904.2960420694557
 31
0.0
  0
LINE
  5
34B
  8
2_PRZEJAZD_B
 62
     5
 10
659.3666503305233
 20
961.962708736156
 30
0.0
 11
659.3666503305233
 21
908.2960420694557
 31
0.0
  0
LINE
  5
34C
  8
2_PRZEJAZD_B
 62
     5
 10
659.3666503305233
 20
965.962708736156
 30
0.0
 11
659.3666503305233
 21
961.962708736156
 31
0.0
  0
LINE
  5
34D
  8
2_PRZEJAZD_B
 62
     5
 10
792.3666503305234
 20
830.2960420694557
 30
0.0
 11
792.3666503305234
 21
826.2960420694557
 31
0.0
  0
LINE
  5
34E
  8
2_PRZEJAZD_B
 62
     5
 10
792.3666503305234
 20
883.962708736156
 30
0.0
 11
792.3666503305234
 21
830.2960420694557
 31
0.0
  0
LINE
  5
34F
  8
2_PRZEJAZD_B
 62
     5
 10
792.3666503305234
 20
887.962708736156
 30
0.0
 11
792.3666503305234
 21
883.962708736156
 31
0.0
  0
LINE
  5
350
  8
2_PRZEJAZD_B
 62
     5
 10
638.5866503305233
 20
661.6293754028555
 30
0.0
 11
659.3666503305233
 21
661.6293754028555
 31
0.0
  0
LINE
  5
351
  8
2_PRZEJAZD_B
 62
     5
 10
638.5866503305233
 20
715.2960420695557
 30
0.0
 11
659.3666503305233
 21
715.2960420695557
 31
0.0
  0
LINE
  5
352
  8
2_PRZEJAZD_B
 62
     5
 10
638.5866503305233
 20
784.9627087361558
 30
0.0
 11
659.3666503305233
 21
784.9627087361558
 31
0.0
  0
LINE
  5
353
  8
2_PRZEJAZD_B
 62
     5
 10
638.5866503305233
 20
838.6293754028558
 30
0.0
 11
659.3666503305233
 21
838.6293754028558
 31
0.0
  0
LINE
  5
354
  8
2_PRZEJAZD_B
 62
     5
 10
638.5866503305233
 20
908.2960420695558
 30
0.0
 11
659.3666503305233
 21
908.2960420695558
 31
0.0
  0
LINE
  5
355
  8
2_PRZEJAZD_B
 62
     5
 10
659.3666503305233
 20
961.962708736156
 30
0.0
 11
638.5866503305233
 21
961.962708736156
 31
0.0
  0
LINE
  5
356
  8
2_PRZEJAZD_B
 62
     5
 10
792.3666503305234
 20
583.6293754028555
 30
0.0
 11
792.3666503305234
 21
579.6293754028555
 31
0.0
  0
LINE
  5
357
  8
2_PRZEJAZD_B
 62
     5
 10
792.3666503305234
 20
637.2960420695558
 30
0.0
 11
792.3666503305234
 21
583.6293754028555
 31
0.0
  0
LINE
  5
358
  8
2_PRZEJAZD_B
 62
     5
 10
792.3666503305234
 20
641.2960420695558
 30
0.0
 11
792.3666503305234
 21
637.2960420695558
 31
0.0
  0
LINE
  5
359
  8
2_PRZEJAZD_B
 62
     5
 10
792.3666503305234
 20
706.9627087361558
 30
0.0
 11
792.3666503305234
 21
702.9627087361558
 31
0.0
  0
LINE
  5
35A
  8
2_PRZEJAZD_B
 62
     5
 10
792.3666503305234
 20
760.6293754028561
 30
0.0
 11
792.3666503305234
 21
706.9627087361558
 31
0.0
  0
LINE
  5
35B
  8
2_PRZEJAZD_B
 62
     5
 10
792.3666503305234
 20
764.6293754028561
 30
0.0
 11
792.3666503305234
 21
760.6293754028561
 31
0.0
  0
LINE
  5
35C
  8
2_PRZEJAZD_B
 62
     5
 10
792.3666503305234
 20
968.6293754028557
 30
0.0
 11
792.3666503305234
 21
949.6293754028557
 31
0.0
  0
LINE
  5
35D
  8
2_PRZEJAZD_B
 62
     5
 10
792.3666503305234
 20
953.6293754028557
 30
0.0
 11
813.1466503305234
 21
953.6293754028557
 31
0.0
  0
LINE
  5
35E
  8
2_PRZEJAZD_B
 62
     5
 10
912.8066503305233
 20
653.6293754028555
 30
0.0
 11
912.8066503305233
 21
657.6293754028555
 31
0.0
  0
LINE
  5
35F
  8
2_PRZEJAZD_B
 62
     5
 10
912.8066503305233
 20
638.6293754028555
 30
0.0
 11
912.8066503305233
 21
653.6293754028555
 31
0.0
  0
LINE
  5
360
  8
2_PRZEJAZD_B
 62
     5
 10
912.8066503305233
 20
776.9627087361558
 30
0.0
 11
912.8066503305233
 21
780.9627087361558
 31
0.0
  0
LINE
  5
361
  8
2_PRZEJAZD_B
 62
     5
 10
912.8066503305233
 20
723.2960420694561
 30
0.0
 11
912.8066503305233
 21
776.9627087361558
 31
0.0
  0
LINE
  5
362
  8
2_PRZEJAZD_B
 62
     5
 10
912.8066503305233
 20
719.2960420694561
 30
0.0
 11
912.8066503305233
 21
723.2960420694561
 31
0.0
  0
LINE
  5
363
  8
2_PRZEJAZD_B
 62
     5
 10
912.8066503305233
 20
900.2960420695558
 30
0.0
 11
912.8066503305233
 21
904.2960420695558
 31
0.0
  0
LINE
  5
364
  8
2_PRZEJAZD_B
 62
     5
 10
912.8066503305233
 20
846.6293754028561
 30
0.0
 11
912.8066503305233
 21
900.2960420695558
 31
0.0
  0
LINE
  5
365
  8
2_PRZEJAZD_B
 62
     5
 10
912.8066503305233
 20
842.6293754028561
 30
0.0
 11
912.8066503305233
 21
846.6293754028561
 31
0.0
  0
LINE
  5
366
  8
2_PRZEJAZD_B
 62
     5
 10
912.8066503305233
 20
900.2960420695558
 30
0.0
 11
912.8066503305233
 21
904.2960420695558
 31
0.0
  0
LINE
  5
367
  8
2_PRZEJAZD_B
 62
     5
 10
912.8066503305233
 20
846.6293754028561
 30
0.0
 11
912.8066503305233
 21
900.2960420695558
 31
0.0
  0
LINE
  5
368
  8
2_PRZEJAZD_B
 62
     5
 10
912.8066503305233
 20
842.6293754028561
 30
0.0
 11
912.8066503305233
 21
846.6293754028561
 31
0.0
  0
LINE
  5
369
  8
2_PRZEJAZD_B
 62
     5
 10
912.8066503305233
 20
1023.629375402856
 30
0.0
 11
912.8066503305233
 21
1027.629375402856
 31
0.0
  0
LINE
  5
36A
  8
2_PRZEJAZD_B
 62
     5
 10
912.8066503305233
 20
969.962708736156
 30
0.0
 11
912.8066503305233
 21
1023.629375402856
 31
0.0
  0
LINE
  5
36B
  8
2_PRZEJAZD_B
 62
     5
 10
912.8066503305233
 20
965.962708736156
 30
0.0
 11
912.8066503305233
 21
969.962708736156
 31
0.0
  0
LINE
  5
36C
  8
2_PRZEJAZD_B
 62
     5
 10
933.5866503305233
 20
653.6293754028555
 30
0.0
 11
912.8066503305233
 21
653.6293754028555
 31
0.0
  0
LINE
  5
36D
  8
2_PRZEJAZD_B
 62
     5
 10
912.8066503305233
 20
723.2960420695557
 30
0.0
 11
933.5866503305233
 21
723.2960420695557
 31
0.0
  0
LINE
  5
36E
  8
2_PRZEJAZD_B
 62
     5
 10
933.5866503305233
 20
776.9627087361558
 30
0.0
 11
912.8066503305233
 21
776.9627087361558
 31
0.0
  0
LINE
  5
36F
  8
2_PRZEJAZD_B
 62
     5
 10
912.8066503305233
 20
846.6293754028558
 30
0.0
 11
933.5866503305233
 21
846.6293754028558
 31
0.0
  0
LINE
  5
370
  8
2_PRZEJAZD_B
 62
     5
 10
933.5866503305233
 20
900.2960420695558
 30
0.0
 11
912.8066503305233
 21
900.2960420695558
 31
0.0
  0
LINE
  5
371
  8
2_PRZEJAZD_B
 62
     5
 10
912.8066503305233
 20
969.962708736156
 30
0.0
 11
933.5866503305233
 21
969.962708736156
 31
0.0
  0
LINE
  5
372
  8
2_PRZEJAZD_B
 62
     5
 10
933.5866503305233
 20
1023.629375402856
 30
0.0
 11
912.8066503305233
 21
1023.629375402856
 31
0.0
  0
LINE
  5
373
  8
2_PRZEJAZD_B
 62
     5
 10
846.3066503305233
 20
638.6293754028555
 30
0.0
 11
912.8066503305233
 21
638.6293754028555
 31
0.0
  0
LINE
  5
374
  8
2_PRZEJAZD_B
 62
     5
 10
792.3666503305234
 20
706.9627087361558
 30
0.0
 11
813.1466503305234
 21
706.9627087361558
 31
0.0
  0
LINE
  5
375
  8
2_PRZEJAZD_B
 62
     5
 10
813.1466503305234
 20
760.6293754028558
 30
0.0
 11
792.3666503305234
 21
760.6293754028558
 31
0.0
  0
LINE
  5
376
  8
2_PRZEJAZD_B
 62
     5
 10
792.3666503305234
 20
830.2960420694557
 30
0.0
 11
813.1466503305234
 21
830.2960420694557
 31
0.0
  0
LINE
  5
377
  8
2_PRZEJAZD_B
 62
     5
 10
813.1466503305234
 20
883.962708736156
 30
0.0
 11
792.3666503305234
 21
883.962708736156
 31
0.0
  0
LINE
  5
378
  8
2_PRZEJAZD_B
 62
     5
 10
933.5866503305233
 20
653.6293754028555
 30
0.0
 11
933.5866503305233
 21
723.2960420695557
 31
0.0
  0
LINE
  5
379
  8
2_PRZEJAZD_B
 62
     5
 10
933.5866503305233
 20
900.2960420695558
 30
0.0
 11
933.5866503305233
 21
969.962708736156
 31
0.0
  0
LINE
  5
37A
  8
2_PRZEJAZD_B
 62
     5
 10
933.5866503305233
 20
1023.629375402856
 30
0.0
 11
933.5866503305233
 21
1046.629375402856
 31
0.0
  0
LINE
  5
37B
  8
2_PRZEJAZD_B
 62
     5
 10
933.5866503305233
 20
1046.629375402856
 30
0.0
 11
882.8066503305233
 21
1046.629375402856
 31
0.0
  0
LINE
  5
37C
  8
2_PRZEJAZD_B
 62
     5
 10
882.8066503305233
 20
1064.629375402856
 30
0.0
 11
848.3152217591232
 21
1064.629375402856
 31
0.0
  0
LINE
  5
37D
  8
2_PRZEJAZD_B
 62
     5
 10
848.3152217591232
 20
1046.629375402856
 30
0.0
 11
829.8237931876233
 21
1046.629375402856
 31
0.0
  0
LINE
  5
37E
  8
2_PRZEJAZD_B
 62
     5
 10
829.8237931876233
 20
1064.629375402856
 30
0.0
 11
795.3323646162232
 21
1064.629375402856
 31
0.0
  0
LINE
  5
37F
  8
2_PRZEJAZD_B
 62
     5
 10
795.3323646162232
 20
1046.629375402856
 30
0.0
 11
776.8409360448234
 21
1046.629375402856
 31
0.0
  0
LINE
  5
380
  8
2_PRZEJAZD_B
 62
     5
 10
742.3495074733232
 20
1046.629375402856
 30
0.0
 11
723.8580789019232
 21
1046.629375402856
 31
0.0
  0
LINE
  5
381
  8
2_PRZEJAZD_B
 62
     5
 10
723.8580789019232
 20
1064.629375402856
 30
0.0
 11
689.3666503305233
 21
1064.629375402856
 31
0.0
  0
LINE
  5
382
  8
2_PRZEJAZD_B
 62
     5
 10
689.3666503305233
 20
1046.629375402856
 30
0.0
 11
659.3666503305233
 21
1046.629375402856
 31
0.0
  0
LINE
  5
383
  8
2_PRZEJAZD_B
 62
     5
 10
659.3666503305233
 20
1031.629375402856
 30
0.0
 11
638.5866503305233
 21
1031.629375402856
 31
0.0
  0
LINE
  5
384
  8
2_PRZEJAZD_B
 62
     5
 10
638.5866503305233
 20
1031.629375402856
 30
0.0
 11
638.5866503305233
 21
961.962708736156
 31
0.0
  0
LINE
  5
385
  8
2_PRZEJAZD_B
 62
     5
 10
638.5866503305233
 20
908.2960420695558
 30
0.0
 11
638.5866503305233
 21
838.6293754028558
 31
0.0
  0
LINE
  5
386
  8
2_PRZEJAZD_B
 62
     5
 10
638.5866503305233
 20
661.6293754028555
 30
0.0
 11
638.5866503305233
 21
638.6293754028555
 31
0.0
  0
LINE
  5
387
  8
2_PRZEJAZD_B
 62
     5
 10
689.3666503305233
 20
1046.629375402856
 30
0.0
 11
689.3666503305233
 21
1042.629375402856
 31
0.0
  0
LINE
  5
388
  8
2_PRZEJAZD_B
 62
     5
 10
689.3666503305233
 20
1064.629375402856
 30
0.0
 11
689.3666503305233
 21
1046.629375402856
 31
0.0
  0
LINE
  5
389
  8
2_PRZEJAZD_B
 62
     5
 10
659.3666503305233
 20
1031.629375402856
 30
0.0
 11
659.3666503305233
 21
1027.629375402856
 31
0.0
  0
LINE
  5
38A
  8
2_PRZEJAZD_B
 62
     5
 10
659.3666503305233
 20
1046.629375402856
 30
0.0
 11
659.3666503305233
 21
1031.629375402856
 31
0.0
  0
LINE
  5
38B
  8
2_PRZEJAZD_B
 62
     5
 10
723.8580789019232
 20
1046.629375402856
 30
0.0
 11
723.8580789019232
 21
1042.629375402856
 31
0.0
  0
LINE
  5
38C
  8
2_PRZEJAZD_B
 62
     5
 10
723.8580789019232
 20
1064.629375402856
 30
0.0
 11
723.8580789019232
 21
1046.629375402856
 31
0.0
  0
LINE
  5
38D
  8
2_PRZEJAZD_B
 62
     5
 10
742.3495074733232
 20
1046.629375402856
 30
0.0
 11
742.3495074733232
 21
1042.629375402856
 31
0.0
  0
LINE
  5
38E
  8
2_PRZEJAZD_B
 62
     5
 10
742.3495074733232
 20
1064.629375402856
 30
0.0
 11
742.3495074733232
 21
1046.629375402856
 31
0.0
  0
LINE
  5
38F
  8
2_PRZEJAZD_B
 62
     5
 10
776.8409360448234
 20
1046.629375402856
 30
0.0
 11
776.8409360448234
 21
1042.629375402856
 31
0.0
  0
LINE
  5
390
  8
2_PRZEJAZD_B
 62
     5
 10
776.8409360448234
 20
1064.629375402856
 30
0.0
 11
776.8409360448234
 21
1046.629375402856
 31
0.0
  0
LINE
  5
391
  8
2_PRZEJAZD_B
 62
     5
 10
795.3323646162232
 20
1046.629375402856
 30
0.0
 11
795.3323646162232
 21
1042.629375402856
 31
0.0
  0
LINE
  5
392
  8
2_PRZEJAZD_B
 62
     5
 10
795.3323646162232
 20
1064.629375402856
 30
0.0
 11
795.3323646162232
 21
1046.629375402856
 31
0.0
  0
LINE
  5
393
  8
2_PRZEJAZD_B
 62
     5
 10
829.8237931876233
 20
1046.629375402856
 30
0.0
 11
829.8237931876233
 21
1042.629375402856
 31
0.0
  0
LINE
  5
394
  8
2_PRZEJAZD_B
 62
     5
 10
829.8237931876233
 20
1064.629375402856
 30
0.0
 11
829.8237931876233
 21
1046.629375402856
 31
0.0
  0
LINE
  5
395
  8
2_PRZEJAZD_B
 62
     5
 10
848.3152217591232
 20
1046.629375402856
 30
0.0
 11
848.3152217591232
 21
1042.629375402856
 31
0.0
  0
LINE
  5
396
  8
2_PRZEJAZD_B
 62
     5
 10
848.3152217591232
 20
1064.629375402856
 30
0.0
 11
848.3152217591232
 21
1046.629375402856
 31
0.0
  0
LINE
  5
397
  8
2_PRZEJAZD_B
 62
     5
 10
882.8066503305233
 20
1046.629375402856
 30
0.0
 11
882.8066503305233
 21
1042.629375402856
 31
0.0
  0
LINE
  5
398
  8
2_PRZEJAZD_B
 62
     5
 10
882.8066503305233
 20
1064.629375402856
 30
0.0
 11
882.8066503305233
 21
1046.629375402856
 31
0.0
  0
LINE
  5
399
  8
2_PRZEJAZD_B
 62
     5
 10
315.2266503305235
 20
1046.629375402856
 30
0.0
 11
315.2266503305235
 21
1042.629375402856
 31
0.0
  0
LINE
  5
39A
  8
2_PRZEJAZD_B
 62
     5
 10
315.2266503305235
 20
1064.629375402856
 30
0.0
 11
315.2266503305235
 21
1046.629375402856
 31
0.0
  0
LINE
  5
39B
  8
2_PRZEJAZD_B
 62
     5
 10
280.7352217591233
 20
1046.629375402856
 30
0.0
 11
280.7352217591233
 21
1042.629375402856
 31
0.0
  0
LINE
  5
39C
  8
2_PRZEJAZD_B
 62
     5
 10
280.7352217591233
 20
1064.629375402856
 30
0.0
 11
280.7352217591233
 21
1046.629375402856
 31
0.0
  0
LINE
  5
39D
  8
2_PRZEJAZD_B
 62
     5
 10
262.2437931876233
 20
1046.629375402856
 30
0.0
 11
262.2437931876233
 21
1042.629375402856
 31
0.0
  0
LINE
  5
39E
  8
2_PRZEJAZD_B
 62
     5
 10
262.2437931876233
 20
1064.629375402856
 30
0.0
 11
262.2437931876233
 21
1046.629375402856
 31
0.0
  0
LINE
  5
39F
  8
2_PRZEJAZD_B
 62
     5
 10
227.7523646162234
 20
1046.629375402856
 30
0.0
 11
227.7523646162234
 21
1042.629375402856
 31
0.0
  0
LINE
  5
3A0
  8
2_PRZEJAZD_B
 62
     5
 10
227.7523646162234
 20
1064.629375402856
 30
0.0
 11
227.7523646162234
 21
1046.629375402856
 31
0.0
  0
LINE
  5
3A1
  8
2_PRZEJAZD_B
 62
     5
 10
209.2609360448234
 20
1046.629375402856
 30
0.0
 11
209.2609360448234
 21
1042.629375402856
 31
0.0
  0
LINE
  5
3A2
  8
2_PRZEJAZD_B
 62
     5
 10
209.2609360448234
 20
1064.629375402856
 30
0.0
 11
209.2609360448234
 21
1046.629375402856
 31
0.0
  0
LINE
  5
3A3
  8
2_PRZEJAZD_B
 62
     5
 10
174.7695074733234
 20
1046.629375402856
 30
0.0
 11
174.7695074733234
 21
1042.629375402856
 31
0.0
  0
LINE
  5
3A4
  8
2_PRZEJAZD_B
 62
     5
 10
174.7695074733234
 20
1064.629375402856
 30
0.0
 11
174.7695074733234
 21
1046.629375402856
 31
0.0
  0
LINE
  5
3A5
  8
2_PRZEJAZD_B
 62
     5
 10
156.2780789019234
 20
1046.629375402856
 30
0.0
 11
156.2780789019234
 21
1042.629375402856
 31
0.0
  0
LINE
  5
3A6
  8
2_PRZEJAZD_B
 62
     5
 10
156.2780789019234
 20
1064.629375402856
 30
0.0
 11
156.2780789019234
 21
1046.629375402856
 31
0.0
  0
LINE
  5
3A7
  8
2_PRZEJAZD_B
 62
     5
 10
91.78665033052339
 20
1031.629375402856
 30
0.0
 11
91.78665033052339
 21
1027.629375402856
 31
0.0
  0
LINE
  5
3A8
  8
2_PRZEJAZD_B
 62
     5
 10
91.78665033052339
 20
1046.629375402856
 30
0.0
 11
91.78665033052339
 21
1031.629375402856
 31
0.0
  0
LINE
  5
3A9
  8
2_PRZEJAZD_B
 62
     5
 10
121.7866503305234
 20
1046.629375402856
 30
0.0
 11
121.7866503305234
 21
1042.629375402856
 31
0.0
  0
LINE
  5
3AA
  8
2_PRZEJAZD_B
 62
     5
 10
121.7866503305234
 20
1064.629375402856
 30
0.0
 11
121.7866503305234
 21
1046.629375402856
 31
0.0
  0
LINE
  5
3AB
  8
2_PRZEJAZD_B
 62
     5
 10
518.1466503305234
 20
945.6293754028557
 30
0.0
 11
518.1466503305234
 21
968.6293754028557
 31
0.0
  0
LINE
  5
3AC
  8
2_PRZEJAZD_B
 62
     5
 10
518.1466503305234
 20
698.9627087361557
 30
0.0
 11
518.1466503305234
 21
768.6293754028558
 31
0.0
  0
LINE
  5
3AD
  8
2_PRZEJAZD_B
 62
     5
 10
568.9266503305233
 20
560.6293754028555
 30
0.0
 11
538.9266503305233
 21
560.6293754028555
 31
0.0
  0
LINE
  5
3AE
  8
2_PRZEJAZD_B
 62
     5
 10
603.4180789020234
 20
542.6293754028555
 30
0.0
 11
568.9266503305233
 21
542.6293754028555
 31
0.0
  0
LINE
  5
3AF
  8
2_PRZEJAZD_B
 62
     5
 10
621.9095074734233
 20
560.6293754028555
 30
0.0
 11
603.4180789020234
 21
560.6293754028555
 31
0.0
  0
LINE
  5
3B0
  8
2_PRZEJAZD_B
 62
     5
 10
656.4009360448233
 20
542.6293754028555
 30
0.0
 11
621.9095074734233
 21
542.6293754028555
 31
0.0
  0
LINE
  5
3B1
  8
2_PRZEJAZD_B
 62
     5
 10
674.8923646163233
 20
560.6293754028555
 30
0.0
 11
656.4009360448233
 21
560.6293754028555
 31
0.0
  0
LINE
  5
3B2
  8
2_PRZEJAZD_B
 62
     5
 10
727.8752217591233
 20
560.6293754028555
 30
0.0
 11
709.3837931877233
 21
560.6293754028555
 31
0.0
  0
LINE
  5
3B3
  8
2_PRZEJAZD_B
 62
     5
 10
762.3666503305234
 20
542.6293754028555
 30
0.0
 11
727.8752217591233
 21
542.6293754028555
 31
0.0
  0
LINE
  5
3B4
  8
2_PRZEJAZD_B
 62
     5
 10
813.1466503305234
 20
560.6293754028555
 30
0.0
 11
762.3666503305234
 21
560.6293754028555
 31
0.0
  0
LINE
  5
3B5
  8
2_PRZEJAZD_B
 62
     5
 10
813.1466503305234
 20
583.6293754028555
 30
0.0
 11
813.1466503305234
 21
560.6293754028555
 31
0.0
  0
LINE
  5
3B6
  8
2_PRZEJAZD_B
 62
     5
 10
792.3666503305234
 20
583.6293754028555
 30
0.0
 11
813.1466503305234
 21
583.6293754028555
 31
0.0
  0
LINE
  5
3B7
  8
2_PRZEJAZD_B
 62
     5
 10
813.1466503305234
 20
637.2960420694557
 30
0.0
 11
792.3666503305234
 21
637.2960420694557
 31
0.0
  0
LINE
  5
3B8
  8
2_PRZEJAZD_B
 62
     5
 10
813.1466503305234
 20
706.9627087361558
 30
0.0
 11
813.1466503305234
 21
637.2960420694557
 31
0.0
  0
LINE
  5
3B9
  8
2_PRZEJAZD_B
 62
     5
 10
813.1466503305234
 20
953.6293754028557
 30
0.0
 11
813.1466503305234
 21
883.962708736156
 31
0.0
  0
LINE
  5
3BA
  8
2_PRZEJAZD_B
 62
     5
 10
71.00665033052337
 20
661.6293754028555
 30
0.0
 11
71.00665033052337
 21
638.6293754028555
 31
0.0
  0
LINE
  5
3BB
  8
2_PRZEJAZD_B
 62
     5
 10
71.00665033052337
 20
784.9627087361558
 30
0.0
 11
71.00665033052337
 21
715.2960420695557
 31
0.0
  0
LINE
  5
3BC
  8
2_PRZEJAZD_B
 62
     5
 10
71.00665033052337
 20
908.2960420695558
 30
0.0
 11
71.00665033052337
 21
838.6293754028558
 31
0.0
  0
LINE
  5
3BD
  8
2_PRZEJAZD_B
 62
     5
 10
91.78665033052339
 20
1031.629375402856
 30
0.0
 11
71.00665033052337
 21
1031.629375402856
 31
0.0
  0
LINE
  5
3BE
  8
2_PRZEJAZD_B
 62
     5
 10
121.7866503305234
 20
1046.629375402856
 30
0.0
 11
91.78665033052339
 21
1046.629375402856
 31
0.0
  0
LINE
  5
3BF
  8
2_PRZEJAZD_B
 62
     5
 10
156.2780789019234
 20
1064.629375402856
 30
0.0
 11
121.7866503305234
 21
1064.629375402856
 31
0.0
  0
LINE
  5
3C0
  8
2_PRZEJAZD_B
 62
     5
 10
174.7695074733234
 20
1046.629375402856
 30
0.0
 11
156.2780789019234
 21
1046.629375402856
 31
0.0
  0
LINE
  5
3C1
  8
2_PRZEJAZD_B
 62
     5
 10
209.2609360448234
 20
1064.629375402856
 30
0.0
 11
174.7695074733234
 21
1064.629375402856
 31
0.0
  0
LINE
  5
3C2
  8
2_PRZEJAZD_B
 62
     5
 10
227.7523646162234
 20
1046.629375402856
 30
0.0
 11
209.2609360448234
 21
1046.629375402856
 31
0.0
  0
LINE
  5
3C3
  8
2_PRZEJAZD_B
 62
     5
 10
280.7352217591233
 20
1046.629375402856
 30
0.0
 11
262.2437931876233
 21
1046.629375402856
 31
0.0
  0
LINE
  5
3C4
  8
2_PRZEJAZD_B
 62
     5
 10
315.2266503305235
 20
1064.629375402856
 30
0.0
 11
280.7352217591233
 21
1064.629375402856
 31
0.0
  0
LINE
  5
3C5
  8
2_PRZEJAZD_B
 62
     5
 10
366.0066503305234
 20
1046.629375402856
 30
0.0
 11
315.2266503305235
 21
1046.629375402856
 31
0.0
  0
LINE
  5
3C6
  8
2_PRZEJAZD_B
 62
     5
 10
366.0066503305234
 20
1023.629375402856
 30
0.0
 11
366.0066503305234
 21
1046.629375402856
 31
0.0
  0
LINE
  5
3C7
  8
2_PRZEJAZD_B
 62
     5
 10
366.0066503305234
 20
900.2960420695558
 30
0.0
 11
366.0066503305234
 21
969.962708736156
 31
0.0
  0
LINE
  5
3C8
  8
2_PRZEJAZD_B
 62
     5
 10
366.0066503305234
 20
653.6293754028555
 30
0.0
 11
366.0066503305234
 21
723.2960420695557
 31
0.0
  0
LINE
  5
3C9
  8
2_PRZEJAZD_B
 62
     5
 10
159.9466503305234
 20
953.6293754028557
 30
0.0
 11
159.9466503305234
 21
883.9625382416557
 31
0.0
  0
LINE
  5
3CA
  8
2_PRZEJAZD_B
 62
     5
 10
159.9466503305234
 20
706.9620267581557
 30
0.0
 11
159.9466503305234
 21
637.2951895969557
 31
0.0
  0
LINE
  5
3CB
  8
2_PRZEJAZD_B
 62
     5
 10
159.9466503305234
 20
583.6283524358556
 30
0.0
 11
159.9466503305234
 21
560.6283524358556
 31
0.0
  0
LINE
  5
3CC
  8
2_PRZEJAZD_B
 62
     5
 10
466.9476732975234
 20
81.78835243585559
 30
0.0
 11
489.9476732975234
 21
81.78835243585559
 31
0.0
  0
LINE
  5
3CD
  8
2_PRZEJAZD_B
 62
     5
 10
466.9476732975234
 20
102.5683524358556
 30
0.0
 11
466.9476732975234
 21
81.78835243585559
 31
0.0
  0
LINE
  5
3CE
  8
2_PRZEJAZD_B
 62
     5
 10
413.2808361363234
 20
81.78835243585559
 30
0.0
 11
413.2808361363234
 21
102.5683524358556
 31
0.0
  0
LINE
  5
3CF
  8
2_PRZEJAZD_B
 62
     5
 10
343.6139989752234
 20
81.78835243585559
 30
0.0
 11
413.2808361363234
 21
81.78835243585559
 31
0.0
  0
LINE
  5
3D0
  8
2_PRZEJAZD_B
 62
     5
 10
343.6139989752234
 20
102.5683524358556
 30
0.0
 11
343.6139989752234
 21
81.78835243585559
 31
0.0
  0
LINE
  5
3D1
  8
2_PRZEJAZD_B
 62
     5
 10
289.9471618140234
 20
81.78835243585559
 30
0.0
 11
289.9471618140234
 21
102.5683524358556
 31
0.0
  0
LINE
  5
3D2
  8
2_PRZEJAZD_B
 62
     5
 10
220.2803246528234
 20
102.5683524358556
 30
0.0
 11
220.2803246528234
 21
81.78835243585559
 31
0.0
  0
LINE
  5
3D3
  8
2_PRZEJAZD_B
 62
     5
 10
166.6134874917234
 20
81.78835243585559
 30
0.0
 11
166.6134874917234
 21
102.5683524358556
 31
0.0
  0
LINE
  5
3D4
  8
2_PRZEJAZD_B
 62
     5
 10
96.94665033052331
 20
81.78835243585559
 30
0.0
 11
166.6134874917234
 21
81.78835243585559
 31
0.0
  0
LINE
  5
3D5
  8
2_PRZEJAZD_B
 62
     5
 10
96.94665033052331
 20
102.5683524358556
 30
0.0
 11
96.94665033052331
 21
81.78835243585559
 31
0.0
  0
LINE
  5
3D6
  8
2_PRZEJAZD_B
 62
     5
 10
104.9466503305233
 20
439.9883524358556
 30
0.0
 11
81.94665033052331
 21
439.9883524358556
 31
0.0
  0
LINE
  5
3D7
  8
2_PRZEJAZD_B
 62
     5
 10
104.9466503305233
 20
419.2083524358557
 30
0.0
 11
104.9466503305233
 21
439.9883524358556
 31
0.0
  0
LINE
  5
3D8
  8
2_PRZEJAZD_B
 62
     5
 10
158.6134874917234
 20
439.9883524358556
 30
0.0
 11
158.6134874917234
 21
419.2083524358557
 31
0.0
  0
LINE
  5
3D9
  8
2_PRZEJAZD_B
 62
     5
 10
228.2803246528234
 20
439.9883524358556
 30
0.0
 11
158.6134874917234
 21
439.9883524358556
 31
0.0
  0
LINE
  5
3DA
  8
2_PRZEJAZD_B
 62
     5
 10
228.2803246528234
 20
419.2083524358557
 30
0.0
 11
228.2803246528234
 21
439.9883524358556
 31
0.0
  0
LINE
  5
3DB
  8
2_PRZEJAZD_B
 62
     5
 10
281.9471618140234
 20
439.9883524358556
 30
0.0
 11
281.9471618140234
 21
419.2083524358557
 31
0.0
  0
LINE
  5
3DC
  8
2_PRZEJAZD_B
 62
     5
 10
351.6139989752234
 20
419.2083524358557
 30
0.0
 11
351.6139989752234
 21
439.9883524358556
 31
0.0
  0
LINE
  5
3DD
  8
2_PRZEJAZD_B
 62
     5
 10
405.2808361363234
 20
439.9883524358556
 30
0.0
 11
405.2808361363234
 21
419.2083524358557
 31
0.0
  0
LINE
  5
3DE
  8
2_PRZEJAZD_B
 62
     5
 10
474.9476732975234
 20
439.9883524358556
 30
0.0
 11
405.2808361363234
 21
439.9883524358556
 31
0.0
  0
LINE
  5
3DF
  8
2_PRZEJAZD_B
 62
     5
 10
474.9476732975234
 20
419.2083524358557
 30
0.0
 11
474.9476732975234
 21
439.9883524358556
 31
0.0
  0
LINE
  5
3E0
  8
2_PRZEJAZD_B
 62
     5
 10
182.9466503305234
 20
560.6283524358556
 30
0.0
 11
159.9466503305234
 21
560.6283524358556
 31
0.0
  0
LINE
  5
3E1
  8
2_PRZEJAZD_B
 62
     5
 10
552.9476732975235
 20
560.6283524358556
 30
0.0
 11
483.2808361364234
 21
560.6283524358556
 31
0.0
  0
LINE
  5
3E2
  8
2_PRZEJAZD_B
 62
     5
 10
544.9476732975235
 20
202.4283524358558
 30
0.0
 11
567.9476732975235
 21
202.4283524358558
 31
0.0
  0
LINE
  5
3E3
  8
2_PRZEJAZD_B
 62
     5
 10
544.9476732975235
 20
223.2083524358555
 30
0.0
 11
544.9476732975235
 21
202.4283524358558
 31
0.0
  0
LINE
  5
3E4
  8
2_PRZEJAZD_B
 62
     5
 10
491.2808361364234
 20
202.4283524358558
 30
0.0
 11
491.2808361364234
 21
223.2083524358555
 31
0.0
  0
LINE
  5
3E5
  8
2_PRZEJAZD_B
 62
     5
 10
421.6139989752234
 20
202.4283524358558
 30
0.0
 11
491.2808361364234
 21
202.4283524358558
 31
0.0
  0
LINE
  5
3E6
  8
2_PRZEJAZD_B
 62
     5
 10
421.6139989752234
 20
223.2083524358555
 30
0.0
 11
421.6139989752234
 21
202.4283524358558
 31
0.0
  0
LINE
  5
3E7
  8
2_PRZEJAZD_B
 62
     5
 10
367.9471618140234
 20
202.4283524358558
 30
0.0
 11
367.9471618140234
 21
223.2083524358555
 31
0.0
  0
LINE
  5
3E8
  8
2_PRZEJAZD_B
 62
     5
 10
298.2803246529234
 20
223.2083524358555
 30
0.0
 11
298.2803246529234
 21
202.4283524358558
 31
0.0
  0
LINE
  5
3E9
  8
2_PRZEJAZD_B
 62
     5
 10
244.6134874917234
 20
202.4283524358558
 30
0.0
 11
244.6134874917234
 21
223.2083524358555
 31
0.0
  0
LINE
  5
3EA
  8
2_PRZEJAZD_B
 62
     5
 10
174.9466503305234
 20
202.4283524358558
 30
0.0
 11
244.6134874917234
 21
202.4283524358558
 31
0.0
  0
LINE
  5
3EB
  8
2_PRZEJAZD_B
 62
     5
 10
174.9466503305234
 20
223.2083524358555
 30
0.0
 11
174.9466503305234
 21
202.4283524358558
 31
0.0
  0
LINE
  5
3EC
  8
2_PRZEJAZD_B
 62
     5
 10
594.1933609961758
 20
387.2023775421515
 30
0.0
 11
604.1933609962238
 21
387.2023775421787
 31
0.0
  0
LINE
  5
3ED
  8
2_PRZEJAZD_B
 62
     5
 10
604.1933609962235
 20
405.6938061135808
 30
0.0
 11
594.1933609961758
 21
405.6938061135534
 31
0.0
  0
LINE
  5
3EE
  8
2_PRZEJAZD_B
 62
     5
 10
594.1933609961735
 20
334.222377542151
 30
0.0
 11
604.1933609962222
 21
334.222377542178
 31
0.0
  0
LINE
  5
3EF
  8
2_PRZEJAZD_B
 62
     5
 10
604.193360996221
 20
352.7138061135805
 30
0.0
 11
594.193360996173
 21
352.713806113553
 31
0.0
  0
LINE
  5
3F0
  8
2_PRZEJAZD_B
 62
     5
 10
594.1933609961717
 20
281.2423775421505
 30
0.0
 11
604.1933609962188
 21
281.2423775421782
 31
0.0
  0
LINE
  5
3F1
  8
2_PRZEJAZD_B
 62
     5
 10
604.1933609962197
 20
299.7338061135798
 30
0.0
 11
594.1933609961715
 21
299.7338061135523
 31
0.0
  0
LINE
  5
3F2
  8
2_PRZEJAZD_B
 62
     5
 10
594.1933609961694
 20
228.2623775421501
 30
0.0
 11
604.1933609962174
 21
228.2623775421774
 31
0.0
  0
LINE
  5
3F3
  8
2_PRZEJAZD_B
 62
     5
 10
604.1933609962172
 20
246.7538061135793
 30
0.0
 11
594.1933609961692
 21
246.7538061135521
 31
0.0
  0
LINE
  5
3F4
  8
2_PRZEJAZD_B
 62
     5
 10
660.6508533347477
 20
208.382419919108
 30
0.0
 11
655.6508533347486
 21
217.0426739569522
 31
0.0
  0
LINE
  5
3F5
  8
2_PRZEJAZD_B
 62
     5
 10
639.6368064396505
 20
207.796959671253
 30
0.0
 11
644.6368064396494
 21
199.1367056334085
 31
0.0
  0
LINE
  5
3F6
  8
2_PRZEJAZD_B
 62
     5
 10
706.5328792272486
 20
234.8724199191057
 30
0.0
 11
701.5328792272493
 21
243.5326739569502
 31
0.0
  0
LINE
  5
3F7
  8
2_PRZEJAZD_B
 62
     5
 10
685.518832332151
 20
234.2869596712509
 30
0.0
 11
690.5188323321503
 21
225.6267056334066
 31
0.0
  0
LINE
  5
3F8
  8
2_PRZEJAZD_B
 62
     5
 10
752.414905119749
 20
261.3624199191036
 30
0.0
 11
747.41490511975
 21
270.0226739569481
 31
0.0
  0
LINE
  5
3F9
  8
2_PRZEJAZD_B
 62
     5
 10
731.4008582246516
 20
260.7769596712487
 30
0.0
 11
736.400858224651
 21
252.1167056334044
 31
0.0
  0
LINE
  5
3FA
  8
2_PRZEJAZD_B
 62
     5
 10
777.2828841171523
 20
287.2669596712467
 30
0.0
 11
782.2828841171523
 21
278.6067056334017
 31
0.0
  0
LINE
  5
3FB
  8
2_PRZEJAZD_B
 62
     5
 10
798.29693101225
 20
287.8524199191015
 30
0.0
 11
793.2969310122506
 21
296.5126739569458
 31
0.0
  0
LINE
  5
3FC
  8
2_PRZEJAZD_B
 62
     5
 10
793.2994044185683
 20
337.4480128387391
 30
0.0
 11
798.299404418617
 21
346.1082668766112
 31
0.0
  0
LINE
  5
3FD
  8
2_PRZEJAZD_B
 62
     5
 10
782.2853575235184
 20
355.3539811623137
 30
0.0
 11
777.2853575234698
 21
346.6937271244418
 31
0.0
  0
LINE
  5
3FE
  8
2_PRZEJAZD_B
 62
     5
 10
736.4033316310193
 20
381.8439811623168
 30
0.0
 11
731.4033316309709
 21
373.1837271244447
 31
0.0
  0
LINE
  5
3FF
  8
2_PRZEJAZD_B
 62
     5
 10
747.4173785260701
 20
363.9380128387414
 30
0.0
 11
752.4173785261188
 21
372.5982668766135
 31
0.0
  0
LINE
  5
400
  8
2_PRZEJAZD_B
 62
     5
 10
690.5213057385212
 20
408.333981162319
 30
0.0
 11
685.5213057384725
 21
399.6737271244473
 31
0.0
  0
LINE
  5
401
  8
2_PRZEJAZD_B
 62
     5
 10
701.5353526335713
 20
390.4280128387445
 30
0.0
 11
706.5353526336197
 21
399.0882668766162
 31
0.0
  0
LINE
  5
402
  8
2_PRZEJAZD_B
 62
     5
 10
644.639279846023
 20
434.8239811623212
 30
0.0
 11
639.6392798459741
 21
426.1637271244493
 31
0.0
  0
LINE
  5
403
  8
2_PRZEJAZD_B
 62
     5
 10
655.6533267410729
 20
416.9180128387467
 30
0.0
 11
660.6533267411215
 21
425.5782668766186
 31
0.0
  0
ARC
  5
404
  8
2_PRZEJAZD_B
 62
     5
 10
883.2377539214823
 20
316.9810638987998
 30
0.0
 40
9.000000000000057
 50
299.9999999999972
 51
59.99999999999615
  0
ARC
  5
405
  8
2_PRZEJAZD_B
 62
     5
 10
576.947673297558
 20
493.8177243972324
 30
0.0
 40
9.000000000000032
 50
59.99999999999678
 51
179.9999999999971
  0
ARC
  5
406
  8
2_PRZEJAZD_B
 62
     5
 10
576.9476732975232
 20
140.1444034004643
 30
0.0
 40
9.000000000000014
 50
179.9999999999982
 51
299.9999999999974
  0
LINE
  5
407
  8
2_PRZEJAZD_B
 62
     5
 10
159.9466503305233
 20
340.2083524358555
 30
0.0
 11
489.9476732975234
 21
340.2083524358555
 31
0.0
  0
LINE
  5
408
  8
2_PRZEJAZD_B
 62
     5
 10
159.9466503305233
 20
302.2083524358555
 30
0.0
 11
489.9476732975234
 21
302.2083524358555
 31
0.0
  0
LINE
  5
409
  8
2_PRZEJAZD_B
 62
     5
 10
489.9476732975234
 20
181.5683524358554
 30
0.0
 11
159.9466503305233
 21
181.5683524358554
 31
0.0
  0
LINE
  5
40A
  8
2_PRZEJAZD_B
 62
     5
 10
489.9476732975234
 20
81.78835243585559
 30
0.0
 11
489.9476732975234
 21
181.5683524358554
 31
0.0
  0
LINE
  5
40B
  8
2_PRZEJAZD_B
 10
159.9466503305233
 20
200.5683524358554
 30
0.0
 11
159.9466503305233
 21
181.5683524358554
 31
0.0
  0
LINE
  5
40C
  8
2_PRZEJAZD_B
 10
159.9466503305233
 20
302.2083524358555
 30
0.0
 11
159.9466503305233
 21
200.5683524358554
 31
0.0
  0
LINE
  5
40D
  8
2_PRZEJAZD_B
 10
159.9466503305233
 20
340.2083524358555
 30
0.0
 11
159.9466503305233
 21
302.2083524358555
 31
0.0
  0
LINE
  5
40E
  8
2_PRZEJAZD_B
 62
     5
 10
159.9466503305234
 20
460.8483524358556
 30
0.0
 11
489.9476732975234
 21
460.8483524358556
 31
0.0
  0
LINE
  5
40F
  8
2_PRZEJAZD_B
 10
489.9476732975234
 20
441.8483524358556
 30
0.0
 11
489.9476732975234
 21
460.8483524358556
 31
0.0
  0
LINE
  5
410
  8
2_PRZEJAZD_B
 10
489.9476732975234
 20
321.2083524358555
 30
0.0
 11
489.9476732975234
 21
441.8483524358556
 31
0.0
  0
LINE
  5
411
  8
2_PRZEJAZD_B
 10
489.9476732975234
 20
302.2083524358555
 30
0.0
 11
489.9476732975234
 21
321.2083524358555
 31
0.0
  0
LINE
  5
412
  8
2_PRZEJAZD_B
 62
     5
 10
159.9466503305234
 20
560.6283524358556
 30
0.0
 11
159.9466503305234
 21
460.8483524358556
 31
0.0
  0
LINE
  5
413
  8
2_PRZEJAZD_B
 62
     5
 10
297.7266503305235
 20
968.6293754028557
 30
0.0
 11
297.7266503305235
 21
638.6293754028555
 31
0.0
  0
LINE
  5
414
  8
2_PRZEJAZD_B
 62
     5
 10
139.2866503305233
 20
638.6293754028555
 30
0.0
 11
139.2866503305233
 21
968.6293754028557
 31
0.0
  0
LINE
  5
415
  8
2_PRZEJAZD_B
 62
     5
 10
259.7266503305235
 20
638.6293754028555
 30
0.0
 11
259.7266503305235
 21
968.6293754028557
 31
0.0
  0
LINE
  5
416
  8
2_PRZEJAZD_B
 62
     5
 10
418.3666503305233
 20
968.6293754028557
 30
0.0
 11
418.3666503305233
 21
638.6283524358556
 31
0.0
  0
LINE
  5
417
  8
2_PRZEJAZD_B
 10
297.7266503305235
 20
968.6293754028557
 30
0.0
 11
139.2866503305233
 21
968.6293754028557
 31
0.0
  0
LINE
  5
418
  8
2_PRZEJAZD_B
 10
71.00665033052337
 20
638.6293754028555
 30
0.0
 11
139.2866503305233
 21
638.6293754028555
 31
0.0
  0
LINE
  5
419
  8
2_PRZEJAZD_B
 10
259.7266503305235
 20
638.6293754028555
 30
0.0
 11
418.3666503305233
 21
638.6283524358556
 31
0.0
  0
LINE
  5
41A
  8
2_PRZEJAZD_B
 62
     5
 10
159.9466503305234
 20
830.2957010804558
 30
0.0
 11
159.9466503305234
 21
801.0407578843026
 31
0.0
  0
LINE
  5
41B
  8
2_PRZEJAZD_B
 62
     5
 10
159.9466503305234
 20
786.0407578843025
 30
0.0
 11
159.9466503305234
 21
760.6288639193557
 31
0.0
  0
LINE
  5
41C
  8
2_PRZEJAZD_B
 62
     5
 10
586.4266503305233
 20
968.6293754028557
 30
0.0
 11
586.4266503305233
 21
638.6293754028555
 31
0.0
  0
LINE
  5
41D
  8
2_PRZEJAZD_B
 62
     5
 10
706.8666503305234
 20
638.6293754028555
 30
0.0
 11
706.8666503305234
 21
968.6293754028557
 31
0.0
  0
LINE
  5
41E
  8
2_PRZEJAZD_B
 62
     5
 10
744.8666503305234
 20
638.6293754028555
 30
0.0
 11
744.8666503305234
 21
968.6293754028557
 31
0.0
  0
LINE
  5
41F
  8
2_PRZEJAZD_B
 62
     5
 10
865.3066503305233
 20
968.6293754028557
 30
0.0
 11
865.3066503305233
 21
638.6293754028555
 31
0.0
  0
LINE
  5
420
  8
2_PRZEJAZD_B
 10
586.4266503305233
 20
638.6293754028555
 30
0.0
 11
744.8666503305234
 21
638.6293754028555
 31
0.0
  0
LINE
  5
421
  8
2_PRZEJAZD_B
 10
706.8666503305234
 20
968.6293754028557
 30
0.0
 11
865.3066503305233
 21
968.6293754028557
 31
0.0
  0
LINE
  5
422
  8
2_PRZEJAZD_B
 62
     5
 10
577.0587200472205
 20
968.6293754028557
 30
0.0
 11
586.4266503305233
 21
968.6293754028557
 31
0.0
  0
LINE
  5
423
  8
2_PRZEJAZD_B
 62
     5
 10
452.1685210691448
 20
968.6293754028557
 30
0.0
 11
418.3666503305233
 21
968.6293754028557
 31
0.0
  0
LINE
  5
425
  8
1_PRZEJAZD_A
 62
     1
 10
655.6533267410729
 20
416.9180128387467
 30
0.0
 11
660.6533267411215
 21
425.5782668766186
 31
0.0
  0
LINE
  5
426
  8
1_PRZEJAZD_A
 62
     1
 10
644.639279846023
 20
434.8239811623212
 30
0.0
 11
639.6392798459741
 21
426.1637271244493
 31
0.0
  0
LINE
  5
427
  8
1_PRZEJAZD_A
 62
     1
 10
701.5353526335713
 20
390.4280128387445
 30
0.0
 11
706.5353526336197
 21
399.0882668766162
 31
0.0
  0
LINE
  5
428
  8
1_PRZEJAZD_A
 62
     1
 10
690.5213057385212
 20
408.333981162319
 30
0.0
 11
685.5213057384725
 21
399.6737271244473
 31
0.0
  0
LINE
  5
429
  8
1_PRZEJAZD_A
 62
     1
 10
747.4173785260701
 20
363.9380128387414
 30
0.0
 11
752.4173785261188
 21
372.5982668766135
 31
0.0
  0
LINE
  5
42A
  8
1_PRZEJAZD_A
 62
     1
 10
736.4033316310193
 20
381.8439811623168
 30
0.0
 11
731.4033316309709
 21
373.1837271244447
 31
0.0
  0
LINE
  5
42B
  8
1_PRZEJAZD_A
 62
     1
 10
782.2853575235184
 20
355.3539811623137
 30
0.0
 11
777.2853575234698
 21
346.6937271244418
 31
0.0
  0
LINE
  5
42C
  8
1_PRZEJAZD_A
 62
     1
 10
793.2994044185683
 20
337.4480128387391
 30
0.0
 11
798.299404418617
 21
346.1082668766112
 31
0.0
  0
LINE
  5
42D
  8
1_PRZEJAZD_A
 62
     1
 10
798.29693101225
 20
287.8524199191015
 30
0.0
 11
793.2969310122506
 21
296.5126739569458
 31
0.0
  0
LINE
  5
42E
  8
1_PRZEJAZD_A
 62
     1
 10
777.2828841171523
 20
287.2669596712467
 30
0.0
 11
782.2828841171523
 21
278.6067056334017
 31
0.0
  0
LINE
  5
42F
  8
1_PRZEJAZD_A
 62
     1
 10
731.4008582246516
 20
260.7769596712487
 30
0.0
 11
736.400858224651
 21
252.1167056334044
 31
0.0
  0
LINE
  5
430
  8
1_PRZEJAZD_A
 62
     1
 10
752.414905119749
 20
261.3624199191036
 30
0.0
 11
747.41490511975
 21
270.0226739569481
 31
0.0
  0
LINE
  5
431
  8
1_PRZEJAZD_A
 62
     1
 10
685.518832332151
 20
234.2869596712509
 30
0.0
 11
690.5188323321503
 21
225.6267056334066
 31
0.0
  0
LINE
  5
432
  8
1_PRZEJAZD_A
 62
     1
 10
706.5328792272486
 20
234.8724199191057
 30
0.0
 11
701.5328792272493
 21
243.5326739569502
 31
0.0
  0
LINE
  5
433
  8
1_PRZEJAZD_A
 62
     1
 10
639.6368064396505
 20
207.796959671253
 30
0.0
 11
644.6368064396494
 21
199.1367056334085
 31
0.0
  0
LINE
  5
434
  8
1_PRZEJAZD_A
 62
     1
 10
660.6508533347477
 20
208.382419919108
 30
0.0
 11
655.6508533347486
 21
217.0426739569522
 31
0.0
  0
LINE
  5
435
  8
1_PRZEJAZD_A
 62
     1
 10
604.1933609962172
 20
246.7538061135793
 30
0.0
 11
594.1933609961692
 21
246.7538061135521
 31
0.0
  0
LINE
  5
436
  8
1_PRZEJAZD_A
 62
     1
 10
594.1933609961694
 20
228.2623775421501
 30
0.0
 11
604.1933609962174
 21
228.2623775421774
 31
0.0
  0
LINE
  5
437
  8
1_PRZEJAZD_A
 62
     1
 10
604.1933609962197
 20
299.7338061135798
 30
0.0
 11
594.1933609961715
 21
299.7338061135523
 31
0.0
  0
LINE
  5
438
  8
1_PRZEJAZD_A
 62
     1
 10
594.1933609961717
 20
281.2423775421505
 30
0.0
 11
604.1933609962188
 21
281.2423775421782
 31
0.0
  0
LINE
  5
439
  8
1_PRZEJAZD_A
 62
     1
 10
604.193360996221
 20
352.7138061135805
 30
0.0
 11
594.193360996173
 21
352.713806113553
 31
0.0
  0
LINE
  5
43A
  8
1_PRZEJAZD_A
 62
     1
 10
594.1933609961735
 20
334.222377542151
 30
0.0
 11
604.1933609962222
 21
334.222377542178
 31
0.0
  0
LINE
  5
43B
  8
1_PRZEJAZD_A
 62
     1
 10
604.1933609962235
 20
405.6938061135808
 30
0.0
 11
594.1933609961758
 21
405.6938061135534
 31
0.0
  0
LINE
  5
43C
  8
1_PRZEJAZD_A
 62
     1
 10
594.1933609961758
 20
387.2023775421515
 30
0.0
 11
604.1933609962238
 21
387.2023775421787
 31
0.0
  0
LINE
  5
43D
  8
1_PRZEJAZD_A
 62
     1
 10
280.7352217591233
 20
1046.629375402856
 30
0.0
 11
262.2437931876233
 21
1046.629375402856
 31
0.0
  0
LINE
  5
43E
  8
1_PRZEJAZD_A
 62
     1
 10
227.7523646162234
 20
1046.629375402856
 30
0.0
 11
209.2609360448234
 21
1046.629375402856
 31
0.0
  0
LINE
  5
43F
  8
1_PRZEJAZD_A
 62
     1
 10
174.7695074733234
 20
1046.629375402856
 30
0.0
 11
156.2780789019234
 21
1046.629375402856
 31
0.0
  0
LINE
  5
440
  8
1_PRZEJAZD_A
 62
     1
 10
727.8752217591233
 20
560.6293754028555
 30
0.0
 11
709.3837931877233
 21
560.6293754028555
 31
0.0
  0
LINE
  5
441
  8
1_PRZEJAZD_A
 62
     1
 10
674.8923646163233
 20
560.6293754028555
 30
0.0
 11
656.4009360448233
 21
560.6293754028555
 31
0.0
  0
LINE
  5
442
  8
1_PRZEJAZD_A
 62
     1
 10
621.9095074734233
 20
560.6293754028555
 30
0.0
 11
603.4180789020234
 21
560.6293754028555
 31
0.0
  0
LINE
  5
443
  8
1_PRZEJAZD_A
 62
     1
 10
518.1466503305234
 20
698.9627087361557
 30
0.0
 11
518.1466503305234
 21
768.6293754028558
 31
0.0
  0
LINE
  5
444
  8
1_PRZEJAZD_A
 62
     1
 10
518.1466503305234
 20
945.6293754028557
 30
0.0
 11
518.1466503305234
 21
968.6293754028557
 31
0.0
  0
LINE
  5
445
  8
1_PRZEJAZD_A
 62
     1
 10
742.3495074733232
 20
1046.629375402856
 30
0.0
 11
723.8580789019232
 21
1046.629375402856
 31
0.0
  0
LINE
  5
446
  8
1_PRZEJAZD_A
 62
     1
 10
795.3323646162232
 20
1046.629375402856
 30
0.0
 11
776.8409360448234
 21
1046.629375402856
 31
0.0
  0
LINE
  5
447
  8
1_PRZEJAZD_A
 62
     1
 10
848.3152217591232
 20
1046.629375402856
 30
0.0
 11
829.8237931876233
 21
1046.629375402856
 31
0.0
  0
LINE
  5
448
  8
1_PRZEJAZD_A
 62
     1
 10
912.8066503305233
 20
1023.629375402856
 30
0.0
 11
912.8066503305233
 21
1027.629375402856
 31
0.0
  0
LINE
  5
449
  8
1_PRZEJAZD_A
 62
     1
 10
912.8066503305233
 20
969.962708736156
 30
0.0
 11
912.8066503305233
 21
1023.629375402856
 31
0.0
  0
LINE
  5
44A
  8
1_PRZEJAZD_A
 62
     1
 10
912.8066503305233
 20
965.962708736156
 30
0.0
 11
912.8066503305233
 21
969.962708736156
 31
0.0
  0
LINE
  5
44B
  8
1_PRZEJAZD_A
 62
     1
 10
912.8066503305233
 20
776.9627087361558
 30
0.0
 11
912.8066503305233
 21
780.9627087361558
 31
0.0
  0
LINE
  5
44C
  8
1_PRZEJAZD_A
 62
     1
 10
912.8066503305233
 20
723.2960420694561
 30
0.0
 11
912.8066503305233
 21
776.9627087361558
 31
0.0
  0
LINE
  5
44D
  8
1_PRZEJAZD_A
 62
     1
 10
912.8066503305233
 20
719.2960420694561
 30
0.0
 11
912.8066503305233
 21
723.2960420694561
 31
0.0
  0
LINE
  5
44E
  8
1_PRZEJAZD_A
 62
     1
 10
792.3666503305234
 20
968.6293754028557
 30
0.0
 11
792.3666503305234
 21
949.6293754028557
 31
0.0
  0
LINE
  5
44F
  8
1_PRZEJAZD_A
 62
     1
 10
792.3666503305234
 20
706.9627087361558
 30
0.0
 11
792.3666503305234
 21
702.9627087361558
 31
0.0
  0
LINE
  5
450
  8
1_PRZEJAZD_A
 62
     1
 10
792.3666503305234
 20
760.6293754028561
 30
0.0
 11
792.3666503305234
 21
706.9627087361558
 31
0.0
  0
LINE
  5
451
  8
1_PRZEJAZD_A
 62
     1
 10
792.3666503305234
 20
764.6293754028561
 30
0.0
 11
792.3666503305234
 21
760.6293754028561
 31
0.0
  0
LINE
  5
452
  8
1_PRZEJAZD_A
 62
     1
 10
792.3666503305234
 20
583.6293754028555
 30
0.0
 11
792.3666503305234
 21
579.6293754028555
 31
0.0
  0
LINE
  5
453
  8
1_PRZEJAZD_A
 62
     1
 10
792.3666503305234
 20
637.2960420695558
 30
0.0
 11
792.3666503305234
 21
583.6293754028555
 31
0.0
  0
LINE
  5
454
  8
1_PRZEJAZD_A
 62
     1
 10
792.3666503305234
 20
641.2960420695558
 30
0.0
 11
792.3666503305234
 21
637.2960420695558
 31
0.0
  0
LINE
  5
455
  8
1_PRZEJAZD_A
 62
     1
 10
792.3666503305234
 20
830.2960420694557
 30
0.0
 11
792.3666503305234
 21
826.2960420694557
 31
0.0
  0
LINE
  5
456
  8
1_PRZEJAZD_A
 62
     1
 10
792.3666503305234
 20
883.962708736156
 30
0.0
 11
792.3666503305234
 21
830.2960420694557
 31
0.0
  0
LINE
  5
457
  8
1_PRZEJAZD_A
 62
     1
 10
792.3666503305234
 20
887.962708736156
 30
0.0
 11
792.3666503305234
 21
883.962708736156
 31
0.0
  0
LINE
  5
458
  8
1_PRZEJAZD_A
 62
     1
 10
659.3666503305233
 20
908.2960420694557
 30
0.0
 11
659.3666503305233
 21
904.2960420694557
 31
0.0
  0
LINE
  5
459
  8
1_PRZEJAZD_A
 62
     1
 10
659.3666503305233
 20
961.962708736156
 30
0.0
 11
659.3666503305233
 21
908.2960420694557
 31
0.0
  0
LINE
  5
45A
  8
1_PRZEJAZD_A
 62
     1
 10
659.3666503305233
 20
965.962708736156
 30
0.0
 11
659.3666503305233
 21
961.962708736156
 31
0.0
  0
LINE
  5
45B
  8
1_PRZEJAZD_A
 62
     1
 10
659.3666503305233
 20
784.9627087361555
 30
0.0
 11
659.3666503305233
 21
780.9627087361555
 31
0.0
  0
LINE
  5
45C
  8
1_PRZEJAZD_A
 62
     1
 10
659.3666503305233
 20
838.6293754028558
 30
0.0
 11
659.3666503305233
 21
784.9627087361555
 31
0.0
  0
LINE
  5
45D
  8
1_PRZEJAZD_A
 62
     1
 10
659.3666503305233
 20
842.6293754028558
 30
0.0
 11
659.3666503305233
 21
838.6293754028558
 31
0.0
  0
LINE
  5
45E
  8
1_PRZEJAZD_A
 62
     1
 10
659.3666503305233
 20
661.6293754028554
 30
0.0
 11
659.3666503305233
 21
657.6293754028554
 31
0.0
  0
LINE
  5
45F
  8
1_PRZEJAZD_A
 62
     1
 10
659.3666503305233
 20
715.2960420695557
 30
0.0
 11
659.3666503305233
 21
661.6293754028554
 31
0.0
  0
LINE
  5
460
  8
1_PRZEJAZD_A
 62
     1
 10
659.3666503305233
 20
719.2960420695557
 30
0.0
 11
659.3666503305233
 21
715.2960420695557
 31
0.0
  0
LINE
  5
461
  8
1_PRZEJAZD_A
 62
     1
 10
497.3666503305233
 20
945.6293754028557
 30
0.0
 11
538.9266503305233
 21
945.6293754028557
 31
0.0
  0
LINE
  5
462
  8
1_PRZEJAZD_A
 62
     1
 10
538.9266503305233
 20
891.962708736156
 30
0.0
 11
497.3666503305233
 21
891.9625382416557
 31
0.0
  0
LINE
  5
463
  8
1_PRZEJAZD_A
 62
     1
 10
497.3666503305233
 20
822.2957010804558
 30
0.0
 11
538.9266503305233
 21
822.2960420694557
 31
0.0
  0
LINE
  5
464
  8
1_PRZEJAZD_A
 62
     1
 10
538.9266503305233
 20
768.6293754028558
 30
0.0
 11
497.3666503305233
 21
768.6288639193557
 31
0.0
  0
LINE
  5
465
  8
1_PRZEJAZD_A
 62
     1
 10
497.3666503305233
 20
698.9620267581557
 30
0.0
 11
538.9266503305233
 21
698.9627087361557
 31
0.0
  0
LINE
  5
466
  8
1_PRZEJAZD_A
 62
     1
 10
538.9266503305233
 20
645.2960420694557
 30
0.0
 11
497.3666503305233
 21
645.2951895969558
 31
0.0
  0
LINE
  5
467
  8
1_PRZEJAZD_A
 62
     1
 10
538.9266503305233
 20
575.6293754028555
 30
0.0
 11
497.3666503305233
 21
575.6283524358556
 31
0.0
  0
LINE
  5
468
  8
1_PRZEJAZD_A
 62
     1
 10
91.78665033052339
 20
784.9627087362556
 30
0.0
 11
91.78665033052339
 21
780.9627087362556
 31
0.0
  0
LINE
  5
469
  8
1_PRZEJAZD_A
 62
     1
 10
91.78665033052339
 20
838.6293754028558
 30
0.0
 11
91.78665033052339
 21
784.9627087362556
 31
0.0
  0
LINE
  5
46A
  8
1_PRZEJAZD_A
 62
     1
 10
91.78665033052339
 20
842.6293754028558
 30
0.0
 11
91.78665033052339
 21
838.6293754028558
 31
0.0
  0
LINE
  5
46B
  8
1_PRZEJAZD_A
 62
     1
 10
91.78665033052339
 20
661.6293754029556
 30
0.0
 11
91.78665033052339
 21
657.6293754029556
 31
0.0
  0
LINE
  5
46C
  8
1_PRZEJAZD_A
 62
     1
 10
91.78665033052339
 20
715.2960420695557
 30
0.0
 11
91.78665033052339
 21
661.6293754029556
 31
0.0
  0
LINE
  5
46D
  8
1_PRZEJAZD_A
 62
     1
 10
91.78665033052339
 20
719.2960420695557
 30
0.0
 11
91.78665033052339
 21
715.2960420695557
 31
0.0
  0
LINE
  5
46E
  8
1_PRZEJAZD_A
 62
     1
 10
180.7266503305235
 20
953.6293754028557
 30
0.0
 11
180.7266503305235
 21
949.6293754028557
 31
0.0
  0
LINE
  5
46F
  8
1_PRZEJAZD_A
 62
     1
 10
180.7266503305235
 20
968.6293754028557
 30
0.0
 11
180.7266503305235
 21
953.6293754028557
 31
0.0
  0
LINE
  5
470
  8
1_PRZEJAZD_A
 62
     1
 10
91.78665033052339
 20
908.2960420695558
 30
0.0
 11
91.78665033052339
 21
904.2960420695558
 31
0.0
  0
LINE
  5
471
  8
1_PRZEJAZD_A
 62
     1
 10
91.78665033052339
 20
961.962708736156
 30
0.0
 11
91.78665033052339
 21
908.2960420695558
 31
0.0
  0
LINE
  5
472
  8
1_PRZEJAZD_A
 62
     1
 10
91.78665033052339
 20
965.962708736156
 30
0.0
 11
91.78665033052339
 21
961.962708736156
 31
0.0
  0
LINE
  5
473
  8
1_PRZEJAZD_A
 62
     1
 10
180.7266503305235
 20
830.2958715750556
 30
0.0
 11
180.7266503305235
 21
826.2958715750556
 31
0.0
  0
LINE
  5
474
  8
1_PRZEJAZD_A
 62
     1
 10
180.7266503305235
 20
883.9625382416557
 30
0.0
 11
180.7266503305235
 21
830.2958715750556
 31
0.0
  0
LINE
  5
475
  8
1_PRZEJAZD_A
 62
     1
 10
180.7266503305235
 20
887.9625382416557
 30
0.0
 11
180.7266503305235
 21
883.9625382416557
 31
0.0
  0
LINE
  5
476
  8
1_PRZEJAZD_A
 62
     1
 10
180.7266503305235
 20
706.9621972527556
 30
0.0
 11
180.7266503305235
 21
702.9621972527556
 31
0.0
  0
LINE
  5
477
  8
1_PRZEJAZD_A
 62
     1
 10
180.7266503305235
 20
760.6288639193557
 30
0.0
 11
180.7266503305235
 21
706.9621972527556
 31
0.0
  0
LINE
  5
478
  8
1_PRZEJAZD_A
 62
     1
 10
180.7266503305235
 20
764.6288639193557
 30
0.0
 11
180.7266503305235
 21
760.6288639193557
 31
0.0
  0
LINE
  5
479
  8
1_PRZEJAZD_A
 62
     1
 10
180.7266503305235
 20
583.6285229303555
 30
0.0
 11
180.7266503305235
 21
579.6285229303555
 31
0.0
  0
LINE
  5
47A
  8
1_PRZEJAZD_A
 62
     1
 10
180.7266503305235
 20
637.2951895969557
 30
0.0
 11
180.7266503305235
 21
583.6285229303555
 31
0.0
  0
LINE
  5
47B
  8
1_PRZEJAZD_A
 62
     1
 10
180.7266503305235
 20
641.2951895969557
 30
0.0
 11
180.7266503305235
 21
637.2951895969557
 31
0.0
  0
LINE
  5
47C
  8
1_PRZEJAZD_A
 62
     1
 10
236.6134874917234
 20
539.8483524358556
 30
0.0
 11
236.6134874917234
 21
560.6283524358555
 31
0.0
  0
LINE
  5
47D
  8
1_PRZEJAZD_A
 62
     1
 10
306.2803246529234
 20
539.8483524358556
 30
0.0
 11
306.2803246529234
 21
560.6283524358556
 31
0.0
  0
LINE
  5
47E
  8
1_PRZEJAZD_A
 62
     1
 10
359.9471618140234
 20
539.8483524358556
 30
0.0
 11
359.9471618140234
 21
560.6283524358556
 31
0.0
  0
LINE
  5
47F
  8
1_PRZEJAZD_A
 62
     1
 10
429.6139989752234
 20
539.8483524358556
 30
0.0
 11
429.6139989752234
 21
560.6283524358556
 31
0.0
  0
LINE
  5
480
  8
1_PRZEJAZD_A
 62
     1
 10
104.9466503305233
 20
419.2083524358557
 30
0.0
 11
100.9466503305233
 21
419.2083524358557
 31
0.0
  0
LINE
  5
481
  8
1_PRZEJAZD_A
 62
     1
 10
158.6133169971234
 20
419.2083524358557
 30
0.0
 11
104.9466503305233
 21
419.2083524358557
 31
0.0
  0
LINE
  5
482
  8
1_PRZEJAZD_A
 62
     1
 10
162.6133169971234
 20
419.2083524358557
 30
0.0
 11
158.6133169971234
 21
419.2083524358557
 31
0.0
  0
LINE
  5
483
  8
1_PRZEJAZD_A
 62
     1
 10
228.2803246528234
 20
419.2083524358557
 30
0.0
 11
224.2803246528234
 21
419.2083524358557
 31
0.0
  0
LINE
  5
484
  8
1_PRZEJAZD_A
 62
     1
 10
281.9469913194235
 20
419.2083524358557
 30
0.0
 11
228.2803246528234
 21
419.2083524358557
 31
0.0
  0
LINE
  5
485
  8
1_PRZEJAZD_A
 62
     1
 10
285.9469913194235
 20
419.2083524358557
 30
0.0
 11
281.9469913194235
 21
419.2083524358557
 31
0.0
  0
LINE
  5
486
  8
1_PRZEJAZD_A
 62
     1
 10
351.6138284806235
 20
419.2083524358557
 30
0.0
 11
347.6138284806235
 21
419.2083524358557
 31
0.0
  0
LINE
  5
487
  8
1_PRZEJAZD_A
 62
     1
 10
405.2804951472236
 20
419.2083524358557
 30
0.0
 11
351.6138284806235
 21
419.2083524358557
 31
0.0
  0
LINE
  5
488
  8
1_PRZEJAZD_A
 62
     1
 10
409.2804951472236
 20
419.2083524358557
 30
0.0
 11
405.2804951472236
 21
419.2083524358557
 31
0.0
  0
LINE
  5
489
  8
1_PRZEJAZD_A
 62
     1
 10
474.9476732975234
 20
419.2083524358557
 30
0.0
 11
470.9476732975234
 21
419.2083524358557
 31
0.0
  0
LINE
  5
48A
  8
1_PRZEJAZD_A
 62
     1
 10
489.9476732975234
 20
419.2083524358557
 30
0.0
 11
474.9476732975234
 21
419.2083524358557
 31
0.0
  0
LINE
  5
48B
  8
1_PRZEJAZD_A
 62
     1
 10
429.6139989752234
 20
539.8483524358556
 30
0.0
 11
425.6139989752234
 21
539.8483524358556
 31
0.0
  0
LINE
  5
48C
  8
1_PRZEJAZD_A
 62
     1
 10
483.2806656418235
 20
539.8483524358556
 30
0.0
 11
429.6139989752234
 21
539.8483524358556
 31
0.0
  0
LINE
  5
48D
  8
1_PRZEJAZD_A
 62
     1
 10
487.2806656418235
 20
539.8483524358556
 30
0.0
 11
483.2806656418235
 21
539.8483524358556
 31
0.0
  0
LINE
  5
48E
  8
1_PRZEJAZD_A
 62
     1
 10
306.2803246529234
 20
539.8483524358556
 30
0.0
 11
302.2803246529234
 21
539.8483524358556
 31
0.0
  0
LINE
  5
48F
  8
1_PRZEJAZD_A
 62
     1
 10
359.9469913195235
 20
539.8483524358556
 30
0.0
 11
306.2803246529234
 21
539.8483524358556
 31
0.0
  0
LINE
  5
490
  8
1_PRZEJAZD_A
 62
     1
 10
363.9469913195235
 20
539.8483524358556
 30
0.0
 11
359.9469913195235
 21
539.8483524358556
 31
0.0
  0
LINE
  5
491
  8
1_PRZEJAZD_A
 62
     1
 10
182.9468208251233
 20
539.8483524358556
 30
0.0
 11
178.9468208251233
 21
539.8483524358556
 31
0.0
  0
LINE
  5
492
  8
1_PRZEJAZD_A
 62
     1
 10
236.6134874917234
 20
539.8483524358556
 30
0.0
 11
182.9468208251233
 21
539.8483524358556
 31
0.0
  0
LINE
  5
493
  8
1_PRZEJAZD_A
 62
     1
 10
240.6134874917234
 20
539.8483524358556
 30
0.0
 11
236.6134874917234
 21
539.8483524358556
 31
0.0
  0
LINE
  5
494
  8
1_PRZEJAZD_A
 62
     1
 10
244.6134874917234
 20
223.2083524358555
 30
0.0
 11
240.6134874917234
 21
223.2083524358555
 31
0.0
  0
LINE
  5
495
  8
1_PRZEJAZD_A
 62
     1
 10
298.2801541583236
 20
223.2083524358555
 30
0.0
 11
244.6134874917234
 21
223.2083524358555
 31
0.0
  0
LINE
  5
496
  8
1_PRZEJAZD_A
 62
     1
 10
302.2801541583236
 20
223.2083524358555
 30
0.0
 11
298.2801541583236
 21
223.2083524358555
 31
0.0
  0
LINE
  5
497
  8
1_PRZEJAZD_A
 62
     1
 10
367.9469913195235
 20
223.2083524358555
 30
0.0
 11
363.9469913195235
 21
223.2083524358555
 31
0.0
  0
LINE
  5
498
  8
1_PRZEJAZD_A
 62
     1
 10
421.6136579861237
 20
223.2083524358555
 30
0.0
 11
367.9469913195235
 21
223.2083524358555
 31
0.0
  0
LINE
  5
499
  8
1_PRZEJAZD_A
 62
     1
 10
425.6136579861237
 20
223.2083524358555
 30
0.0
 11
421.6136579861237
 21
223.2083524358555
 31
0.0
  0
LINE
  5
49A
  8
1_PRZEJAZD_A
 62
     1
 10
491.2806656418235
 20
223.2083524358555
 30
0.0
 11
487.2806656418235
 21
223.2083524358555
 31
0.0
  0
LINE
  5
49B
  8
1_PRZEJAZD_A
 62
     1
 10
544.9473323084237
 20
223.2083524358555
 30
0.0
 11
491.2806656418235
 21
223.2083524358555
 31
0.0
  0
LINE
  5
49C
  8
1_PRZEJAZD_A
 62
     1
 10
548.9473323084237
 20
223.2083524358555
 30
0.0
 11
544.9473323084237
 21
223.2083524358555
 31
0.0
  0
LINE
  5
49D
  8
1_PRZEJAZD_A
 62
     1
 10
166.6134874917234
 20
102.5683524358556
 30
0.0
 11
162.6134874917234
 21
102.5683524358556
 31
0.0
  0
LINE
  5
49E
  8
1_PRZEJAZD_A
 62
     1
 10
220.2801541583236
 20
102.5683524358556
 30
0.0
 11
166.6134874917234
 21
102.5683524358556
 31
0.0
  0
LINE
  5
49F
  8
1_PRZEJAZD_A
 62
     1
 10
224.2801541583236
 20
102.5683524358556
 30
0.0
 11
220.2801541583236
 21
102.5683524358556
 31
0.0
  0
LINE
  5
4A0
  8
1_PRZEJAZD_A
 62
     1
 10
289.9469913195235
 20
102.5683524358556
 30
0.0
 11
285.9469913195235
 21
102.5683524358556
 31
0.0
  0
LINE
  5
4A1
  8
1_PRZEJAZD_A
 62
     1
 10
343.6136579861237
 20
102.5683524358556
 30
0.0
 11
289.9469913195235
 21
102.5683524358556
 31
0.0
  0
LINE
  5
4A2
  8
1_PRZEJAZD_A
 62
     1
 10
347.6136579861237
 20
102.5683524358556
 30
0.0
 11
343.6136579861237
 21
102.5683524358556
 31
0.0
  0
LINE
  5
4A3
  8
1_PRZEJAZD_A
 62
     1
 10
413.2806656418235
 20
102.5683524358556
 30
0.0
 11
409.2806656418235
 21
102.5683524358556
 31
0.0
  0
LINE
  5
4A4
  8
1_PRZEJAZD_A
 62
     1
 10
466.9473323084237
 20
102.5683524358556
 30
0.0
 11
413.2806656418235
 21
102.5683524358556
 31
0.0
  0
LINE
  5
4A5
  8
1_PRZEJAZD_A
 62
     1
 10
470.9473323084237
 20
102.5683524358556
 30
0.0
 11
466.9473323084237
 21
102.5683524358556
 31
0.0
  0
LINE
  5
4A6
  8
1_PRZEJAZD_A
 62
     1
 10
174.9466503305234
 20
223.2083524358555
 30
0.0
 11
178.9466503305234
 21
223.2083524358555
 31
0.0
  0
LINE
  5
4A7
  8
1_PRZEJAZD_A
 62
     1
 10
159.9466503305233
 20
223.2083524358555
 30
0.0
 11
174.9466503305234
 21
223.2083524358555
 31
0.0
  0
LINE
  5
4A8
  8
1_PRZEJAZD_A
 62
     1
 10
345.2266503305235
 20
846.6293754029554
 30
0.0
 11
345.2266503305235
 21
842.6293754029554
 31
0.0
  0
LINE
  5
4A9
  8
1_PRZEJAZD_A
 62
     1
 10
345.2266503305235
 20
900.2960420695555
 30
0.0
 11
345.2266503305235
 21
846.6293754029554
 31
0.0
  0
LINE
  5
4AA
  8
1_PRZEJAZD_A
 62
     1
 10
345.2266503305235
 20
904.2960420695555
 30
0.0
 11
345.2266503305235
 21
900.2960420695555
 31
0.0
  0
LINE
  5
4AB
  8
1_PRZEJAZD_A
 62
     1
 10
345.2266503305235
 20
723.2960420696553
 30
0.0
 11
345.2266503305235
 21
719.2960420696553
 31
0.0
  0
LINE
  5
4AC
  8
1_PRZEJAZD_A
 62
     1
 10
345.2266503305235
 20
776.9627087362554
 30
0.0
 11
345.2266503305235
 21
723.2960420696553
 31
0.0
  0
LINE
  5
4AD
  8
1_PRZEJAZD_A
 62
     1
 10
345.2266503305235
 20
780.9627087362554
 30
0.0
 11
345.2266503305235
 21
776.9627087362554
 31
0.0
  0
LINE
  5
4AE
  8
1_PRZEJAZD_A
 62
     1
 10
345.2266503305235
 20
969.9627087362555
 30
0.0
 11
345.2266503305235
 21
965.9627087362555
 31
0.0
  0
LINE
  5
4AF
  8
1_PRZEJAZD_A
 62
     1
 10
345.2266503305235
 20
1023.629375402856
 30
0.0
 11
345.2266503305235
 21
969.9627087362555
 31
0.0
  0
LINE
  5
4B0
  8
1_PRZEJAZD_A
 62
     1
 10
345.2266503305235
 20
1027.629375402856
 30
0.0
 11
345.2266503305235
 21
1023.629375402856
 31
0.0
  0
LINE
  5
4B1
  8
1_PRZEJAZD_A
 62
     1
 10
345.2266503305235
 20
653.6293754028555
 30
0.0
 11
345.2266503305235
 21
657.6293754028555
 31
0.0
  0
LINE
  5
4B2
  8
1_PRZEJAZD_A
 62
     1
 10
345.2266503305235
 20
638.6283524358556
 30
0.0
 11
345.2266503305235
 21
653.6293754028555
 31
0.0
  0
LINE
  5
4B3
  8
1_PRZEJAZD_A
 62
     1
 10
497.3666503305233
 20
768.6285229302558
 30
0.0
 11
497.3666503305233
 21
764.6285229302558
 31
0.0
  0
LINE
  5
4B4
  8
1_PRZEJAZD_A
 62
     1
 10
497.3666503305233
 20
822.295189596856
 30
0.0
 11
497.3666503305233
 21
768.6285229302558
 31
0.0
  0
LINE
  5
4B5
  8
1_PRZEJAZD_A
 62
     1
 10
497.3666503305233
 20
826.295189596856
 30
0.0
 11
497.3666503305233
 21
822.295189596856
 31
0.0
  0
LINE
  5
4B6
  8
1_PRZEJAZD_A
 62
     1
 10
497.3666503305233
 20
645.2951895969558
 30
0.0
 11
497.3666503305233
 21
641.2951895969558
 31
0.0
  0
LINE
  5
4B7
  8
1_PRZEJAZD_A
 62
     1
 10
497.3666503305233
 20
698.9618562635559
 30
0.0
 11
497.3666503305233
 21
645.2951895969558
 31
0.0
  0
LINE
  5
4B8
  8
1_PRZEJAZD_A
 62
     1
 10
497.3666503305233
 20
702.9618562635559
 30
0.0
 11
497.3666503305233
 21
698.9618562635559
 31
0.0
  0
LINE
  5
4B9
  8
1_PRZEJAZD_A
 62
     1
 10
497.3666503305233
 20
891.961856263556
 30
0.0
 11
497.3666503305233
 21
887.961856263556
 31
0.0
  0
LINE
  5
4BA
  8
1_PRZEJAZD_A
 62
     1
 10
497.3666503305233
 20
945.6285229301561
 30
0.0
 11
497.3666503305233
 21
891.961856263556
 31
0.0
  0
LINE
  5
4BB
  8
1_PRZEJAZD_A
 62
     1
 10
497.3666503305233
 20
949.6285229301561
 30
0.0
 11
497.3666503305233
 21
945.6285229301561
 31
0.0
  0
LINE
  5
4BC
  8
1_PRZEJAZD_A
 62
     1
 10
538.9266503305233
 20
768.6293754027557
 30
0.0
 11
538.9266503305233
 21
764.6293754027557
 31
0.0
  0
LINE
  5
4BD
  8
1_PRZEJAZD_A
 62
     1
 10
538.9266503305233
 20
822.2960420693558
 30
0.0
 11
538.9266503305233
 21
768.6293754027557
 31
0.0
  0
LINE
  5
4BE
  8
1_PRZEJAZD_A
 62
     1
 10
538.9266503305233
 20
826.2960420693558
 30
0.0
 11
538.9266503305233
 21
822.2960420693558
 31
0.0
  0
LINE
  5
4BF
  8
1_PRZEJAZD_A
 62
     1
 10
538.9266503305233
 20
645.2960420694557
 30
0.0
 11
538.9266503305233
 21
641.2960420694557
 31
0.0
  0
LINE
  5
4C0
  8
1_PRZEJAZD_A
 62
     1
 10
538.9266503305233
 20
698.9627087360558
 30
0.0
 11
538.9266503305233
 21
645.2960420694557
 31
0.0
  0
LINE
  5
4C1
  8
1_PRZEJAZD_A
 62
     1
 10
538.9266503305233
 20
702.9627087360558
 30
0.0
 11
538.9266503305233
 21
698.9627087360558
 31
0.0
  0
LINE
  5
4C2
  8
1_PRZEJAZD_A
 62
     1
 10
538.9266503305233
 20
891.9627087360559
 30
0.0
 11
538.9266503305233
 21
887.9627087360559
 31
0.0
  0
LINE
  5
4C3
  8
1_PRZEJAZD_A
 62
     1
 10
538.9266503305233
 20
945.629375402656
 30
0.0
 11
538.9266503305233
 21
891.9627087360559
 31
0.0
  0
LINE
  5
4C4
  8
1_PRZEJAZD_A
 62
     1
 10
538.9266503305233
 20
949.629375402656
 30
0.0
 11
538.9266503305233
 21
945.629375402656
 31
0.0
  0
LINE
  5
4C5
  8
1_PRZEJAZD_A
 62
     1
 10
644.639279846023
 20
434.8239811623212
 30
0.0
 11
641.1751782308854
 21
436.8239811623215
 31
0.0
  0
LINE
  5
4C6
  8
1_PRZEJAZD_A
 62
     1
 10
660.6533267411215
 20
425.5782668766186
 30
0.0
 11
644.639279846023
 21
434.8239811623212
 31
0.0
  0
LINE
  5
4C7
  8
1_PRZEJAZD_A
 62
     1
 10
664.1174283562591
 20
423.5782668766183
 30
0.0
 11
660.6533267411215
 21
425.5782668766186
 31
0.0
  0
LINE
  5
4C8
  8
1_PRZEJAZD_A
 62
     1
 10
639.6392798459741
 20
426.1637271244493
 30
0.0
 11
636.1751782308365
 21
428.1637271244497
 31
0.0
  0
LINE
  5
4C9
  8
1_PRZEJAZD_A
 62
     1
 10
655.6533267410726
 20
416.9180128387468
 30
0.0
 11
639.6392798459741
 21
426.1637271244493
 31
0.0
  0
LINE
  5
4CA
  8
1_PRZEJAZD_A
 62
     1
 10
659.1174283562102
 20
414.9180128387464
 30
0.0
 11
655.6533267410726
 21
416.9180128387468
 31
0.0
  0
LINE
  5
4CB
  8
1_PRZEJAZD_A
 62
     1
 10
690.5213057385212
 20
408.333981162319
 30
0.0
 11
687.0572041233836
 21
410.3339811623193
 31
0.0
  0
LINE
  5
4CC
  8
1_PRZEJAZD_A
 62
     1
 10
706.5353526336197
 20
399.0882668766164
 30
0.0
 11
690.5213057385212
 21
408.333981162319
 31
0.0
  0
LINE
  5
4CD
  8
1_PRZEJAZD_A
 62
     1
 10
709.9994542487573
 20
397.0882668766161
 30
0.0
 11
706.5353526336197
 21
399.0882668766164
 31
0.0
  0
LINE
  5
4CE
  8
1_PRZEJAZD_A
 62
     1
 10
736.4033316310193
 20
381.8439811623168
 30
0.0
 11
732.9392300158818
 21
383.8439811623172
 31
0.0
  0
LINE
  5
4CF
  8
1_PRZEJAZD_A
 62
     1
 10
752.4173785261179
 20
372.5982668766143
 30
0.0
 11
736.4033316310193
 21
381.8439811623168
 31
0.0
  0
LINE
  5
4D0
  8
1_PRZEJAZD_A
 62
     1
 10
755.8814801412555
 20
370.5982668766139
 30
0.0
 11
752.4173785261179
 21
372.5982668766143
 31
0.0
  0
LINE
  5
4D1
  8
1_PRZEJAZD_A
 62
     1
 10
782.2853575235184
 20
355.3539811623137
 30
0.0
 11
778.8212559083809
 21
357.3539811623141
 31
0.0
  0
LINE
  5
4D2
  8
1_PRZEJAZD_A
 62
     1
 10
798.299404418617
 20
346.1082668766112
 30
0.0
 11
782.2853575235184
 21
355.3539811623137
 31
0.0
  0
LINE
  5
4D3
  8
1_PRZEJAZD_A
 62
     1
 10
801.7635060337545
 20
344.1082668766109
 30
0.0
 11
798.299404418617
 21
346.1082668766112
 31
0.0
  0
LINE
  5
4D4
  8
1_PRZEJAZD_A
 62
     1
 10
685.5213057384725
 20
399.6737271244473
 30
0.0
 11
682.0572041233349
 21
401.6737271244476
 31
0.0
  0
LINE
  5
4D5
  8
1_PRZEJAZD_A
 62
     1
 10
701.535352633571
 20
390.4280128387447
 30
0.0
 11
685.5213057384725
 21
399.6737271244473
 31
0.0
  0
LINE
  5
4D6
  8
1_PRZEJAZD_A
 62
     1
 10
704.9994542487086
 20
388.4280128387444
 30
0.0
 11
701.535352633571
 21
390.4280128387447
 31
0.0
  0
LINE
  5
4D7
  8
1_PRZEJAZD_A
 62
     1
 10
731.4033316309709
 20
373.1837271244447
 30
0.0
 11
727.9392300158333
 21
375.183727124445
 31
0.0
  0
LINE
  5
4D8
  8
1_PRZEJAZD_A
 62
     1
 10
747.4173785260695
 20
363.9380128387421
 30
0.0
 11
731.4033316309709
 21
373.1837271244447
 31
0.0
  0
LINE
  5
4D9
  8
1_PRZEJAZD_A
 62
     1
 10
750.881480141207
 20
361.9380128387418
 30
0.0
 11
747.4173785260695
 21
363.9380128387421
 31
0.0
  0
LINE
  5
4DA
  8
1_PRZEJAZD_A
 62
     1
 10
777.2853575234698
 20
346.6937271244418
 30
0.0
 11
773.8212559083322
 21
348.6937271244421
 31
0.0
  0
LINE
  5
4DB
  8
1_PRZEJAZD_A
 62
     1
 10
793.2994044185683
 20
337.4480128387393
 30
0.0
 11
777.2853575234698
 21
346.6937271244418
 31
0.0
  0
LINE
  5
4DC
  8
1_PRZEJAZD_A
 62
     1
 10
796.7635060337059
 20
335.4480128387389
 30
0.0
 11
793.2994044185683
 21
337.4480128387393
 31
0.0
  0
LINE
  5
4DD
  8
1_PRZEJAZD_A
 62
     1
 10
604.1933609962235
 20
405.6938061135808
 30
0.0
 11
604.1933609962235
 21
409.6938061135808
 31
0.0
  0
LINE
  5
4DE
  8
1_PRZEJAZD_A
 62
     1
 10
604.1933609962238
 20
387.2023775421787
 30
0.0
 11
604.1933609962235
 21
405.6938061135808
 31
0.0
  0
LINE
  5
4DF
  8
1_PRZEJAZD_A
 62
     1
 10
604.1933609962238
 20
383.2023775421787
 30
0.0
 11
604.1933609962238
 21
387.2023775421787
 31
0.0
  0
LINE
  5
4E0
  8
1_PRZEJAZD_A
 62
     1
 10
594.1933609961758
 20
405.6938061135534
 30
0.0
 11
594.1933609961758
 21
409.6938061135534
 31
0.0
  0
LINE
  5
4E1
  8
1_PRZEJAZD_A
 62
     1
 10
594.193360996176
 20
387.2023775421513
 30
0.0
 11
594.1933609961758
 21
405.6938061135534
 31
0.0
  0
LINE
  5
4E2
  8
1_PRZEJAZD_A
 62
     1
 10
594.193360996176
 20
383.2023775421513
 30
0.0
 11
594.193360996176
 21
387.2023775421513
 31
0.0
  0
LINE
  5
4E3
  8
1_PRZEJAZD_A
 62
     1
 10
594.1933609961706
 20
299.7338061135528
 30
0.0
 11
594.1933609961706
 21
303.7338061135528
 31
0.0
  0
LINE
  5
4E4
  8
1_PRZEJAZD_A
 62
     1
 10
594.1933609961708
 20
281.2423775421507
 30
0.0
 11
594.1933609961706
 21
299.7338061135528
 31
0.0
  0
LINE
  5
4E5
  8
1_PRZEJAZD_A
 62
     1
 10
594.1933609961708
 20
277.2423775421507
 30
0.0
 11
594.1933609961708
 21
281.2423775421507
 31
0.0
  0
LINE
  5
4E6
  8
1_PRZEJAZD_A
 62
     1
 10
604.193360996221
 20
352.7138061135805
 30
0.0
 11
604.193360996221
 21
356.7138061135805
 31
0.0
  0
LINE
  5
4E7
  8
1_PRZEJAZD_A
 62
     1
 10
604.1933609962213
 20
334.2223775421785
 30
0.0
 11
604.193360996221
 21
352.7138061135805
 31
0.0
  0
LINE
  5
4E8
  8
1_PRZEJAZD_A
 62
     1
 10
604.1933609962213
 20
330.2223775421785
 30
0.0
 11
604.1933609962213
 21
334.2223775421785
 31
0.0
  0
LINE
  5
4E9
  8
1_PRZEJAZD_A
 62
     1
 10
594.193360996173
 20
352.713806113553
 30
0.0
 11
594.193360996173
 21
356.713806113553
 31
0.0
  0
LINE
  5
4EA
  8
1_PRZEJAZD_A
 62
     1
 10
594.1933609961733
 20
334.222377542151
 30
0.0
 11
594.193360996173
 21
352.713806113553
 31
0.0
  0
LINE
  5
4EB
  8
1_PRZEJAZD_A
 62
     1
 10
594.1933609961733
 20
330.222377542151
 30
0.0
 11
594.1933609961733
 21
334.222377542151
 31
0.0
  0
LINE
  5
4EC
  8
1_PRZEJAZD_A
 62
     1
 10
604.1933609962197
 20
299.7338061135798
 30
0.0
 11
604.1933609962197
 21
303.7338061135798
 31
0.0
  0
LINE
  5
4ED
  8
1_PRZEJAZD_A
 62
     1
 10
604.1933609962199
 20
281.2423775421778
 30
0.0
 11
604.1933609962197
 21
299.7338061135798
 31
0.0
  0
LINE
  5
4EE
  8
1_PRZEJAZD_A
 62
     1
 10
604.1933609962199
 20
277.2423775421778
 30
0.0
 11
604.1933609962199
 21
281.2423775421778
 31
0.0
  0
LINE
  5
4EF
  8
1_PRZEJAZD_A
 62
     1
 10
604.1933609962172
 20
246.7538061135793
 30
0.0
 11
604.1933609962172
 21
250.7538061135793
 31
0.0
  0
LINE
  5
4F0
  8
1_PRZEJAZD_A
 62
     1
 10
604.1933609962174
 20
228.2623775421773
 30
0.0
 11
604.1933609962172
 21
246.7538061135793
 31
0.0
  0
LINE
  5
4F1
  8
1_PRZEJAZD_A
 62
     1
 10
604.1933609962174
 20
224.2623775421773
 30
0.0
 11
604.1933609962174
 21
228.2623775421773
 31
0.0
  0
LINE
  5
4F2
  8
1_PRZEJAZD_A
 62
     1
 10
594.1933609961692
 20
246.7538061135521
 30
0.0
 11
594.1933609961692
 21
250.7538061135521
 31
0.0
  0
LINE
  5
4F3
  8
1_PRZEJAZD_A
 62
     1
 10
594.1933609961694
 20
228.26237754215
 30
0.0
 11
594.1933609961692
 21
246.7538061135521
 31
0.0
  0
LINE
  5
4F4
  8
1_PRZEJAZD_A
 62
     1
 10
594.1933609961694
 20
224.26237754215
 30
0.0
 11
594.1933609961694
 21
228.26237754215
 31
0.0
  0
LINE
  5
4F5
  8
1_PRZEJAZD_A
 62
     1
 10
685.518832332151
 20
234.2869596712509
 30
0.0
 11
682.0547307170131
 21
232.2869596712511
 31
0.0
  0
LINE
  5
4F6
  8
1_PRZEJAZD_A
 62
     1
 10
701.532879227249
 20
243.53267395695
 30
0.0
 11
685.518832332151
 21
234.2869596712509
 31
0.0
  0
LINE
  5
4F7
  8
1_PRZEJAZD_A
 62
     1
 10
704.996980842387
 20
245.5326739569498
 30
0.0
 11
701.532879227249
 21
243.53267395695
 31
0.0
  0
LINE
  5
4F8
  8
1_PRZEJAZD_A
 62
     1
 10
731.4008582246516
 20
260.7769596712487
 30
0.0
 11
727.9367566095137
 21
258.776959671249
 31
0.0
  0
LINE
  5
4F9
  8
1_PRZEJAZD_A
 62
     1
 10
747.4149051197497
 20
270.0226739569479
 30
0.0
 11
731.4008582246516
 21
260.7769596712487
 31
0.0
  0
LINE
  5
4FA
  8
1_PRZEJAZD_A
 62
     1
 10
750.8790067348876
 20
272.0226739569477
 30
0.0
 11
747.4149051197497
 21
270.0226739569479
 31
0.0
  0
LINE
  5
4FB
  8
1_PRZEJAZD_A
 62
     1
 10
777.2828841171523
 20
287.2669596712467
 30
0.0
 11
773.8187825020144
 21
285.2669596712469
 31
0.0
  0
LINE
  5
4FC
  8
1_PRZEJAZD_A
 62
     1
 10
793.2969310122504
 20
296.5126739569458
 30
0.0
 11
777.2828841171523
 21
287.2669596712467
 31
0.0
  0
LINE
  5
4FD
  8
1_PRZEJAZD_A
 62
     1
 10
796.7610326273883
 20
298.5126739569457
 30
0.0
 11
793.2969310122504
 21
296.5126739569458
 31
0.0
  0
LINE
  5
4FE
  8
1_PRZEJAZD_A
 62
     1
 10
639.6368064396505
 20
207.796959671253
 30
0.0
 11
636.1727048245126
 21
205.7969596712532
 31
0.0
  0
LINE
  5
4FF
  8
1_PRZEJAZD_A
 62
     1
 10
655.6508533347486
 20
217.0426739569522
 30
0.0
 11
639.6368064396505
 21
207.796959671253
 31
0.0
  0
LINE
  5
500
  8
1_PRZEJAZD_A
 62
     1
 10
659.1149549498865
 20
219.042673956952
 30
0.0
 11
655.6508533347486
 21
217.0426739569522
 31
0.0
  0
CIRCLE
  5
501
  8
1_PRZEJAZD_A
 62
     1
 10
863.0341330757875
 20
580.4377681555967
 30
0.0
 40
3.99999999999999
  0
CIRCLE
  5
502
  8
1_PRZEJAZD_A
 62
     1
 10
862.787139249591
 20
476.9465004035162
 30
0.0
 40
3.99999999999999
  0
LINE
  5
503
  8
1_PRZEJAZD_A
 62
     1
 10
690.5188323321498
 20
225.6267056334063
 30
0.0
 11
687.0547307170119
 21
223.6267056334065
 31
0.0
  0
LINE
  5
504
  8
1_PRZEJAZD_A
 62
     1
 10
706.5328792272479
 20
234.8724199191055
 30
0.0
 11
690.5188323321498
 21
225.6267056334063
 31
0.0
  0
LINE
  5
505
  8
1_PRZEJAZD_A
 62
     1
 10
709.9969808423858
 20
236.8724199191053
 30
0.0
 11
706.5328792272479
 21
234.8724199191055
 31
0.0
  0
LINE
  5
506
  8
1_PRZEJAZD_A
 62
     1
 10
736.4008582246505
 20
252.1167056334042
 30
0.0
 11
732.9367566095126
 21
250.1167056334044
 31
0.0
  0
LINE
  5
507
  8
1_PRZEJAZD_A
 62
     1
 10
752.4149051197486
 20
261.3624199191033
 30
0.0
 11
736.4008582246505
 21
252.1167056334042
 31
0.0
  0
LINE
  5
508
  8
1_PRZEJAZD_A
 62
     1
 10
755.8790067348865
 20
263.3624199191032
 30
0.0
 11
752.4149051197486
 21
261.3624199191033
 31
0.0
  0
LINE
  5
509
  8
1_PRZEJAZD_A
 62
     1
 10
782.2828841171512
 20
278.6067056334022
 30
0.0
 11
778.8187825020133
 21
276.6067056334024
 31
0.0
  0
LINE
  5
50A
  8
1_PRZEJAZD_A
 62
     1
 10
798.2969310122493
 20
287.8524199191013
 30
0.0
 11
782.2828841171512
 21
278.6067056334022
 31
0.0
  0
LINE
  5
50B
  8
1_PRZEJAZD_A
 62
     1
 10
801.7610326273872
 20
289.8524199191011
 30
0.0
 11
798.2969310122493
 21
287.8524199191013
 31
0.0
  0
LINE
  5
50C
  8
1_PRZEJAZD_A
 62
     1
 10
644.6368064396494
 20
199.1367056334085
 30
0.0
 11
641.1727048245115
 21
197.1367056334087
 31
0.0
  0
LINE
  5
50D
  8
1_PRZEJAZD_A
 62
     1
 10
660.6508533347475
 20
208.3824199191076
 30
0.0
 11
644.6368064396494
 21
199.1367056334085
 31
0.0
  0
LINE
  5
50E
  8
1_PRZEJAZD_A
 62
     1
 10
664.1149549498854
 20
210.3824199191075
 30
0.0
 11
660.6508533347475
 21
208.3824199191076
 31
0.0
  0
ARC
  5
50F
  8
1_PRZEJAZD_A
 62
     1
 10
661.7619868419873
 20
288.826423540322
 30
0.0
 40
8.0
 50
149.9999999999999
 51
239.9999999999987
  0
LINE
  5
510
  8
1_PRZEJAZD_A
 62
     1
 10
682.569497897413
 20
340.8660898673704
 30
0.0
 11
654.8337836117119
 21
292.826423540322
 31
0.0
  0
ARC
  5
511
  8
1_PRZEJAZD_A
 62
     1
 10
689.4977011276886
 20
336.8660898673705
 30
0.0
 40
8.0
 50
59.99999999999915
 51
150.000000000001
  0
LINE
  5
512
  8
1_PRZEJAZD_A
 62
     1
 10
695.0386373380995
 20
342.9046331617613
 30
0.0
 11
693.4977011276887
 21
343.794293097646
 31
0.0
  0
ARC
  5
513
  8
1_PRZEJAZD_A
 62
     1
 10
691.0386373380996
 20
335.9764299314858
 30
0.0
 40
8.0
 50
329.9999999999988
 51
60.00000000000077
  0
LINE
  5
514
  8
1_PRZEJAZD_A
 62
     1
 10
670.2311262826738
 20
283.9367636044373
 30
0.0
 11
697.9668405683751
 21
331.9764299314856
 31
0.0
  0
ARC
  5
515
  8
1_PRZEJAZD_A
 62
     1
 10
663.3029230523982
 20
287.9367636044371
 30
0.0
 40
8.0
 50
239.9999999999989
 51
330.0000000000013
  0
LINE
  5
516
  8
1_PRZEJAZD_A
 62
     1
 10
657.7619868419872
 20
281.8982203100467
 30
0.0
 11
659.3029230523981
 21
281.0085603741617
 31
0.0
  0
LINE
  5
517
  8
1_PRZEJAZD_A
 62
     1
 10
900.4866503305233
 20
688.2960420695059
 30
0.0
 11
900.4866503305233
 21
684.2960420695059
 31
0.0
  0
LINE
  5
518
  8
1_PRZEJAZD_A
 62
     1
 10
900.4866503305233
 20
705.2960420695059
 30
0.0
 11
900.4866503305233
 21
688.2960420695059
 31
0.0
  0
LINE
  5
519
  8
1_PRZEJAZD_A
 62
     1
 10
900.4866503305233
 20
709.2960420695059
 30
0.0
 11
900.4866503305233
 21
705.2960420695059
 31
0.0
  0
LINE
  5
51A
  8
1_PRZEJAZD_A
 62
     1
 10
900.4866503305233
 20
738.2960420695059
 30
0.0
 11
900.4866503305233
 21
734.2960420695059
 31
0.0
  0
LINE
  5
51B
  8
1_PRZEJAZD_A
 62
     1
 10
900.4866503305233
 20
755.2960420695059
 30
0.0
 11
900.4866503305233
 21
738.2960420695059
 31
0.0
  0
LINE
  5
51C
  8
1_PRZEJAZD_A
 62
     1
 10
900.4866503305233
 20
759.2960420695059
 30
0.0
 11
900.4866503305233
 21
755.2960420695059
 31
0.0
  0
LINE
  5
51D
  8
1_PRZEJAZD_A
 62
     1
 10
900.4866503305233
 20
788.2960420695059
 30
0.0
 11
900.4866503305233
 21
784.2960420695059
 31
0.0
  0
LINE
  5
51E
  8
1_PRZEJAZD_A
 62
     1
 10
900.4866503305233
 20
805.2960420695059
 30
0.0
 11
900.4866503305233
 21
788.2960420695059
 31
0.0
  0
LINE
  5
51F
  8
1_PRZEJAZD_A
 62
     1
 10
900.4866503305233
 20
809.2960420695059
 30
0.0
 11
900.4866503305233
 21
805.2960420695059
 31
0.0
  0
LINE
  5
520
  8
1_PRZEJAZD_A
 62
     1
 10
900.4866503305233
 20
838.2960420695059
 30
0.0
 11
900.4866503305233
 21
834.2960420695059
 31
0.0
  0
LINE
  5
521
  8
1_PRZEJAZD_A
 62
     1
 10
900.4866503305233
 20
855.2960420695059
 30
0.0
 11
900.4866503305233
 21
838.2960420695059
 31
0.0
  0
LINE
  5
522
  8
1_PRZEJAZD_A
 62
     1
 10
900.4866503305233
 20
859.2960420695059
 30
0.0
 11
900.4866503305233
 21
855.2960420695059
 31
0.0
  0
LINE
  5
523
  8
1_PRZEJAZD_A
 62
     1
 10
900.4866503305233
 20
888.2960420695058
 30
0.0
 11
900.4866503305233
 21
884.2960420695058
 31
0.0
  0
LINE
  5
524
  8
1_PRZEJAZD_A
 62
     1
 10
900.4866503305233
 20
905.2960420695058
 30
0.0
 11
900.4866503305233
 21
888.2960420695058
 31
0.0
  0
LINE
  5
525
  8
1_PRZEJAZD_A
 62
     1
 10
900.4866503305233
 20
909.2960420695058
 30
0.0
 11
900.4866503305233
 21
905.2960420695058
 31
0.0
  0
LINE
  5
526
  8
1_PRZEJAZD_A
 62
     1
 10
889.4866503305233
 20
688.2960420695059
 30
0.0
 11
889.4866503305233
 21
684.2960420695059
 31
0.0
  0
LINE
  5
527
  8
1_PRZEJAZD_A
 62
     1
 10
889.4866503305233
 20
705.2960420695059
 30
0.0
 11
889.4866503305233
 21
688.2960420695059
 31
0.0
  0
LINE
  5
528
  8
1_PRZEJAZD_A
 62
     1
 10
889.4866503305233
 20
709.2960420695059
 30
0.0
 11
889.4866503305233
 21
705.2960420695059
 31
0.0
  0
LINE
  5
529
  8
1_PRZEJAZD_A
 62
     1
 10
889.4866503305233
 20
738.2960420695059
 30
0.0
 11
889.4866503305233
 21
734.2960420695059
 31
0.0
  0
LINE
  5
52A
  8
1_PRZEJAZD_A
 62
     1
 10
889.4866503305233
 20
755.2960420695059
 30
0.0
 11
889.4866503305233
 21
738.2960420695059
 31
0.0
  0
LINE
  5
52B
  8
1_PRZEJAZD_A
 62
     1
 10
889.4866503305233
 20
759.2960420695059
 30
0.0
 11
889.4866503305233
 21
755.2960420695059
 31
0.0
  0
LINE
  5
52C
  8
1_PRZEJAZD_A
 62
     1
 10
889.4866503305233
 20
788.2960420695059
 30
0.0
 11
889.4866503305233
 21
784.2960420695059
 31
0.0
  0
LINE
  5
52D
  8
1_PRZEJAZD_A
 62
     1
 10
889.4866503305233
 20
805.2960420695059
 30
0.0
 11
889.4866503305233
 21
788.2960420695059
 31
0.0
  0
LINE
  5
52E
  8
1_PRZEJAZD_A
 62
     1
 10
889.4866503305233
 20
809.2960420695059
 30
0.0
 11
889.4866503305233
 21
805.2960420695059
 31
0.0
  0
LINE
  5
52F
  8
1_PRZEJAZD_A
 62
     1
 10
889.4866503305233
 20
838.2960420695059
 30
0.0
 11
889.4866503305233
 21
834.2960420695059
 31
0.0
  0
LINE
  5
530
  8
1_PRZEJAZD_A
 62
     1
 10
889.4866503305233
 20
855.2960420695059
 30
0.0
 11
889.4866503305233
 21
838.2960420695059
 31
0.0
  0
LINE
  5
531
  8
1_PRZEJAZD_A
 62
     1
 10
889.4866503305233
 20
859.2960420695059
 30
0.0
 11
889.4866503305233
 21
855.2960420695059
 31
0.0
  0
LINE
  5
532
  8
1_PRZEJAZD_A
 62
     1
 10
889.4866503305233
 20
888.2960420695058
 30
0.0
 11
889.4866503305233
 21
884.2960420695058
 31
0.0
  0
LINE
  5
533
  8
1_PRZEJAZD_A
 62
     1
 10
889.4866503305233
 20
905.2960420695058
 30
0.0
 11
889.4866503305233
 21
888.2960420695058
 31
0.0
  0
LINE
  5
534
  8
1_PRZEJAZD_A
 62
     1
 10
889.4866503305233
 20
909.2960420695058
 30
0.0
 11
889.4866503305233
 21
905.2960420695058
 31
0.0
  0
LINE
  5
535
  8
1_PRZEJAZD_A
 62
     1
 10
900.4866503305233
 20
938.2960420695058
 30
0.0
 11
900.4866503305233
 21
934.2960420695058
 31
0.0
  0
LINE
  5
536
  8
1_PRZEJAZD_A
 62
     1
 10
900.4866503305233
 20
955.2960420695058
 30
0.0
 11
900.4866503305233
 21
938.2960420695058
 31
0.0
  0
LINE
  5
537
  8
1_PRZEJAZD_A
 62
     1
 10
900.4866503305233
 20
959.2960420695058
 30
0.0
 11
900.4866503305233
 21
955.2960420695058
 31
0.0
  0
LINE
  5
538
  8
1_PRZEJAZD_A
 62
     1
 10
889.4866503305233
 20
938.2960420695058
 30
0.0
 11
889.4866503305233
 21
934.2960420695058
 31
0.0
  0
LINE
  5
539
  8
1_PRZEJAZD_A
 62
     1
 10
889.4866503305233
 20
955.2960420695058
 30
0.0
 11
889.4866503305233
 21
938.2960420695058
 31
0.0
  0
LINE
  5
53A
  8
1_PRZEJAZD_A
 62
     1
 10
889.4866503305233
 20
959.2960420695058
 30
0.0
 11
889.4866503305233
 21
955.2960420695058
 31
0.0
  0
LINE
  5
53B
  8
1_PRZEJAZD_A
 62
     1
 10
900.4866503305233
 20
988.2960420695058
 30
0.0
 11
900.4866503305233
 21
984.2960420695058
 31
0.0
  0
LINE
  5
53C
  8
1_PRZEJAZD_A
 62
     1
 10
900.4866503305233
 20
1005.296042069506
 30
0.0
 11
900.4866503305233
 21
988.2960420695058
 31
0.0
  0
LINE
  5
53D
  8
1_PRZEJAZD_A
 62
     1
 10
900.4866503305233
 20
1009.296042069506
 30
0.0
 11
900.4866503305233
 21
1005.296042069506
 31
0.0
  0
LINE
  5
53E
  8
1_PRZEJAZD_A
 62
     1
 10
889.4866503305233
 20
988.2960420695058
 30
0.0
 11
889.4866503305233
 21
984.2960420695058
 31
0.0
  0
LINE
  5
53F
  8
1_PRZEJAZD_A
 62
     1
 10
889.4866503305233
 20
1005.296042069506
 30
0.0
 11
889.4866503305233
 21
988.2960420695058
 31
0.0
  0
LINE
  5
540
  8
1_PRZEJAZD_A
 62
     1
 10
889.4866503305233
 20
1009.296042069506
 30
0.0
 11
889.4866503305233
 21
1005.296042069506
 31
0.0
  0
LINE
  5
541
  8
1_PRZEJAZD_A
 62
     1
 10
900.4866503305233
 20
705.2960420695059
 30
0.0
 11
889.4866503305233
 21
705.2960420695059
 31
0.0
  0
LINE
  5
542
  8
1_PRZEJAZD_A
 62
     1
 10
889.4866503305233
 20
688.2960420695059
 30
0.0
 11
900.4866503305233
 21
688.2960420695059
 31
0.0
  0
LINE
  5
543
  8
1_PRZEJAZD_A
 62
     1
 10
900.4866503305233
 20
755.2960420695059
 30
0.0
 11
889.4866503305233
 21
755.2960420695059
 31
0.0
  0
LINE
  5
544
  8
1_PRZEJAZD_A
 62
     1
 10
889.4866503305233
 20
738.2960420695059
 30
0.0
 11
900.4866503305233
 21
738.2960420695059
 31
0.0
  0
LINE
  5
545
  8
1_PRZEJAZD_A
 62
     1
 10
900.4866503305233
 20
805.2960420695059
 30
0.0
 11
889.4866503305233
 21
805.2960420695059
 31
0.0
  0
LINE
  5
546
  8
1_PRZEJAZD_A
 62
     1
 10
889.4866503305233
 20
788.2960420695059
 30
0.0
 11
900.4866503305233
 21
788.2960420695059
 31
0.0
  0
LINE
  5
547
  8
1_PRZEJAZD_A
 62
     1
 10
900.4866503305233
 20
855.2960420695059
 30
0.0
 11
889.4866503305233
 21
855.2960420695059
 31
0.0
  0
LINE
  5
548
  8
1_PRZEJAZD_A
 62
     1
 10
889.4866503305233
 20
838.2960420695059
 30
0.0
 11
900.4866503305233
 21
838.2960420695059
 31
0.0
  0
LINE
  5
549
  8
1_PRZEJAZD_A
 62
     1
 10
900.4866503305233
 20
905.2960420695058
 30
0.0
 11
889.4866503305233
 21
905.2960420695058
 31
0.0
  0
LINE
  5
54A
  8
1_PRZEJAZD_A
 62
     1
 10
889.4866503305233
 20
888.2960420695058
 30
0.0
 11
900.4866503305233
 21
888.2960420695058
 31
0.0
  0
LINE
  5
54B
  8
1_PRZEJAZD_A
 62
     1
 10
900.4866503305233
 20
955.2960420695058
 30
0.0
 11
889.4866503305233
 21
955.2960420695058
 31
0.0
  0
LINE
  5
54C
  8
1_PRZEJAZD_A
 62
     1
 10
889.4866503305233
 20
938.2960420695058
 30
0.0
 11
900.4866503305233
 21
938.2960420695058
 31
0.0
  0
LINE
  5
54D
  8
1_PRZEJAZD_A
 62
     1
 10
900.4866503305233
 20
1005.296042069506
 30
0.0
 11
889.4866503305233
 21
1005.296042069506
 31
0.0
  0
LINE
  5
54E
  8
1_PRZEJAZD_A
 62
     1
 10
889.4866503305233
 20
988.2960420695058
 30
0.0
 11
900.4866503305233
 21
988.2960420695058
 31
0.0
  0
LINE
  5
54F
  8
1_PRZEJAZD_A
 62
     1
 10
152.7799836638234
 20
364.9583524358555
 30
0.0
 11
152.7799836638234
 21
360.9583524358555
 31
0.0
  0
LINE
  5
550
  8
1_PRZEJAZD_A
 62
     1
 10
152.7799836638234
 20
375.4583524358555
 30
0.0
 11
152.7799836638234
 21
364.9583524358555
 31
0.0
  0
LINE
  5
551
  8
1_PRZEJAZD_A
 62
     1
 10
152.7799836638234
 20
379.4583524358555
 30
0.0
 11
152.7799836638234
 21
375.4583524358555
 31
0.0
  0
LINE
  5
552
  8
1_PRZEJAZD_A
 62
     1
 10
110.7799836638234
 20
364.9583524358555
 30
0.0
 11
110.7799836638234
 21
360.9583524358555
 31
0.0
  0
LINE
  5
553
  8
1_PRZEJAZD_A
 62
     1
 10
110.7799836638234
 20
375.4583524358555
 30
0.0
 11
110.7799836638234
 21
364.9583524358555
 31
0.0
  0
LINE
  5
554
  8
1_PRZEJAZD_A
 62
     1
 10
110.7799836638234
 20
379.4583524358555
 30
0.0
 11
110.7799836638234
 21
375.4583524358555
 31
0.0
  0
LINE
  5
555
  8
1_PRZEJAZD_A
 62
     1
 10
152.7799836638234
 20
375.4583524358555
 30
0.0
 11
110.7799836638234
 21
375.4583524358555
 31
0.0
  0
LINE
  5
556
  8
1_PRZEJAZD_A
 62
     1
 10
110.7799836638234
 20
364.9583524358555
 30
0.0
 11
152.7799836638234
 21
364.9583524358555
 31
0.0
  0
LINE
  5
557
  8
1_PRZEJAZD_A
 10
898.0292395750378
 20
540.7600543673598
 30
0.0
 11
896.0388828536602
 21
540.8377166180982
 31
0.0
  0
LINE
  5
558
  8
1_PRZEJAZD_A
 10
898.6912906827356
 20
540.759710928995
 30
0.0
 11
898.0292395750378
 21
540.7600543673598
 31
0.0
  0
LINE
  5
559
  8
1_PRZEJAZD_A
 10
899.350593329955
 20
540.7786349500516
 30
0.0
 11
898.6912906827356
 21
540.759710928995
 31
0.0
  0
LINE
  5
55A
  8
1_PRZEJAZD_A
 10
900.0070492944179
 20
540.8188108035408
 30
0.0
 11
899.350593329955
 21
540.7786349500516
 31
0.0
  0
LINE
  5
55B
  8
1_PRZEJAZD_A
 10
900.3341192131124
 20
540.8475442220183
 30
0.0
 11
900.0070492944179
 21
540.8188108035408
 31
0.0
  0
LINE
  5
55C
  8
1_PRZEJAZD_A
 10
900.6603687921138
 20
540.8824018640887
 30
0.0
 11
900.3341192131124
 21
540.8475442220183
 31
0.0
  0
LINE
  5
55D
  8
1_PRZEJAZD_A
 10
900.9857618084208
 20
540.92365415158
 30
0.0
 11
900.6603687921138
 21
540.8824018640887
 31
0.0
  0
LINE
  5
55E
  8
1_PRZEJAZD_A
 10
901.3102620390317
 20
540.9715715063205
 30
0.0
 11
900.9857618084208
 21
540.92365415158
 31
0.0
  0
LINE
  5
55F
  8
1_PRZEJAZD_A
 10
901.6338290663344
 20
541.0264556648929
 30
0.0
 11
901.3102620390317
 21
540.9715715063205
 31
0.0
  0
LINE
  5
560
  8
1_PRZEJAZD_A
 10
901.9564176316271
 20
541.0886445048981
 30
0.0
 11
901.6338290663344
 21
541.0264556648929
 31
0.0
  0
LINE
  5
561
  8
1_PRZEJAZD_A
 10
902.2779842502755
 20
541.1584626596923
 30
0.0
 11
901.9564176316271
 21
541.0886445048981
 31
0.0
  0
LINE
  5
562
  8
1_PRZEJAZD_A
 10
902.5984854376436
 20
541.236234762632
 30
0.0
 11
902.2779842502755
 21
541.1584626596923
 31
0.0
  0
LINE
  5
563
  8
1_PRZEJAZD_A
 10
902.9182214130562
 20
541.3224265644814
 30
0.0
 11
902.5984854376436
 21
541.236234762632
 31
0.0
  0
LINE
  5
564
  8
1_PRZEJAZD_A
 10
903.2369528599544
 20
541.4173026406677
 30
0.0
 11
902.9182214130562
 21
541.3224265644814
 31
0.0
  0
LINE
  5
565
  8
1_PRZEJAZD_A
 10
903.5538269898781
 20
541.5208858615433
 30
0.0
 11
903.2369528599544
 21
541.4173026406677
 31
0.0
  0
LINE
  5
566
  8
1_PRZEJAZD_A
 10
903.8679910143667
 20
541.6331990974595
 30
0.0
 11
903.5538269898781
 21
541.5208858615433
 31
0.0
  0
LINE
  5
567
  8
1_PRZEJAZD_A
 10
904.1779959997684
 20
541.754035038502
 30
0.0
 11
903.8679910143667
 21
541.6331990974595
 31
0.0
  0
LINE
  5
568
  8
1_PRZEJAZD_A
 10
904.4830353058658
 20
541.8830496296792
 30
0.0
 11
904.1779959997684
 21
541.754035038502
 31
0.0
  0
LINE
  5
569
  8
1_PRZEJAZD_A
 10
904.7832195843496
 20
542.0200606237274
 30
0.0
 11
904.4830353058658
 21
541.8830496296792
 31
0.0
  0
LINE
  5
56A
  8
1_PRZEJAZD_A
 10
905.0786594869106
 20
542.1648857733824
 30
0.0
 11
904.7832195843496
 21
542.0200606237274
 31
0.0
  0
LINE
  5
56B
  8
1_PRZEJAZD_A
 10
905.3694656652402
 20
542.3173428313798
 30
0.0
 11
905.0786594869106
 21
542.1648857733824
 31
0.0
  0
LINE
  5
56C
  8
1_PRZEJAZD_A
 10
905.6557487710294
 20
542.477249550456
 30
0.0
 11
905.3694656652402
 21
542.3173428313798
 31
0.0
  0
LINE
  5
56D
  8
1_PRZEJAZD_A
 10
905.9376194559686
 20
542.6444236833468
 30
0.0
 11
905.6557487710294
 21
542.477249550456
 31
0.0
  0
LINE
  5
56E
  8
1_PRZEJAZD_A
 10
906.2151883717496
 20
542.818682982788
 30
0.0
 11
905.9376194559686
 21
542.6444236833468
 31
0.0
  0
LINE
  5
56F
  8
1_PRZEJAZD_A
 10
906.4886591695092
 20
542.9996920281253
 30
0.0
 11
906.2151883717496
 21
542.818682982788
 31
0.0
  0
LINE
  5
570
  8
1_PRZEJAZD_A
 10
906.7585426011374
 20
543.1866095928607
 30
0.0
 11
906.4886591695092
 21
542.9996920281253
 31
0.0
  0
LINE
  5
571
  8
1_PRZEJAZD_A
 10
909.3972736027854
 20
545.1541799021212
 30
0.0
 11
906.7585426011374
 21
543.1866095928607
 31
0.0
  0
LINE
  5
572
  8
1_PRZEJAZD_A
 10
910.436342117394
 20
545.9612458764345
 30
0.0
 11
909.3972736027854
 21
545.1541799021212
 31
0.0
  0
LINE
  5
573
  8
1_PRZEJAZD_A
 10
910.9434109178823
 20
546.3811258010705
 30
0.0
 11
910.436342117394
 21
545.9612458764345
 31
0.0
  0
LINE
  5
574
  8
1_PRZEJAZD_A
 10
911.4385809542096
 20
546.81544795462
 30
0.0
 11
910.9434109178823
 21
546.3811258010705
 31
0.0
  0
LINE
  5
575
  8
1_PRZEJAZD_A
 10
911.6805901775925
 20
547.0385261904521
 30
0.0
 11
911.4385809542096
 21
546.81544795462
 31
0.0
  0
LINE
  5
576
  8
1_PRZEJAZD_A
 10
911.9182882000702
 20
547.2658165713704
 30
0.0
 11
911.6805901775925
 21
547.0385261904521
 31
0.0
  0
LINE
  5
577
  8
1_PRZEJAZD_A
 10
912.1512295183544
 20
547.4975196266605
 30
0.0
 11
911.9182882000702
 21
547.2658165713704
 31
0.0
  0
LINE
  5
578
  8
1_PRZEJAZD_A
 10
912.3789686291572
 20
547.7338358856089
 30
0.0
 11
912.1512295183544
 21
547.4975196266605
 31
0.0
  0
LINE
  5
579
  8
1_PRZEJAZD_A
 10
912.6009332959516
 20
547.9751658167522
 30
0.0
 11
912.3789686291572
 21
547.7338358856089
 31
0.0
  0
LINE
  5
57A
  8
1_PRZEJAZD_A
 10
912.8169481008842
 20
548.2216890777416
 30
0.0
 11
912.6009332959516
 21
547.9751658167522
 31
0.0
  0
LINE
  5
57B
  8
1_PRZEJAZD_A
 10
913.0271627686762
 20
548.4732749815325
 30
0.0
 11
912.8169481008842
 21
548.2216890777416
 31
0.0
  0
LINE
  5
57C
  8
1_PRZEJAZD_A
 10
913.2317270240483
 20
548.7297928410803
 30
0.0
 11
913.0271627686762
 21
548.4732749815325
 31
0.0
  0
LINE
  5
57D
  8
1_PRZEJAZD_A
 10
914.0388828536537
 20
549.7655539413943
 30
0.0
 11
913.2317270240483
 21
548.7297928410803
 31
0.0
  0
LINE
  5
57E
  8
1_PRZEJAZD_A
 10
914.0388828536517
 20
561.4996023153473
 30
0.0
 11
914.0388828536537
 21
549.7655539413943
 31
0.0
  0
LINE
  5
57F
  8
1_PRZEJAZD_A
 10
914.0388828536503
 20
578.0343938112165
 30
0.0
 11
914.0388828536517
 21
561.4996023153473
 31
0.0
  0
LINE
  5
580
  8
1_PRZEJAZD_A
 10
914.0388828536496
 20
603.9610077096503
 30
0.0
 11
914.0388828536503
 21
578.0343938112165
 31
0.0
  0
LINE
  5
581
  8
1_PRZEJAZD_A
 10
897.0797968102362
 20
588.0740563588109
 30
0.0
 11
914.0388828536496
 21
603.9610077096503
 31
0.0
  0
LINE
  5
582
  8
1_PRZEJAZD_A
 10
896.5539984331137
 20
587.6300198230825
 30
0.0
 11
897.0797968102362
 21
588.0740563588109
 31
0.0
  0
LINE
  5
583
  8
1_PRZEJAZD_A
 10
896.0402850339634
 20
587.1747191468402
 30
0.0
 11
896.5539984331137
 21
587.6300198230825
 31
0.0
  0
LINE
  5
584
  8
1_PRZEJAZD_A
 10
895.5427882223556
 20
586.7043033481863
 30
0.0
 11
896.0402850339634
 21
587.1747191468402
 31
0.0
  0
LINE
  5
585
  8
1_PRZEJAZD_A
 10
895.0597963686849
 20
586.2203677992015
 30
0.0
 11
895.5427882223556
 21
586.7043033481863
 31
0.0
  0
LINE
  5
586
  8
1_PRZEJAZD_A
 10
894.5896251026236
 20
585.7244824641973
 30
0.0
 11
895.0597963686849
 21
586.2203677992015
 31
0.0
  0
LINE
  5
587
  8
1_PRZEJAZD_A
 10
894.1305052125724
 20
585.2182963861561
 30
0.0
 11
894.5896251026236
 21
585.7244824641973
 31
0.0
  0
LINE
  5
588
  8
1_PRZEJAZD_A
 10
891.0584456449927
 20
581.5429556052325
 30
0.0
 11
894.1305052125724
 21
585.2182963861561
 31
0.0
  0
LINE
  5
589
  8
1_PRZEJAZD_A
 10
890.6084740891924
 20
581.028561063516
 30
0.0
 11
891.0584456449927
 21
581.5429556052325
 31
0.0
  0
LINE
  5
58A
  8
1_PRZEJAZD_A
 10
890.3784200253598
 20
580.7762002939762
 30
0.0
 11
890.6084740891924
 21
581.028561063516
 31
0.0
  0
LINE
  5
58B
  8
1_PRZEJAZD_A
 10
890.1437407882212
 20
580.5282531777094
 30
0.0
 11
890.3784200253598
 21
580.7762002939762
 31
0.0
  0
LINE
  5
58C
  8
1_PRZEJAZD_A
 10
889.9031437397313
 20
580.2859532373876
 30
0.0
 11
890.1437407882212
 21
580.5282531777094
 31
0.0
  0
LINE
  5
58D
  8
1_PRZEJAZD_A
 10
889.6553362418458
 20
580.0505339956835
 30
0.0
 11
889.9031437397313
 21
580.2859532373876
 31
0.0
  0
LINE
  5
58E
  8
1_PRZEJAZD_A
 10
889.5282676659641
 20
579.9358386597836
 30
0.0
 11
889.6553362418458
 21
580.0505339956835
 31
0.0
  0
LINE
  5
58F
  8
1_PRZEJAZD_A
 10
889.398620148805
 20
579.8236004723052
 30
0.0
 11
889.5282676659641
 21
579.9358386597836
 31
0.0
  0
LINE
  5
590
  8
1_PRZEJAZD_A
 10
889.2659656032005
 20
579.7142395863235
 30
0.0
 11
889.398620148805
 21
579.8236004723052
 31
0.0
  0
LINE
  5
591
  8
1_PRZEJAZD_A
 10
889.1298759419824
 20
579.6081761549145
 30
0.0
 11
889.2659656032005
 21
579.7142395863235
 31
0.0
  0
LINE
  5
592
  8
1_PRZEJAZD_A
 10
888.9905351385753
 20
579.5062509818839
 30
0.0
 11
889.1298759419824
 21
579.6081761549145
 31
0.0
  0
LINE
  5
593
  8
1_PRZEJAZD_A
 10
888.9196706957982
 20
579.4573053617746
 30
0.0
 11
888.9905351385753
 21
579.5062509818839
 31
0.0
  0
LINE
  5
594
  8
1_PRZEJAZD_A
 10
888.8478761149023
 20
579.4099309249187
 30
0.0
 11
888.9196706957982
 21
579.4573053617746
 31
0.0
  0
LINE
  5
595
  8
1_PRZEJAZD_A
 10
888.7750508128353
 20
579.3642975755536
 30
0.0
 11
888.8478761149023
 21
579.4099309249187
 31
0.0
  0
LINE
  5
596
  8
1_PRZEJAZD_A
 10
888.7010942065444
 20
579.3205752179159
 30
0.0
 11
888.7750508128353
 21
579.3642975755536
 31
0.0
  0
LINE
  5
597
  8
1_PRZEJAZD_A
 10
888.6259057129777
 20
579.278933756243
 30
0.0
 11
888.7010942065444
 21
579.3205752179159
 31
0.0
  0
LINE
  5
598
  8
1_PRZEJAZD_A
 10
888.5493847490826
 20
579.2395430947719
 30
0.0
 11
888.6259057129777
 21
579.278933756243
 31
0.0
  0
LINE
  5
599
  8
1_PRZEJAZD_A
 10
888.5105343101675
 20
579.2207535643729
 30
0.0
 11
888.5493847490826
 21
579.2395430947719
 31
0.0
  0
LINE
  5
59A
  8
1_PRZEJAZD_A
 10
888.4712273680835
 20
579.2026495041184
 30
0.0
 11
888.5105343101675
 21
579.2207535643729
 31
0.0
  0
LINE
  5
59B
  8
1_PRZEJAZD_A
 10
888.4314993947089
 20
579.1853147704848
 30
0.0
 11
888.4712273680835
 21
579.2026495041184
 31
0.0
  0
LINE
  5
59C
  8
1_PRZEJAZD_A
 10
888.3913858619205
 20
579.1688332199486
 30
0.0
 11
888.4314993947089
 21
579.1853147704848
 31
0.0
  0
LINE
  5
59D
  8
1_PRZEJAZD_A
 10
888.3509222415962
 20
579.153288708986
 30
0.0
 11
888.3913858619205
 21
579.1688332199486
 31
0.0
  0
LINE
  5
59E
  8
1_PRZEJAZD_A
 10
888.3101440056137
 20
579.1387650940741
 30
0.0
 11
888.3509222415962
 21
579.153288708986
 31
0.0
  0
LINE
  5
59F
  8
1_PRZEJAZD_A
 10
888.2690866258504
 20
579.1253462316888
 30
0.0
 11
888.3101440056137
 21
579.1387650940741
 31
0.0
  0
LINE
  5
5A0
  8
1_PRZEJAZD_A
 10
888.2277855741839
 20
579.1131159783071
 30
0.0
 11
888.2690866258504
 21
579.1253462316888
 31
0.0
  0
LINE
  5
5A1
  8
1_PRZEJAZD_A
 10
888.1862406057251
 20
579.1021737076788
 30
0.0
 11
888.2277855741839
 21
579.1131159783071
 31
0.0
  0
LINE
  5
5A2
  8
1_PRZEJAZD_A
 10
888.1444275507642
 20
579.0925642658955
 30
0.0
 11
888.1862406057251
 21
579.1021737076788
 31
0.0
  0
LINE
  5
5A3
  8
1_PRZEJAZD_A
 10
888.102345993947
 20
579.0842897179444
 30
0.0
 11
888.1444275507642
 21
579.0925642658955
 31
0.0
  0
LINE
  5
5A4
  8
1_PRZEJAZD_A
 10
888.0599955199207
 20
579.0773521288131
 30
0.0
 11
888.102345993947
 21
579.0842897179444
 31
0.0
  0
LINE
  5
5A5
  8
1_PRZEJAZD_A
 10
888.0173757133311
 20
579.0717535634894
 30
0.0
 11
888.0599955199207
 21
579.0773521288131
 31
0.0
  0
LINE
  5
5A6
  8
1_PRZEJAZD_A
 10
887.9744861588249
 20
579.0674960869607
 30
0.0
 11
888.0173757133311
 21
579.0717535634894
 31
0.0
  0
LINE
  5
5A7
  8
1_PRZEJAZD_A
 10
887.931326441048
 20
579.0645817642143
 30
0.0
 11
887.9744861588249
 21
579.0674960869607
 31
0.0
  0
LINE
  5
5A8
  8
1_PRZEJAZD_A
 10
887.8878961446472
 20
579.0630126602383
 30
0.0
 11
887.931326441048
 21
579.0645817642143
 31
0.0
  0
LINE
  5
5A9
  8
1_PRZEJAZD_A
 10
887.8443940786161
 20
579.0626962498361
 30
0.0
 11
887.8878961446472
 21
579.0630126602383
 31
0.0
  0
LINE
  5
5AA
  8
1_PRZEJAZD_A
 10
887.8010185195761
 20
579.0635073828131
 30
0.0
 11
887.8443940786161
 21
579.0626962498361
 31
0.0
  0
LINE
  5
5AB
  8
1_PRZEJAZD_A
 10
887.757768253617
 20
579.0653991866606
 30
0.0
 11
887.8010185195761
 21
579.0635073828131
 31
0.0
  0
LINE
  5
5AC
  8
1_PRZEJAZD_A
 10
887.7146420668279
 20
579.068324788869
 30
0.0
 11
887.757768253617
 21
579.0653991866606
 31
0.0
  0
LINE
  5
5AD
  8
1_PRZEJAZD_A
 10
887.6716387452979
 20
579.0722373169293
 30
0.0
 11
887.7146420668279
 21
579.068324788869
 31
0.0
  0
LINE
  5
5AE
  8
1_PRZEJAZD_A
 10
887.6287570751168
 20
579.0770898983324
 30
0.0
 11
887.6716387452979
 21
579.0722373169293
 31
0.0
  0
LINE
  5
5AF
  8
1_PRZEJAZD_A
 10
887.5859958423737
 20
579.0828356605689
 30
0.0
 11
887.6287570751168
 21
579.0770898983324
 31
0.0
  0
LINE
  5
5B0
  8
1_PRZEJAZD_A
 10
887.5433538331579
 20
579.0894277311295
 30
0.0
 11
887.5859958423737
 21
579.0828356605689
 31
0.0
  0
LINE
  5
5B1
  8
1_PRZEJAZD_A
 10
887.5008298335591
 20
579.0968192375053
 30
0.0
 11
887.5433538331579
 21
579.0894277311295
 31
0.0
  0
LINE
  5
5B2
  8
1_PRZEJAZD_A
 10
887.458422629666
 20
579.1049633071868
 30
0.0
 11
887.5008298335591
 21
579.0968192375053
 31
0.0
  0
LINE
  5
5B3
  8
1_PRZEJAZD_A
 10
887.3739537533554
 20
579.1233216464307
 30
0.0
 11
887.458422629666
 21
579.1049633071868
 31
0.0
  0
LINE
  5
5B4
  8
1_PRZEJAZD_A
 10
887.2899374929411
 20
579.1441277687873
 30
0.0
 11
887.3739537533554
 21
579.1233216464307
 31
0.0
  0
LINE
  5
5B5
  8
1_PRZEJAZD_A
 10
887.2063641371371
 20
579.1670066941829
 30
0.0
 11
887.2899374929411
 21
579.1441277687873
 31
0.0
  0
LINE
  5
5B6
  8
1_PRZEJAZD_A
 10
887.1233542252559
 20
579.1916995799191
 30
0.0
 11
887.2063641371371
 21
579.1670066941829
 31
0.0
  0
LINE
  5
5B7
  8
1_PRZEJAZD_A
 10
887.0410092143533
 20
579.2181307562623
 30
0.0
 11
887.1233542252559
 21
579.1916995799191
 31
0.0
  0
LINE
  5
5B8
  8
1_PRZEJAZD_A
 10
886.9592907697617
 20
579.2462000025855
 30
0.0
 11
887.0410092143533
 21
579.2181307562623
 31
0.0
  0
LINE
  5
5B9
  8
1_PRZEJAZD_A
 10
886.8781605568136
 20
579.2758070982613
 30
0.0
 11
886.9592907697617
 21
579.2462000025855
 31
0.0
  0
LINE
  5
5BA
  8
1_PRZEJAZD_A
 10
886.7175114871765
 20
579.3392339551654
 30
0.0
 11
886.8781605568136
 21
579.2758070982613
 31
0.0
  0
LINE
  5
5BB
  8
1_PRZEJAZD_A
 10
886.5587553280992
 20
579.4076095619588
 30
0.0
 11
886.7175114871765
 21
579.3392339551654
 31
0.0
  0
LINE
  5
5BC
  8
1_PRZEJAZD_A
 10
886.4017720435019
 20
579.4802406932419
 30
0.0
 11
886.5587553280992
 21
579.4076095619588
 31
0.0
  0
LINE
  5
5BD
  8
1_PRZEJAZD_A
 10
886.2466588193789
 20
579.5566785328342
 30
0.0
 11
886.4017720435019
 21
579.4802406932419
 31
0.0
  0
LINE
  5
5BE
  8
1_PRZEJAZD_A
 10
886.093434811501
 20
579.6364879295495
 30
0.0
 11
886.2466588193789
 21
579.5566785328342
 31
0.0
  0
LINE
  5
5BF
  8
1_PRZEJAZD_A
 10
885.9421191756381
 20
579.7192337322022
 30
0.0
 11
886.093434811501
 21
579.6364879295495
 31
0.0
  0
LINE
  5
5C0
  8
1_PRZEJAZD_A
 10
885.6445883036623
 20
579.8923591866389
 30
0.0
 11
885.9421191756381
 21
579.7192337322022
 31
0.0
  0
LINE
  5
5C1
  8
1_PRZEJAZD_A
 10
885.3529539326748
 20
580.074734933201
 30
0.0
 11
885.6445883036623
 21
579.8923591866389
 31
0.0
  0
LINE
  5
5C2
  8
1_PRZEJAZD_A
 10
885.0665230424954
 20
580.2652737781224
 30
0.0
 11
885.3529539326748
 21
580.074734933201
 31
0.0
  0
LINE
  5
5C3
  8
1_PRZEJAZD_A
 10
884.7846026129438
 20
580.4628885276366
 30
0.0
 11
885.0665230424954
 21
580.2652737781224
 31
0.0
  0
LINE
  5
5C4
  8
1_PRZEJAZD_A
 10
884.5066343370922
 20
580.666696057939
 30
0.0
 11
884.7846026129438
 21
580.4628885276366
 31
0.0
  0
LINE
  5
5C5
  8
1_PRZEJAZD_A
 10
884.2324931519342
 20
580.8760598538582
 30
0.0
 11
884.5066343370922
 21
580.666696057939
 31
0.0
  0
LINE
  5
5C6
  8
1_PRZEJAZD_A
 10
883.6955194364939
 20
581.3085871192781
 30
0.0
 11
884.2324931519342
 21
580.8760598538582
 31
0.0
  0
LINE
  5
5C7
  8
1_PRZEJAZD_A
 10
883.1725056931058
 20
581.7559096775929
 30
0.0
 11
883.6955194364939
 21
581.3085871192781
 31
0.0
  0
LINE
  5
5C8
  8
1_PRZEJAZD_A
 10
882.6612938118653
 20
582.2159824557281
 30
0.0
 11
883.1725056931058
 21
581.7559096775929
 31
0.0
  0
LINE
  5
5C9
  8
1_PRZEJAZD_A
 10
882.1601511201039
 20
582.6869335493078
 30
0.0
 11
882.6612938118653
 21
582.2159824557281
 31
0.0
  0
LINE
  5
5CA
  8
1_PRZEJAZD_A
 10
881.6679390528201
 20
583.1675329021023
 30
0.0
 11
882.1601511201039
 21
582.6869335493078
 31
0.0
  0
LINE
  5
5CB
  8
1_PRZEJAZD_A
 10
880.7065964817068
 20
584.1536679274647
 30
0.0
 11
881.6679390528201
 21
583.1675329021023
 31
0.0
  0
LINE
  5
5CC
  8
1_PRZEJAZD_A
 10
864.5640704900658
 20
601.3680005895818
 30
0.0
 11
880.7065964817068
 21
584.1536679274647
 31
0.0
  0
LINE
  5
5CD
  8
1_PRZEJAZD_A
 10
861.7486004243897
 20
599.456075499186
 30
0.0
 11
864.5640704900658
 21
601.3680005895818
 31
0.0
  0
LINE
  5
5CE
  8
1_PRZEJAZD_A
 10
858.9599092539261
 20
597.5066063432309
 30
0.0
 11
861.7486004243897
 21
599.456075499186
 31
0.0
  0
LINE
  5
5CF
  8
1_PRZEJAZD_A
 10
857.5886828034871
 20
596.499458691224
 30
0.0
 11
858.9599092539261
 21
597.5066063432309
 31
0.0
  0
LINE
  5
5D0
  8
1_PRZEJAZD_A
 10
856.2361494081758
 20
595.466103337886
 30
0.0
 11
857.5886828034871
 21
596.499458691224
 31
0.0
  0
LINE
  5
5D1
  8
1_PRZEJAZD_A
 10
854.9067068539957
 20
594.4033167260529
 30
0.0
 11
856.2361494081758
 21
595.466103337886
 31
0.0
  0
LINE
  5
5D2
  8
1_PRZEJAZD_A
 10
853.6079961995616
 20
593.3082797264951
 30
0.0
 11
854.9067068539957
 21
594.4033167260529
 31
0.0
  0
LINE
  5
5D3
  8
1_PRZEJAZD_A
 10
852.3470514853107
 20
592.1763220639177
 30
0.0
 11
853.6079961995616
 21
593.3082797264951
 31
0.0
  0
LINE
  5
5D4
  8
1_PRZEJAZD_A
 10
851.7331435887921
 20
591.5939122958364
 30
0.0
 11
852.3470514853107
 21
592.1763220639177
 31
0.0
  0
LINE
  5
5D5
  8
1_PRZEJAZD_A
 10
851.131779275015
 20
590.9990600570915
 30
0.0
 11
851.7331435887921
 21
591.5939122958364
 31
0.0
  0
LINE
  5
5D6
  8
1_PRZEJAZD_A
 10
850.5441461553389
 20
590.3905873094924
 30
0.0
 11
851.131779275015
 21
590.9990600570915
 31
0.0
  0
LINE
  5
5D7
  8
1_PRZEJAZD_A
 10
849.972078681189
 20
589.7666743888725
 30
0.0
 11
850.5441461553389
 21
590.3905873094924
 31
0.0
  0
LINE
  5
5D8
  8
1_PRZEJAZD_A
 10
849.4176725694156
 20
589.1252424716635
 30
0.0
 11
849.972078681189
 21
589.7666743888725
 31
0.0
  0
LINE
  5
5D9
  8
1_PRZEJAZD_A
 10
848.8830235368687
 20
588.4642127342977
 30
0.0
 11
849.4176725694156
 21
589.1252424716635
 31
0.0
  0
LINE
  5
5DA
  8
1_PRZEJAZD_A
 10
848.6236597161743
 20
588.1253661201599
 30
0.0
 11
848.8830235368687
 21
588.4642127342977
 31
0.0
  0
LINE
  5
5DB
  8
1_PRZEJAZD_A
 10
848.3702027339747
 20
587.7804719165026
 30
0.0
 11
848.6236597161743
 21
588.1253661201599
 31
0.0
  0
LINE
  5
5DC
  8
1_PRZEJAZD_A
 10
848.1234964291218
 20
587.4297161985083
 30
0.0
 11
848.3702027339747
 21
587.7804719165026
 31
0.0
  0
LINE
  5
5DD
  8
1_PRZEJAZD_A
 10
847.8843846404654
 20
587.07328504136
 30
0.0
 11
848.1234964291218
 21
587.4297161985083
 31
0.0
  0
LINE
  5
5DE
  8
1_PRZEJAZD_A
 10
847.6539767312438
 20
586.7118328839114
 30
0.0
 11
847.8843846404654
 21
587.07328504136
 31
0.0
  0
LINE
  5
5DF
  8
1_PRZEJAZD_A
 10
847.433154054772
 20
586.3457277127296
 30
0.0
 11
847.6539767312438
 21
586.7118328839114
 31
0.0
  0
LINE
  5
5E0
  8
1_PRZEJAZD_A
 10
847.2224184350174
 20
585.9747259245692
 30
0.0
 11
847.433154054772
 21
586.3457277127296
 31
0.0
  0
LINE
  5
5E1
  8
1_PRZEJAZD_A
 10
847.0222716959477
 20
585.5985839161837
 30
0.0
 11
847.2224184350174
 21
585.9747259245692
 31
0.0
  0
LINE
  5
5E2
  8
1_PRZEJAZD_A
 10
846.8332306484701
 20
585.2170508091318
 30
0.0
 11
847.0222716959477
 21
585.5985839161837
 31
0.0
  0
LINE
  5
5E3
  8
1_PRZEJAZD_A
 10
846.655904032191
 20
584.8298310995051
 30
0.0
 11
846.8332306484701
 21
585.2170508091318
 31
0.0
  0
LINE
  5
5E4
  8
1_PRZEJAZD_A
 10
846.4909315641241
 20
584.4366142458556
 30
0.0
 11
846.655904032191
 21
584.8298310995051
 31
0.0
  0
LINE
  5
5E5
  8
1_PRZEJAZD_A
 10
846.3389529612843
 20
584.037089706736
 30
0.0
 11
846.4909315641241
 21
584.4366142458556
 31
0.0
  0
LINE
  5
5E6
  8
1_PRZEJAZD_A
 10
846.2680461551566
 20
583.8347528143637
 30
0.0
 11
846.3389529612843
 21
584.037089706736
 31
0.0
  0
LINE
  5
5E7
  8
1_PRZEJAZD_A
 10
846.2006854718621
 20
583.630674231326
 30
0.0
 11
846.2680461551566
 21
583.8347528143637
 31
0.0
  0
LINE
  5
5E8
  8
1_PRZEJAZD_A
 10
846.1370078672007
 20
583.4250792552359
 30
0.0
 11
846.2006854718621
 21
583.630674231326
 31
0.0
  0
LINE
  5
5E9
  8
1_PRZEJAZD_A
 10
846.0771502969721
 20
583.2181931837064
 30
0.0
 11
846.1370078672007
 21
583.4250792552359
 31
0.0
  0
LINE
  5
5EA
  8
1_PRZEJAZD_A
 10
846.0212497169763
 20
583.0102413143503
 30
0.0
 11
846.0771502969721
 21
583.2181931837064
 31
0.0
  0
LINE
  5
5EB
  8
1_PRZEJAZD_A
 10
845.9694430830128
 20
582.8014489447808
 30
0.0
 11
846.0212497169763
 21
583.0102413143503
 31
0.0
  0
LINE
  5
5EC
  8
1_PRZEJAZD_A
 10
845.921867350882
 20
582.5920413726107
 30
0.0
 11
845.9694430830128
 21
582.8014489447808
 31
0.0
  0
LINE
  5
5ED
  8
1_PRZEJAZD_A
 10
845.8786594763835
 20
582.3822438954529
 30
0.0
 11
845.921867350882
 21
582.5920413726107
 31
0.0
  0
LINE
  5
5EE
  8
1_PRZEJAZD_A
 10
845.8398538738066
 20
582.1720681544303
 30
0.0
 11
845.8786594763835
 21
582.3822438954529
 31
0.0
  0
LINE
  5
5EF
  8
1_PRZEJAZD_A
 10
845.8054255389765
 20
581.9613717999442
 30
0.0
 11
845.8398538738066
 21
582.1720681544303
 31
0.0
  0
LINE
  5
5F0
  8
1_PRZEJAZD_A
 10
845.7754222999952
 20
581.7501491435248
 30
0.0
 11
845.8054255389765
 21
581.9613717999442
 31
0.0
  0
LINE
  5
5F1
  8
1_PRZEJAZD_A
 10
845.7498919849656
 20
581.5383944967027
 30
0.0
 11
845.7754222999952
 21
581.7501491435248
 31
0.0
  0
LINE
  5
5F2
  8
1_PRZEJAZD_A
 10
845.7288824219897
 20
581.3261021710085
 30
0.0
 11
845.7498919849656
 21
581.5383944967027
 31
0.0
  0
LINE
  5
5F3
  8
1_PRZEJAZD_A
 10
845.7124414391702
 20
581.1132664779727
 30
0.0
 11
845.7288824219897
 21
581.3261021710085
 31
0.0
  0
LINE
  5
5F4
  8
1_PRZEJAZD_A
 10
845.7006168646095
 20
580.8998817291259
 30
0.0
 11
845.7124414391702
 21
581.1132664779727
 31
0.0
  0
LINE
  5
5F5
  8
1_PRZEJAZD_A
 10
845.6934565264098
 20
580.6859422359984
 30
0.0
 11
845.7006168646095
 21
580.8998817291259
 31
0.0
  0
LINE
  5
5F6
  8
1_PRZEJAZD_A
 10
845.691066959829
 20
580.4713718171765
 30
0.0
 11
845.6934565264098
 21
580.6859422359984
 31
0.0
  0
LINE
  5
5F7
  8
1_PRZEJAZD_A
 10
845.6935097597517
 20
580.2562979999233
 30
0.0
 11
845.691066959829
 21
580.4713718171765
 31
0.0
  0
LINE
  5
5F8
  8
1_PRZEJAZD_A
 10
845.7007653437219
 20
580.0410206587821
 30
0.0
 11
845.6935097597517
 21
580.2562979999233
 31
0.0
  0
LINE
  5
5F9
  8
1_PRZEJAZD_A
 10
845.7128141292826
 20
579.8258396682976
 30
0.0
 11
845.7007653437219
 21
580.0410206587821
 31
0.0
  0
LINE
  5
5FA
  8
1_PRZEJAZD_A
 10
845.729636533978
 20
579.611054903014
 30
0.0
 11
845.7128141292826
 21
579.8258396682976
 31
0.0
  0
LINE
  5
5FB
  8
1_PRZEJAZD_A
 10
845.7512129753513
 20
579.3969662374757
 30
0.0
 11
845.729636533978
 21
579.611054903014
 31
0.0
  0
LINE
  5
5FC
  8
1_PRZEJAZD_A
 10
845.7775238709467
 20
579.1838735462263
 30
0.0
 11
845.7512129753513
 21
579.3969662374757
 31
0.0
  0
LINE
  5
5FD
  8
1_PRZEJAZD_A
 10
845.8085496383075
 20
578.9720767038107
 30
0.0
 11
845.7775238709467
 21
579.1838735462263
 31
0.0
  0
LINE
  5
5FE
  8
1_PRZEJAZD_A
 10
845.8442395120214
 20
578.7615579700347
 30
0.0
 11
845.8085496383075
 21
578.9720767038107
 31
0.0
  0
LINE
  5
5FF
  8
1_PRZEJAZD_A
 10
845.8845343392376
 20
578.5520947733601
 30
0.0
 11
845.8442395120214
 21
578.7615579700347
 31
0.0
  0
LINE
  5
600
  8
1_PRZEJAZD_A
 10
845.9294019563404
 20
578.3436797413157
 30
0.0
 11
845.8845343392376
 21
578.5520947733601
 31
0.0
  0
LINE
  5
601
  8
1_PRZEJAZD_A
 10
845.978810199715
 20
578.1363055014294
 30
0.0
 11
845.9294019563404
 21
578.3436797413157
 31
0.0
  0
LINE
  5
602
  8
1_PRZEJAZD_A
 10
846.0327269057462
 20
577.9299646812301
 30
0.0
 11
845.978810199715
 21
578.1363055014294
 31
0.0
  0
LINE
  5
603
  8
1_PRZEJAZD_A
 10
846.0911199108187
 20
577.7246499082459
 30
0.0
 11
846.0327269057462
 21
577.9299646812301
 31
0.0
  0
LINE
  5
604
  8
1_PRZEJAZD_A
 10
846.1539570513178
 20
577.520353810005
 30
0.0
 11
846.0911199108187
 21
577.7246499082459
 31
0.0
  0
LINE
  5
605
  8
1_PRZEJAZD_A
 10
846.2212061636282
 20
577.3170690140357
 30
0.0
 11
846.1539570513178
 21
577.520353810005
 31
0.0
  0
LINE
  5
606
  8
1_PRZEJAZD_A
 10
846.2929170911484
 20
577.1146140361041
 30
0.0
 11
846.2212061636282
 21
577.3170690140357
 31
0.0
  0
LINE
  5
607
  8
1_PRZEJAZD_A
 10
846.3690064616543
 20
576.9131033681051
 30
0.0
 11
846.2929170911484
 21
577.1146140361041
 31
0.0
  0
LINE
  5
608
  8
1_PRZEJAZD_A
 10
846.4492422880954
 20
576.712973601761
 30
0.0
 11
846.3690064616543
 21
576.9131033681051
 31
0.0
  0
LINE
  5
609
  8
1_PRZEJAZD_A
 10
846.5333925834216
 20
576.5146613287942
 30
0.0
 11
846.4492422880954
 21
576.712973601761
 31
0.0
  0
LINE
  5
60A
  8
1_PRZEJAZD_A
 10
846.6211479025396
 20
576.3186707072821
 30
0.0
 11
846.5333925834216
 21
576.5146613287942
 31
0.0
  0
LINE
  5
60B
  8
1_PRZEJAZD_A
 10
846.7122829607622
 20
576.1251630424179
 30
0.0
 11
846.6211479025396
 21
576.3186707072821
 31
0.0
  0
LINE
  5
60C
  8
1_PRZEJAZD_A
 10
846.8066920116463
 20
575.9340606465976
 30
0.0
 11
846.7122829607622
 21
576.1251630424179
 31
0.0
  0
LINE
  5
60D
  8
1_PRZEJAZD_A
 10
846.9042693087499
 20
575.7452858322175
 30
0.0
 11
846.8066920116463
 21
575.9340606465976
 31
0.0
  0
LINE
  5
60E
  8
1_PRZEJAZD_A
 10
847.108501538109
 20
575.3744051722306
 30
0.0
 11
846.9042693087499
 21
575.7452858322175
 31
0.0
  0
LINE
  5
60F
  8
1_PRZEJAZD_A
 10
847.3242083238259
 20
575.0119544013886
 30
0.0
 11
847.108501538109
 21
575.3744051722306
 31
0.0
  0
LINE
  5
610
  8
1_PRZEJAZD_A
 10
847.5506618407544
 20
574.6573988162047
 30
0.0
 11
847.3242083238259
 21
575.0119544013886
 31
0.0
  0
LINE
  5
611
  8
1_PRZEJAZD_A
 10
847.7871342637492
 20
574.3102037131923
 30
0.0
 11
847.5506618407544
 21
574.6573988162047
 31
0.0
  0
LINE
  5
612
  8
1_PRZEJAZD_A
 10
848.0328977676639
 20
573.9698343888635
 30
0.0
 11
847.7871342637492
 21
574.3102037131923
 31
0.0
  0
LINE
  5
613
  8
1_PRZEJAZD_A
 10
848.287224527353
 20
573.6357561397324
 30
0.0
 11
848.0328977676639
 21
573.9698343888635
 31
0.0
  0
LINE
  5
614
  8
1_PRZEJAZD_A
 10
848.5493867176708
 20
573.3074342623113
 30
0.0
 11
848.287224527353
 21
573.6357561397324
 31
0.0
  0
LINE
  5
615
  8
1_PRZEJAZD_A
 10
848.8186565134714
 20
572.9843340531133
 30
0.0
 11
848.5493867176708
 21
573.3074342623113
 31
0.0
  0
LINE
  5
616
  8
1_PRZEJAZD_A
 10
849.3757948952467
 20
572.351738596308
 30
0.0
 11
848.8186565134714
 21
572.9843340531133
 31
0.0
  0
LINE
  5
617
  8
1_PRZEJAZD_A
 10
849.9525711019166
 20
571.7335651933664
 30
0.0
 11
849.3757948952467
 21
572.351738596308
 31
0.0
  0
LINE
  5
618
  8
1_PRZEJAZD_A
 10
851.1391471218458
 20
570.5221397239501
 30
0.0
 11
849.9525711019166
 21
571.7335651933664
 31
0.0
  0
LINE
  5
619
  8
1_PRZEJAZD_A
 10
855.8735679886231
 20
565.6591676293743
 30
0.0
 11
851.1391471218458
 21
570.5221397239501
 31
0.0
  0
LINE
  5
61A
  8
1_PRZEJAZD_A
 10
860.5018844265164
 20
560.6968057386491
 30
0.0
 11
855.8735679886231
 21
565.6591676293743
 31
0.0
  0
LINE
  5
61B
  8
1_PRZEJAZD_A
 10
869.5419065493215
 20
550.5752765349911
 30
0.0
 11
860.5018844265164
 21
560.6968057386491
 31
0.0
  0
LINE
  5
61C
  8
1_PRZEJAZD_A
 10
896.0388828536696
 20
519.66313425566
 30
0.0
 11
869.5419065493215
 21
550.5752765349911
 31
0.0
  0
LINE
  5
61D
  8
1_PRZEJAZD_A
 10
896.0388828536348
 20
540.837716618093
 30
0.0
 11
896.0388828536696
 21
519.66313425566
 31
0.0
  0
LINE
  5
61E
  8
1_PRZEJAZD_A
 10
893.9175625100752
 20
542.9590369616528
 30
0.0
 11
896.0388828536348
 21
540.837716618093
 31
0.0
  0
LINE
  5
61F
  8
1_PRZEJAZD_A
 10
897.7822457488384
 20
437.2687866152784
 30
0.0
 11
895.7918890274608
 21
437.3464488660169
 31
0.0
  0
LINE
  5
620
  8
1_PRZEJAZD_A
 10
898.4442968565362
 20
437.2684431769138
 30
0.0
 11
897.7822457488384
 21
437.2687866152784
 31
0.0
  0
LINE
  5
621
  8
1_PRZEJAZD_A
 10
899.1035995037556
 20
437.2873671979702
 30
0.0
 11
898.4442968565362
 21
437.2684431769138
 31
0.0
  0
LINE
  5
622
  8
1_PRZEJAZD_A
 10
899.7600554682185
 20
437.3275430514595
 30
0.0
 11
899.1035995037556
 21
437.2873671979702
 31
0.0
  0
LINE
  5
623
  8
1_PRZEJAZD_A
 10
900.087125386913
 20
437.356276469937
 30
0.0
 11
899.7600554682185
 21
437.3275430514595
 31
0.0
  0
LINE
  5
624
  8
1_PRZEJAZD_A
 10
900.4133749659144
 20
437.3911341120074
 30
0.0
 11
900.087125386913
 21
437.356276469937
 31
0.0
  0
LINE
  5
625
  8
1_PRZEJAZD_A
 10
900.7387679822214
 20
437.4323863994987
 30
0.0
 11
900.4133749659144
 21
437.3911341120074
 31
0.0
  0
LINE
  5
626
  8
1_PRZEJAZD_A
 10
901.0632682128323
 20
437.4803037542393
 30
0.0
 11
900.7387679822214
 21
437.4323863994987
 31
0.0
  0
LINE
  5
627
  8
1_PRZEJAZD_A
 10
901.386835240135
 20
437.5351879128115
 30
0.0
 11
901.0632682128323
 21
437.4803037542393
 31
0.0
  0
LINE
  5
628
  8
1_PRZEJAZD_A
 10
901.7094238054277
 20
437.5973767528168
 30
0.0
 11
901.386835240135
 21
437.5351879128115
 31
0.0
  0
LINE
  5
629
  8
1_PRZEJAZD_A
 10
902.0309904240761
 20
437.6671949076111
 30
0.0
 11
901.7094238054277
 21
437.5973767528168
 31
0.0
  0
LINE
  5
62A
  8
1_PRZEJAZD_A
 10
902.3514916114442
 20
437.7449670105507
 30
0.0
 11
902.0309904240761
 21
437.6671949076111
 31
0.0
  0
LINE
  5
62B
  8
1_PRZEJAZD_A
 10
902.6712275868568
 20
437.8311588124001
 30
0.0
 11
902.3514916114442
 21
437.7449670105507
 31
0.0
  0
LINE
  5
62C
  8
1_PRZEJAZD_A
 10
902.989959033755
 20
437.9260348885865
 30
0.0
 11
902.6712275868568
 21
437.8311588124001
 31
0.0
  0
LINE
  5
62D
  8
1_PRZEJAZD_A
 10
903.3068331636787
 20
438.029618109462
 30
0.0
 11
902.989959033755
 21
437.9260348885865
 31
0.0
  0
LINE
  5
62E
  8
1_PRZEJAZD_A
 10
903.6209971881673
 20
438.1419313453782
 30
0.0
 11
903.3068331636787
 21
438.029618109462
 31
0.0
  0
LINE
  5
62F
  8
1_PRZEJAZD_A
 10
903.931002173569
 20
438.2627672864207
 30
0.0
 11
903.6209971881673
 21
438.1419313453782
 31
0.0
  0
LINE
  5
630
  8
1_PRZEJAZD_A
 10
904.2360414796664
 20
438.391781877598
 30
0.0
 11
903.931002173569
 21
438.2627672864207
 31
0.0
  0
LINE
  5
631
  8
1_PRZEJAZD_A
 10
904.5362257581502
 20
438.5287928716461
 30
0.0
 11
904.2360414796664
 21
438.391781877598
 31
0.0
  0
LINE
  5
632
  8
1_PRZEJAZD_A
 10
904.8316656607112
 20
438.673618021301
 30
0.0
 11
904.5362257581502
 21
438.5287928716461
 31
0.0
  0
LINE
  5
633
  8
1_PRZEJAZD_A
 10
905.1224718390408
 20
438.8260750792986
 30
0.0
 11
904.8316656607112
 21
438.673618021301
 31
0.0
  0
LINE
  5
634
  8
1_PRZEJAZD_A
 10
905.40875494483
 20
438.9859817983747
 30
0.0
 11
905.1224718390408
 21
438.8260750792986
 31
0.0
  0
LINE
  5
635
  8
1_PRZEJAZD_A
 10
905.6906256297692
 20
439.1531559312655
 30
0.0
 11
905.40875494483
 21
438.9859817983747
 31
0.0
  0
LINE
  5
636
  8
1_PRZEJAZD_A
 10
905.9681945455502
 20
439.3274152307068
 30
0.0
 11
905.6906256297692
 21
439.1531559312655
 31
0.0
  0
LINE
  5
637
  8
1_PRZEJAZD_A
 10
906.2416653433098
 20
439.5084242760441
 30
0.0
 11
905.9681945455502
 21
439.3274152307068
 31
0.0
  0
LINE
  5
638
  8
1_PRZEJAZD_A
 10
906.511548774938
 20
439.6953418407794
 30
0.0
 11
906.2416653433098
 21
439.5084242760441
 31
0.0
  0
LINE
  5
639
  8
1_PRZEJAZD_A
 10
909.150279776586
 20
441.6629121500399
 30
0.0
 11
906.511548774938
 21
439.6953418407794
 31
0.0
  0
LINE
  5
63A
  8
1_PRZEJAZD_A
 10
910.1893482911946
 20
442.4699781243532
 30
0.0
 11
909.150279776586
 21
441.6629121500399
 31
0.0
  0
LINE
  5
63B
  8
1_PRZEJAZD_A
 10
910.6964170916829
 20
442.8898580489892
 30
0.0
 11
910.1893482911946
 21
442.4699781243532
 31
0.0
  0
LINE
  5
63C
  8
1_PRZEJAZD_A
 10
911.1915871280102
 20
443.3241802025387
 30
0.0
 11
910.6964170916829
 21
442.8898580489892
 31
0.0
  0
LINE
  5
63D
  8
1_PRZEJAZD_A
 10
911.4335963513931
 20
443.5472584383709
 30
0.0
 11
911.1915871280102
 21
443.3241802025387
 31
0.0
  0
LINE
  5
63E
  8
1_PRZEJAZD_A
 10
911.6712943738708
 20
443.7745488192891
 30
0.0
 11
911.4335963513931
 21
443.5472584383709
 31
0.0
  0
LINE
  5
63F
  8
1_PRZEJAZD_A
 10
911.904235692155
 20
444.0062518745793
 30
0.0
 11
911.6712943738708
 21
443.7745488192891
 31
0.0
  0
LINE
  5
640
  8
1_PRZEJAZD_A
 10
912.1319748029578
 20
444.2425681335275
 30
0.0
 11
911.904235692155
 21
444.0062518745793
 31
0.0
  0
LINE
  5
641
  8
1_PRZEJAZD_A
 10
912.3539394697522
 20
444.4838980646709
 30
0.0
 11
912.1319748029578
 21
444.2425681335275
 31
0.0
  0
LINE
  5
642
  8
1_PRZEJAZD_A
 10
912.5699542746848
 20
444.7304213256604
 30
0.0
 11
912.3539394697522
 21
444.4838980646709
 31
0.0
  0
LINE
  5
643
  8
1_PRZEJAZD_A
 10
912.7801689424768
 20
444.9820072294512
 30
0.0
 11
912.5699542746848
 21
444.7304213256604
 31
0.0
  0
LINE
  5
644
  8
1_PRZEJAZD_A
 10
912.9847331978489
 20
445.2385250889991
 30
0.0
 11
912.7801689424768
 21
444.9820072294512
 31
0.0
  0
LINE
  5
645
  8
1_PRZEJAZD_A
 10
913.7918890274543
 20
446.274286189313
 30
0.0
 11
912.9847331978489
 21
445.2385250889991
 31
0.0
  0
LINE
  5
646
  8
1_PRZEJAZD_A
 10
913.7918890274523
 20
458.008334563266
 30
0.0
 11
913.7918890274543
 21
446.274286189313
 31
0.0
  0
LINE
  5
647
  8
1_PRZEJAZD_A
 10
913.7918890274534
 20
473.008334563266
 30
0.0
 11
913.7918890274523
 21
458.008334563266
 31
0.0
  0
LINE
  5
648
  8
1_PRZEJAZD_A
 10
913.7918890274553
 20
500.4697399575647
 30
0.0
 11
913.7918890274534
 21
473.008334563266
 31
0.0
  0
LINE
  5
649
  8
1_PRZEJAZD_A
 10
896.8328029840404
 20
484.582788606727
 30
0.0
 11
913.7918890274553
 21
500.4697399575647
 31
0.0
  0
LINE
  5
64A
  8
1_PRZEJAZD_A
 10
896.3070046069179
 20
484.1387520709987
 30
0.0
 11
896.8328029840404
 21
484.582788606727
 31
0.0
  0
LINE
  5
64B
  8
1_PRZEJAZD_A
 10
895.7932912077674
 20
483.6834513947563
 30
0.0
 11
896.3070046069179
 21
484.1387520709987
 31
0.0
  0
LINE
  5
64C
  8
1_PRZEJAZD_A
 10
895.2957943961596
 20
483.2130355961025
 30
0.0
 11
895.7932912077674
 21
483.6834513947563
 31
0.0
  0
LINE
  5
64D
  8
1_PRZEJAZD_A
 10
894.8128025424888
 20
482.7291000471178
 30
0.0
 11
895.2957943961596
 21
483.2130355961025
 31
0.0
  0
LINE
  5
64E
  8
1_PRZEJAZD_A
 10
894.3426312764276
 20
482.2332147121136
 30
0.0
 11
894.8128025424888
 21
482.7291000471178
 31
0.0
  0
LINE
  5
64F
  8
1_PRZEJAZD_A
 10
893.8835113863763
 20
481.7270286340724
 30
0.0
 11
894.3426312764276
 21
482.2332147121136
 31
0.0
  0
LINE
  5
650
  8
1_PRZEJAZD_A
 10
890.8114518187963
 20
478.0516878531491
 30
0.0
 11
893.8835113863763
 21
481.7270286340724
 31
0.0
  0
LINE
  5
651
  8
1_PRZEJAZD_A
 10
890.3614802629959
 20
477.5372933114327
 30
0.0
 11
890.8114518187963
 21
478.0516878531491
 31
0.0
  0
LINE
  5
652
  8
1_PRZEJAZD_A
 10
890.1314261991632
 20
477.284932541893
 30
0.0
 11
890.3614802629959
 21
477.5372933114327
 31
0.0
  0
LINE
  5
653
  8
1_PRZEJAZD_A
 10
889.8967469620246
 20
477.0369854256261
 30
0.0
 11
890.1314261991632
 21
477.284932541893
 31
0.0
  0
LINE
  5
654
  8
1_PRZEJAZD_A
 10
889.6561499135346
 20
476.7946854853044
 30
0.0
 11
889.8967469620246
 21
477.0369854256261
 31
0.0
  0
LINE
  5
655
  8
1_PRZEJAZD_A
 10
889.4083424156491
 20
476.5592662436004
 30
0.0
 11
889.6561499135346
 21
476.7946854853044
 31
0.0
  0
LINE
  5
656
  8
1_PRZEJAZD_A
 10
889.2812738397676
 20
476.4445709077004
 30
0.0
 11
889.4083424156491
 21
476.5592662436004
 31
0.0
  0
LINE
  5
657
  8
1_PRZEJAZD_A
 10
889.1516263226083
 20
476.332332720222
 30
0.0
 11
889.2812738397676
 21
476.4445709077004
 31
0.0
  0
LINE
  5
658
  8
1_PRZEJAZD_A
 10
889.0189717770037
 20
476.2229718342404
 30
0.0
 11
889.1516263226083
 21
476.332332720222
 31
0.0
  0
LINE
  5
659
  8
1_PRZEJAZD_A
 10
888.8828821157857
 20
476.1169084028314
 30
0.0
 11
889.0189717770037
 21
476.2229718342404
 31
0.0
  0
LINE
  5
65A
  8
1_PRZEJAZD_A
 10
888.7435413123786
 20
476.0149832298007
 30
0.0
 11
888.8828821157857
 21
476.1169084028314
 31
0.0
  0
LINE
  5
65B
  8
1_PRZEJAZD_A
 10
888.6726768696016
 20
475.9660376096915
 30
0.0
 11
888.7435413123786
 21
476.0149832298007
 31
0.0
  0
LINE
  5
65C
  8
1_PRZEJAZD_A
 10
888.6008822887055
 20
475.9186631728356
 30
0.0
 11
888.6726768696016
 21
475.9660376096915
 31
0.0
  0
LINE
  5
65D
  8
1_PRZEJAZD_A
 10
888.5280569866386
 20
475.8730298234704
 30
0.0
 11
888.6008822887055
 21
475.9186631728356
 31
0.0
  0
LINE
  5
65E
  8
1_PRZEJAZD_A
 10
888.4541003803478
 20
475.8293074658327
 30
0.0
 11
888.5280569866386
 21
475.8730298234704
 31
0.0
  0
LINE
  5
65F
  8
1_PRZEJAZD_A
 10
888.378911886781
 20
475.7876660041598
 30
0.0
 11
888.4541003803478
 21
475.8293074658327
 31
0.0
  0
LINE
  5
660
  8
1_PRZEJAZD_A
 10
888.3023909228859
 20
475.7482753426888
 30
0.0
 11
888.378911886781
 21
475.7876660041598
 31
0.0
  0
LINE
  5
661
  8
1_PRZEJAZD_A
 10
888.2635404839708
 20
475.7294858122899
 30
0.0
 11
888.3023909228859
 21
475.7482753426888
 31
0.0
  0
LINE
  5
662
  8
1_PRZEJAZD_A
 10
888.2242335418869
 20
475.7113817520353
 30
0.0
 11
888.2635404839708
 21
475.7294858122899
 31
0.0
  0
LINE
  5
663
  8
1_PRZEJAZD_A
 10
888.1845055685122
 20
475.6940470184017
 30
0.0
 11
888.2242335418869
 21
475.7113817520353
 31
0.0
  0
LINE
  5
664
  8
1_PRZEJAZD_A
 10
888.1443920357239
 20
475.6775654678656
 30
0.0
 11
888.1845055685122
 21
475.6940470184017
 31
0.0
  0
LINE
  5
665
  8
1_PRZEJAZD_A
 10
888.1039284153995
 20
475.662020956903
 30
0.0
 11
888.1443920357239
 21
475.6775654678656
 31
0.0
  0
LINE
  5
666
  8
1_PRZEJAZD_A
 10
888.063150179417
 20
475.647497341991
 30
0.0
 11
888.1039284153995
 21
475.662020956903
 31
0.0
  0
LINE
  5
667
  8
1_PRZEJAZD_A
 10
888.0220927996537
 20
475.6340784796058
 30
0.0
 11
888.063150179417
 21
475.647497341991
 31
0.0
  0
LINE
  5
668
  8
1_PRZEJAZD_A
 10
887.9807917479872
 20
475.621848226224
 30
0.0
 11
888.0220927996537
 21
475.6340784796058
 31
0.0
  0
LINE
  5
669
  8
1_PRZEJAZD_A
 10
887.9392467795284
 20
475.6109059555958
 30
0.0
 11
887.9807917479872
 21
475.621848226224
 31
0.0
  0
LINE
  5
66A
  8
1_PRZEJAZD_A
 10
887.8974337245676
 20
475.6012965138124
 30
0.0
 11
887.9392467795284
 21
475.6109059555958
 31
0.0
  0
LINE
  5
66B
  8
1_PRZEJAZD_A
 10
887.8553521677503
 20
475.5930219658613
 30
0.0
 11
887.8974337245676
 21
475.6012965138124
 31
0.0
  0
LINE
  5
66C
  8
1_PRZEJAZD_A
 10
887.813001693724
 20
475.58608437673
 30
0.0
 11
887.8553521677503
 21
475.5930219658613
 31
0.0
  0
LINE
  5
66D
  8
1_PRZEJAZD_A
 10
887.7703818871344
 20
475.5804858114063
 30
0.0
 11
887.813001693724
 21
475.58608437673
 31
0.0
  0
LINE
  5
66E
  8
1_PRZEJAZD_A
 10
887.727492332628
 20
475.5762283348776
 30
0.0
 11
887.7703818871344
 21
475.5804858114063
 31
0.0
  0
LINE
  5
66F
  8
1_PRZEJAZD_A
 10
887.6843326148512
 20
475.5733140121313
 30
0.0
 11
887.727492332628
 21
475.5762283348776
 31
0.0
  0
LINE
  5
670
  8
1_PRZEJAZD_A
 10
887.6409023184506
 20
475.5717449081553
 30
0.0
 11
887.6843326148512
 21
475.5733140121313
 31
0.0
  0
LINE
  5
671
  8
1_PRZEJAZD_A
 10
887.5974002524193
 20
475.571428497753
 30
0.0
 11
887.6409023184506
 21
475.5717449081553
 31
0.0
  0
LINE
  5
672
  8
1_PRZEJAZD_A
 10
887.5540246933793
 20
475.57223963073
 30
0.0
 11
887.5974002524193
 21
475.571428497753
 31
0.0
  0
LINE
  5
673
  8
1_PRZEJAZD_A
 10
887.5107744274203
 20
475.5741314345775
 30
0.0
 11
887.5540246933793
 21
475.57223963073
 31
0.0
  0
LINE
  5
674
  8
1_PRZEJAZD_A
 10
887.4676482406312
 20
475.5770570367859
 30
0.0
 11
887.5107744274203
 21
475.5741314345775
 31
0.0
  0
LINE
  5
675
  8
1_PRZEJAZD_A
 10
887.4246449191012
 20
475.5809695648463
 30
0.0
 11
887.4676482406312
 21
475.5770570367859
 31
0.0
  0
LINE
  5
676
  8
1_PRZEJAZD_A
 10
887.38176324892
 20
475.5858221462493
 30
0.0
 11
887.4246449191012
 21
475.5809695648463
 31
0.0
  0
LINE
  5
677
  8
1_PRZEJAZD_A
 10
887.3390020161769
 20
475.5915679084859
 30
0.0
 11
887.38176324892
 21
475.5858221462493
 31
0.0
  0
LINE
  5
678
  8
1_PRZEJAZD_A
 10
887.2963600069612
 20
475.5981599790465
 30
0.0
 11
887.3390020161769
 21
475.5915679084859
 31
0.0
  0
LINE
  5
679
  8
1_PRZEJAZD_A
 10
887.2538360073623
 20
475.6055514854223
 30
0.0
 11
887.2963600069612
 21
475.5981599790465
 31
0.0
  0
LINE
  5
67A
  8
1_PRZEJAZD_A
 10
887.2114288034692
 20
475.6136955551038
 30
0.0
 11
887.2538360073623
 21
475.6055514854223
 31
0.0
  0
LINE
  5
67B
  8
1_PRZEJAZD_A
 10
887.1269599271587
 20
475.6320538943477
 30
0.0
 11
887.2114288034692
 21
475.6136955551038
 31
0.0
  0
LINE
  5
67C
  8
1_PRZEJAZD_A
 10
887.0429436667443
 20
475.6528600167043
 30
0.0
 11
887.1269599271587
 21
475.6320538943477
 31
0.0
  0
LINE
  5
67D
  8
1_PRZEJAZD_A
 10
886.9593703109404
 20
475.6757389420998
 30
0.0
 11
887.0429436667443
 21
475.6528600167043
 31
0.0
  0
LINE
  5
67E
  8
1_PRZEJAZD_A
 10
886.8763603990591
 20
475.7004318278362
 30
0.0
 11
886.9593703109404
 21
475.6757389420998
 31
0.0
  0
LINE
  5
67F
  8
1_PRZEJAZD_A
 10
886.7940153881564
 20
475.7268630041793
 30
0.0
 11
886.8763603990591
 21
475.7004318278362
 31
0.0
  0
LINE
  5
680
  8
1_PRZEJAZD_A
 10
886.712296943565
 20
475.7549322505025
 30
0.0
 11
886.7940153881564
 21
475.7268630041793
 31
0.0
  0
LINE
  5
681
  8
1_PRZEJAZD_A
 10
886.6311667306168
 20
475.7845393461784
 30
0.0
 11
886.712296943565
 21
475.7549322505025
 31
0.0
  0
LINE
  5
682
  8
1_PRZEJAZD_A
 10
886.4705176609797
 20
475.8479662030824
 30
0.0
 11
886.6311667306168
 21
475.7845393461784
 31
0.0
  0
LINE
  5
683
  8
1_PRZEJAZD_A
 10
886.3117615019025
 20
475.9163418098759
 30
0.0
 11
886.4705176609797
 21
475.8479662030824
 31
0.0
  0
LINE
  5
684
  8
1_PRZEJAZD_A
 10
886.1547782173052
 20
475.988972941159
 30
0.0
 11
886.3117615019025
 21
475.9163418098759
 31
0.0
  0
LINE
  5
685
  8
1_PRZEJAZD_A
 10
885.9996649931823
 20
476.0654107807513
 30
0.0
 11
886.1547782173052
 21
475.988972941159
 31
0.0
  0
LINE
  5
686
  8
1_PRZEJAZD_A
 10
885.8464409853043
 20
476.1452201774667
 30
0.0
 11
885.9996649931823
 21
476.0654107807513
 31
0.0
  0
LINE
  5
687
  8
1_PRZEJAZD_A
 10
885.6951253494414
 20
476.2279659801193
 30
0.0
 11
885.8464409853043
 21
476.1452201774667
 31
0.0
  0
LINE
  5
688
  8
1_PRZEJAZD_A
 10
885.3975944774656
 20
476.4010914345561
 30
0.0
 11
885.6951253494414
 21
476.2279659801193
 31
0.0
  0
LINE
  5
689
  8
1_PRZEJAZD_A
 10
885.1059601064783
 20
476.5834671811182
 30
0.0
 11
885.3975944774656
 21
476.4010914345561
 31
0.0
  0
LINE
  5
68A
  8
1_PRZEJAZD_A
 10
884.8195292162989
 20
476.7740060260396
 30
0.0
 11
885.1059601064783
 21
476.5834671811182
 31
0.0
  0
LINE
  5
68B
  8
1_PRZEJAZD_A
 10
884.5376087867471
 20
476.9716207755538
 30
0.0
 11
884.8195292162989
 21
476.7740060260396
 31
0.0
  0
LINE
  5
68C
  8
1_PRZEJAZD_A
 10
884.2596405108957
 20
477.1754283058563
 30
0.0
 11
884.5376087867471
 21
476.9716207755538
 31
0.0
  0
LINE
  5
68D
  8
1_PRZEJAZD_A
 10
883.9854993257377
 20
477.3847921017755
 30
0.0
 11
884.2596405108957
 21
477.1754283058563
 31
0.0
  0
LINE
  5
68E
  8
1_PRZEJAZD_A
 10
883.4485256102975
 20
477.8173193671955
 30
0.0
 11
883.9854993257377
 21
477.3847921017755
 31
0.0
  0
LINE
  5
68F
  8
1_PRZEJAZD_A
 10
882.9255118669093
 20
478.2646419255104
 30
0.0
 11
883.4485256102975
 21
477.8173193671955
 31
0.0
  0
LINE
  5
690
  8
1_PRZEJAZD_A
 10
882.414299985669
 20
478.7247147036455
 30
0.0
 11
882.9255118669093
 21
478.2646419255104
 31
0.0
  0
LINE
  5
691
  8
1_PRZEJAZD_A
 10
881.9131572939076
 20
479.1956657972252
 30
0.0
 11
882.414299985669
 21
478.7247147036455
 31
0.0
  0
LINE
  5
692
  8
1_PRZEJAZD_A
 10
881.4209452266238
 20
479.6762651500199
 30
0.0
 11
881.9131572939076
 21
479.1956657972252
 31
0.0
  0
LINE
  5
693
  8
1_PRZEJAZD_A
 10
880.4596026555106
 20
480.6624001753823
 30
0.0
 11
881.4209452266238
 21
479.6762651500199
 31
0.0
  0
LINE
  5
694
  8
1_PRZEJAZD_A
 10
864.3170766638713
 20
497.876732837501
 30
0.0
 11
880.4596026555106
 21
480.6624001753823
 31
0.0
  0
LINE
  5
695
  8
1_PRZEJAZD_A
 10
861.5016065981949
 20
495.9648077471056
 30
0.0
 11
864.3170766638713
 21
497.876732837501
 31
0.0
  0
LINE
  5
696
  8
1_PRZEJAZD_A
 10
858.712915427731
 20
494.0153385911507
 30
0.0
 11
861.5016065981949
 21
495.9648077471056
 31
0.0
  0
LINE
  5
697
  8
1_PRZEJAZD_A
 10
857.3416889772922
 20
493.008190939144
 30
0.0
 11
858.712915427731
 21
494.0153385911507
 31
0.0
  0
LINE
  5
698
  8
1_PRZEJAZD_A
 10
855.9891555819806
 20
491.9748355858061
 30
0.0
 11
857.3416889772922
 21
493.008190939144
 31
0.0
  0
LINE
  5
699
  8
1_PRZEJAZD_A
 10
854.6597130278005
 20
490.912048973973
 30
0.0
 11
855.9891555819806
 21
491.9748355858061
 31
0.0
  0
LINE
  5
69A
  8
1_PRZEJAZD_A
 10
853.3610023733663
 20
489.8170119744153
 30
0.0
 11
854.6597130278005
 21
490.912048973973
 31
0.0
  0
LINE
  5
69B
  8
1_PRZEJAZD_A
 10
852.1000576591151
 20
488.6850543118381
 30
0.0
 11
853.3610023733663
 21
489.8170119744153
 31
0.0
  0
LINE
  5
69C
  8
1_PRZEJAZD_A
 10
851.4861497625966
 20
488.1026445437569
 30
0.0
 11
852.1000576591151
 21
488.6850543118381
 31
0.0
  0
LINE
  5
69D
  8
1_PRZEJAZD_A
 10
850.8847854488195
 20
487.5077923050119
 30
0.0
 11
851.4861497625966
 21
488.1026445437569
 31
0.0
  0
LINE
  5
69E
  8
1_PRZEJAZD_A
 10
850.2971523291433
 20
486.899319557413
 30
0.0
 11
850.8847854488195
 21
487.5077923050119
 31
0.0
  0
LINE
  5
69F
  8
1_PRZEJAZD_A
 10
849.7250848549934
 20
486.275406636793
 30
0.0
 11
850.2971523291433
 21
486.899319557413
 31
0.0
  0
LINE
  5
6A0
  8
1_PRZEJAZD_A
 10
849.1706787432199
 20
485.6339747195842
 30
0.0
 11
849.7250848549934
 21
486.275406636793
 31
0.0
  0
LINE
  5
6A1
  8
1_PRZEJAZD_A
 10
848.6360297106729
 20
484.9729449822184
 30
0.0
 11
849.1706787432199
 21
485.6339747195842
 31
0.0
  0
LINE
  5
6A2
  8
1_PRZEJAZD_A
 10
848.3766658899783
 20
484.6340983680807
 30
0.0
 11
848.6360297106729
 21
484.9729449822184
 31
0.0
  0
LINE
  5
6A3
  8
1_PRZEJAZD_A
 10
848.1232089077788
 20
484.2892041644233
 30
0.0
 11
848.3766658899783
 21
484.6340983680807
 31
0.0
  0
LINE
  5
6A4
  8
1_PRZEJAZD_A
 10
847.8765026029258
 20
483.9384484464292
 30
0.0
 11
848.1232089077788
 21
484.2892041644233
 31
0.0
  0
LINE
  5
6A5
  8
1_PRZEJAZD_A
 10
847.6373908142695
 20
483.5820172892809
 30
0.0
 11
847.8765026029258
 21
483.9384484464292
 31
0.0
  0
LINE
  5
6A6
  8
1_PRZEJAZD_A
 10
847.4069829050478
 20
483.2205651318322
 30
0.0
 11
847.6373908142695
 21
483.5820172892809
 31
0.0
  0
LINE
  5
6A7
  8
1_PRZEJAZD_A
 10
847.186160228576
 20
482.8544599606506
 30
0.0
 11
847.4069829050478
 21
483.2205651318322
 31
0.0
  0
LINE
  5
6A8
  8
1_PRZEJAZD_A
 10
846.9754246088214
 20
482.48345817249
 30
0.0
 11
847.186160228576
 21
482.8544599606506
 31
0.0
  0
LINE
  5
6A9
  8
1_PRZEJAZD_A
 10
846.7752778697516
 20
482.1073161641045
 30
0.0
 11
846.9754246088214
 21
482.48345817249
 31
0.0
  0
LINE
  5
6AA
  8
1_PRZEJAZD_A
 10
846.586236822274
 20
481.7257830570527
 30
0.0
 11
846.7752778697516
 21
482.1073161641045
 31
0.0
  0
LINE
  5
6AB
  8
1_PRZEJAZD_A
 10
846.4089102059947
 20
481.338563347426
 30
0.0
 11
846.586236822274
 21
481.7257830570527
 31
0.0
  0
LINE
  5
6AC
  8
1_PRZEJAZD_A
 10
846.2439377379279
 20
480.9453464937765
 30
0.0
 11
846.4089102059947
 21
481.338563347426
 31
0.0
  0
LINE
  5
6AD
  8
1_PRZEJAZD_A
 10
846.091959135088
 20
480.5458219546569
 30
0.0
 11
846.2439377379279
 21
480.9453464937765
 31
0.0
  0
LINE
  5
6AE
  8
1_PRZEJAZD_A
 10
846.0210523289604
 20
480.3434850622847
 30
0.0
 11
846.091959135088
 21
480.5458219546569
 31
0.0
  0
LINE
  5
6AF
  8
1_PRZEJAZD_A
 10
845.9536916456658
 20
480.139406479247
 30
0.0
 11
846.0210523289604
 21
480.3434850622847
 31
0.0
  0
LINE
  5
6B0
  8
1_PRZEJAZD_A
 10
845.8900140410044
 20
479.933811503157
 30
0.0
 11
845.9536916456658
 21
480.139406479247
 31
0.0
  0
LINE
  5
6B1
  8
1_PRZEJAZD_A
 10
845.8301564707758
 20
479.7269254316274
 30
0.0
 11
845.8900140410044
 21
479.933811503157
 31
0.0
  0
LINE
  5
6B2
  8
1_PRZEJAZD_A
 10
845.77425589078
 20
479.5189735622713
 30
0.0
 11
845.8301564707758
 21
479.7269254316274
 31
0.0
  0
LINE
  5
6B3
  8
1_PRZEJAZD_A
 10
845.7224492568165
 20
479.3101811927019
 30
0.0
 11
845.77425589078
 21
479.5189735622713
 31
0.0
  0
LINE
  5
6B4
  8
1_PRZEJAZD_A
 10
845.6748735246855
 20
479.1007736205316
 30
0.0
 11
845.7224492568165
 21
479.3101811927019
 31
0.0
  0
LINE
  5
6B5
  8
1_PRZEJAZD_A
 10
845.6316656501871
 20
478.890976143374
 30
0.0
 11
845.6748735246855
 21
479.1007736205316
 31
0.0
  0
LINE
  5
6B6
  8
1_PRZEJAZD_A
 10
845.5928600476102
 20
478.6808004023513
 30
0.0
 11
845.6316656501871
 21
478.890976143374
 31
0.0
  0
LINE
  5
6B7
  8
1_PRZEJAZD_A
 10
845.5584317127799
 20
478.4701040478652
 30
0.0
 11
845.5928600476102
 21
478.6808004023513
 31
0.0
  0
LINE
  5
6B8
  8
1_PRZEJAZD_A
 10
845.5284284737987
 20
478.2588813914459
 30
0.0
 11
845.5584317127799
 21
478.4701040478652
 31
0.0
  0
LINE
  5
6B9
  8
1_PRZEJAZD_A
 10
845.5028981587692
 20
478.0471267446238
 30
0.0
 11
845.5284284737987
 21
478.2588813914459
 31
0.0
  0
LINE
  5
6BA
  8
1_PRZEJAZD_A
 10
845.4818885957933
 20
477.8348344189296
 30
0.0
 11
845.5028981587692
 21
478.0471267446238
 31
0.0
  0
LINE
  5
6BB
  8
1_PRZEJAZD_A
 10
845.4654476129738
 20
477.6219987258938
 30
0.0
 11
845.4818885957933
 21
477.8348344189296
 31
0.0
  0
LINE
  5
6BC
  8
1_PRZEJAZD_A
 10
845.453623038413
 20
477.408613977047
 30
0.0
 11
845.4654476129738
 21
477.6219987258938
 31
0.0
  0
LINE
  5
6BD
  8
1_PRZEJAZD_A
 10
845.4464627002134
 20
477.1946744839194
 30
0.0
 11
845.453623038413
 21
477.408613977047
 31
0.0
  0
LINE
  5
6BE
  8
1_PRZEJAZD_A
 10
845.4440731336323
 20
476.9801040650976
 30
0.0
 11
845.4464627002134
 21
477.1946744839194
 31
0.0
  0
LINE
  5
6BF
  8
1_PRZEJAZD_A
 10
845.446515933555
 20
476.7650302478442
 30
0.0
 11
845.4440731336323
 21
476.9801040650976
 31
0.0
  0
LINE
  5
6C0
  8
1_PRZEJAZD_A
 10
845.4537715175253
 20
476.5497529067031
 30
0.0
 11
845.446515933555
 21
476.7650302478442
 31
0.0
  0
LINE
  5
6C1
  8
1_PRZEJAZD_A
 10
845.4658203030859
 20
476.3345719162186
 30
0.0
 11
845.4537715175253
 21
476.5497529067031
 31
0.0
  0
LINE
  5
6C2
  8
1_PRZEJAZD_A
 10
845.4826427077812
 20
476.119787150935
 30
0.0
 11
845.4658203030859
 21
476.3345719162186
 31
0.0
  0
LINE
  5
6C3
  8
1_PRZEJAZD_A
 10
845.5042191491546
 20
475.9056984853966
 30
0.0
 11
845.4826427077812
 21
476.119787150935
 31
0.0
  0
LINE
  5
6C4
  8
1_PRZEJAZD_A
 10
845.5305300447498
 20
475.6926057941473
 30
0.0
 11
845.5042191491546
 21
475.9056984853966
 31
0.0
  0
LINE
  5
6C5
  8
1_PRZEJAZD_A
 10
845.5615558121107
 20
475.4808089517317
 30
0.0
 11
845.5305300447498
 21
475.6926057941473
 31
0.0
  0
LINE
  5
6C6
  8
1_PRZEJAZD_A
 10
845.5972456858246
 20
475.2702902179556
 30
0.0
 11
845.5615558121107
 21
475.4808089517317
 31
0.0
  0
LINE
  5
6C7
  8
1_PRZEJAZD_A
 10
845.6375405130408
 20
475.0608270212811
 30
0.0
 11
845.5972456858246
 21
475.2702902179556
 31
0.0
  0
LINE
  5
6C8
  8
1_PRZEJAZD_A
 10
845.6824081301435
 20
474.8524119892367
 30
0.0
 11
845.6375405130408
 21
475.0608270212811
 31
0.0
  0
LINE
  5
6C9
  8
1_PRZEJAZD_A
 10
845.7318163735181
 20
474.6450377493505
 30
0.0
 11
845.6824081301435
 21
474.8524119892367
 31
0.0
  0
LINE
  5
6CA
  8
1_PRZEJAZD_A
 10
845.7857330795493
 20
474.438696929151
 30
0.0
 11
845.7318163735181
 21
474.6450377493505
 31
0.0
  0
LINE
  5
6CB
  8
1_PRZEJAZD_A
 10
845.8441260846218
 20
474.2333821561668
 30
0.0
 11
845.7857330795493
 21
474.438696929151
 31
0.0
  0
LINE
  5
6CC
  8
1_PRZEJAZD_A
 10
845.906963225121
 20
474.0290860579259
 30
0.0
 11
845.8441260846218
 21
474.2333821561668
 31
0.0
  0
LINE
  5
6CD
  8
1_PRZEJAZD_A
 10
845.9742123374314
 20
473.8258012619568
 30
0.0
 11
845.906963225121
 21
474.0290860579259
 31
0.0
  0
LINE
  5
6CE
  8
1_PRZEJAZD_A
 10
846.0459232649514
 20
473.623346284025
 30
0.0
 11
845.9742123374314
 21
473.8258012619568
 31
0.0
  0
LINE
  5
6CF
  8
1_PRZEJAZD_A
 10
846.1220126354573
 20
473.421835616026
 30
0.0
 11
846.0459232649514
 21
473.623346284025
 31
0.0
  0
LINE
  5
6D0
  8
1_PRZEJAZD_A
 10
846.2022484618985
 20
473.2217058496819
 30
0.0
 11
846.1220126354573
 21
473.421835616026
 31
0.0
  0
LINE
  5
6D1
  8
1_PRZEJAZD_A
 10
846.2863987572246
 20
473.0233935767152
 30
0.0
 11
846.2022484618985
 21
473.2217058496819
 31
0.0
  0
LINE
  5
6D2
  8
1_PRZEJAZD_A
 10
846.3741540763427
 20
472.827402955203
 30
0.0
 11
846.2863987572246
 21
473.0233935767152
 31
0.0
  0
LINE
  5
6D3
  8
1_PRZEJAZD_A
 10
846.4652891345651
 20
472.6338952903387
 30
0.0
 11
846.3741540763427
 21
472.827402955203
 31
0.0
  0
LINE
  5
6D4
  8
1_PRZEJAZD_A
 10
846.5596981854493
 20
472.4427928945186
 30
0.0
 11
846.4652891345651
 21
472.6338952903387
 31
0.0
  0
LINE
  5
6D5
  8
1_PRZEJAZD_A
 10
846.6572754825529
 20
472.2540180801384
 30
0.0
 11
846.5596981854493
 21
472.4427928945186
 31
0.0
  0
LINE
  5
6D6
  8
1_PRZEJAZD_A
 10
846.8615077119119
 20
471.8831374201515
 30
0.0
 11
846.6572754825529
 21
472.2540180801384
 31
0.0
  0
LINE
  5
6D7
  8
1_PRZEJAZD_A
 10
847.0772144976287
 20
471.5206866493095
 30
0.0
 11
846.8615077119119
 21
471.8831374201515
 31
0.0
  0
LINE
  5
6D8
  8
1_PRZEJAZD_A
 10
847.3036680145572
 20
471.1661310641256
 30
0.0
 11
847.0772144976287
 21
471.5206866493095
 31
0.0
  0
LINE
  5
6D9
  8
1_PRZEJAZD_A
 10
847.5401404375519
 20
470.8189359611131
 30
0.0
 11
847.3036680145572
 21
471.1661310641256
 31
0.0
  0
LINE
  5
6DA
  8
1_PRZEJAZD_A
 10
847.7859039414667
 20
470.4785666367844
 30
0.0
 11
847.5401404375519
 21
470.8189359611131
 31
0.0
  0
LINE
  5
6DB
  8
1_PRZEJAZD_A
 10
848.0402307011558
 20
470.1444883876532
 30
0.0
 11
847.7859039414667
 21
470.4785666367844
 31
0.0
  0
LINE
  5
6DC
  8
1_PRZEJAZD_A
 10
848.3023928914736
 20
469.8161665102321
 30
0.0
 11
848.0402307011558
 21
470.1444883876532
 31
0.0
  0
LINE
  5
6DD
  8
1_PRZEJAZD_A
 10
848.5716626872742
 20
469.493066301034
 30
0.0
 11
848.3023928914736
 21
469.8161665102321
 31
0.0
  0
LINE
  5
6DE
  8
1_PRZEJAZD_A
 10
849.1288010690494
 20
468.8604708442288
 30
0.0
 11
848.5716626872742
 21
469.493066301034
 31
0.0
  0
LINE
  5
6DF
  8
1_PRZEJAZD_A
 10
849.7055772757193
 20
468.242297441287
 30
0.0
 11
849.1288010690494
 21
468.8604708442288
 31
0.0
  0
LINE
  5
6E0
  8
1_PRZEJAZD_A
 10
850.8921532956483
 20
467.0308719718707
 30
0.0
 11
849.7055772757193
 21
468.242297441287
 31
0.0
  0
LINE
  5
6E1
  8
1_PRZEJAZD_A
 10
855.6265741624251
 20
462.1678998772944
 30
0.0
 11
850.8921532956483
 21
467.0308719718707
 31
0.0
  0
LINE
  5
6E2
  8
1_PRZEJAZD_A
 10
860.2548906003179
 20
457.2055379865687
 30
0.0
 11
855.6265741624251
 21
462.1678998772944
 31
0.0
  0
LINE
  5
6E3
  8
1_PRZEJAZD_A
 10
869.2949127231221
 20
447.0840087829097
 30
0.0
 11
860.2548906003179
 21
457.2055379865687
 31
0.0
  0
LINE
  5
6E4
  8
1_PRZEJAZD_A
 10
895.7918890274702
 20
416.1718665035786
 30
0.0
 11
869.2949127231221
 21
447.0840087829097
 31
0.0
  0
LINE
  5
6E5
  8
1_PRZEJAZD_A
 10
895.7918890274354
 20
437.3464488660118
 30
0.0
 11
895.7918890274702
 21
416.1718665035786
 31
0.0
  0
LINE
  5
6E6
  8
1_PRZEJAZD_A
 10
893.6705686838758
 20
439.4677692095714
 30
0.0
 11
895.7918890274354
 21
437.3464488660118
 31
0.0
  0
ARC
  5
6E7
  8
1_PRZEJAZD_A
 10
576.947673297558
 20
493.8177243972324
 30
0.0
 40
9.000000000000032
 50
59.99999999999678
 51
179.9999999999971
  0
LINE
  5
6E8
  8
1_PRZEJAZD_A
 10
846.4762946241136
 20
348.5976071653922
 30
0.0
 11
581.4476732975585
 21
501.6119530312922
 31
0.0
  0
LINE
  5
6E9
  8
1_PRZEJAZD_A
 10
863.8589899794719
 20
338.5617033227351
 30
0.0
 11
846.4762946241136
 21
348.5976071653922
 31
0.0
  0
LINE
  5
6EA
  8
1_PRZEJAZD_A
 10
887.7377539214829
 20
324.7752925328595
 30
0.0
 11
863.8589899794719
 21
338.5617033227351
 31
0.0
  0
ARC
  5
6EB
  8
1_PRZEJAZD_A
 10
883.2377539214823
 20
316.9810638987998
 30
0.0
 40
9.000000000000057
 50
299.9999999999972
 51
59.99999999999615
  0
LINE
  5
6EC
  8
1_PRZEJAZD_A
 10
618.4511686784139
 20
153.714152785517
 30
0.0
 11
887.737753921482
 21
309.1868352647396
 31
0.0
  0
LINE
  5
6ED
  8
1_PRZEJAZD_A
 10
602.849264721244
 20
144.7063893359753
 30
0.0
 11
618.4511686784139
 21
153.714152785517
 31
0.0
  0
LINE
  5
6EE
  8
1_PRZEJAZD_A
 10
581.4476732975229
 20
132.3501747664041
 30
0.0
 11
602.849264721244
 21
144.7063893359753
 31
0.0
  0
ARC
  5
6EF
  8
1_PRZEJAZD_A
 10
576.9476732975232
 20
140.1444034004643
 30
0.0
 40
9.000000000000014
 50
179.9999999999982
 51
299.9999999999974
  0
LINE
  5
6F0
  8
1_PRZEJAZD_A
 10
567.9476732975235
 20
358.3749298664681
 30
0.0
 11
567.9476732975232
 21
140.1444034004646
 31
0.0
  0
LINE
  5
6F1
  8
1_PRZEJAZD_A
 10
567.9476732975235
 20
373.3749298664681
 30
0.0
 11
567.9476732975235
 21
358.3749298664681
 31
0.0
  0
LINE
  5
6F2
  8
1_PRZEJAZD_A
 10
567.9476732975235
 20
539.8483524358556
 30
0.0
 11
567.9476732975235
 21
373.3749298664681
 31
0.0
  0
LINE
  5
6F3
  8
1_PRZEJAZD_A
 10
552.9476732975235
 20
539.8483524358556
 30
0.0
 11
567.9476732975235
 21
539.8483524358556
 31
0.0
  0
LINE
  5
6F4
  8
1_PRZEJAZD_A
 10
548.9476732975235
 20
539.8483524358556
 30
0.0
 11
552.9476732975235
 21
539.8483524358556
 31
0.0
  0
LINE
  5
6F5
  8
1_PRZEJAZD_A
 10
96.94665033052343
 20
102.5683524358556
 30
0.0
 11
100.9466503305234
 21
102.5683524358556
 31
0.0
  0
LINE
  5
6F6
  8
1_PRZEJAZD_A
 10
81.94665033052331
 20
102.5683524358556
 30
0.0
 11
96.94665033052343
 21
102.5683524358556
 31
0.0
  0
LINE
  5
6F7
  8
1_PRZEJAZD_A
 10
81.94665033052331
 20
260.1981962582357
 30
0.0
 11
81.94665033052331
 21
102.5683524358556
 31
0.0
  0
LINE
  5
6F8
  8
1_PRZEJAZD_A
 10
81.94665033052331
 20
275.1981962582357
 30
0.0
 11
81.94665033052331
 21
260.1981962582357
 31
0.0
  0
LINE
  5
6F9
  8
1_PRZEJAZD_A
 10
81.94665033052331
 20
439.9883524358556
 30
0.0
 11
81.94665033052331
 21
275.1981962582357
 31
0.0
  0
LINE
  5
6FA
  8
1_PRZEJAZD_A
 10
104.9466503305233
 20
439.9883524358556
 30
0.0
 11
81.94665033052331
 21
439.9883524358556
 31
0.0
  0
LINE
  5
6FB
  8
1_PRZEJAZD_A
 10
104.9466503305233
 20
419.2083524358557
 30
0.0
 11
104.9466503305233
 21
439.9883524358556
 31
0.0
  0
LINE
  5
6FC
  8
1_PRZEJAZD_A
 10
289.9471618140234
 20
81.78835243585559
 30
0.0
 11
289.9471618140234
 21
102.5683524358556
 31
0.0
  0
LINE
  5
6FD
  8
1_PRZEJAZD_A
 10
263.2091579525614
 20
81.78835243585559
 30
0.0
 11
289.9471618140234
 21
81.78835243585559
 31
0.0
  0
LINE
  5
6FE
  8
1_PRZEJAZD_A
 10
248.2091579525614
 20
81.78835243585559
 30
0.0
 11
263.2091579525614
 21
81.78835243585559
 31
0.0
  0
LINE
  5
6FF
  8
1_PRZEJAZD_A
 10
220.2803246528234
 20
81.78835243585559
 30
0.0
 11
248.2091579525614
 21
81.78835243585559
 31
0.0
  0
LINE
  5
700
  8
1_PRZEJAZD_A
 10
220.2803246528234
 20
102.5683524358556
 30
0.0
 11
220.2803246528234
 21
81.78835243585559
 31
0.0
  0
LINE
  5
701
  8
1_PRZEJAZD_A
 10
367.9471618140234
 20
202.4283524358558
 30
0.0
 11
367.9471618140234
 21
223.2083524358555
 31
0.0
  0
LINE
  5
702
  8
1_PRZEJAZD_A
 10
339.6521757596144
 20
202.4283524358558
 30
0.0
 11
367.9471618140234
 21
202.4283524358558
 31
0.0
  0
LINE
  5
703
  8
1_PRZEJAZD_A
 10
324.6521757596144
 20
202.4283524358558
 30
0.0
 11
339.6521757596144
 21
202.4283524358558
 31
0.0
  0
LINE
  5
704
  8
1_PRZEJAZD_A
 10
298.2803246529234
 20
202.4283524358558
 30
0.0
 11
324.6521757596144
 21
202.4283524358558
 31
0.0
  0
LINE
  5
705
  8
1_PRZEJAZD_A
 10
298.2803246529234
 20
223.2083524358555
 30
0.0
 11
298.2803246529234
 21
202.4283524358558
 31
0.0
  0
LINE
  5
706
  8
1_PRZEJAZD_A
 10
281.9471618140234
 20
439.9883524358556
 30
0.0
 11
281.9471618140234
 21
419.2083524358557
 31
0.0
  0
LINE
  5
707
  8
1_PRZEJAZD_A
 10
309.6360375650816
 20
439.9883524358556
 30
0.0
 11
281.9471618140234
 21
439.9883524358556
 31
0.0
  0
LINE
  5
708
  8
1_PRZEJAZD_A
 10
324.6360375650816
 20
439.9883524358556
 30
0.0
 11
309.6360375650816
 21
439.9883524358556
 31
0.0
  0
LINE
  5
709
  8
1_PRZEJAZD_A
 10
351.6139989752234
 20
439.9883524358556
 30
0.0
 11
324.6360375650816
 21
439.9883524358556
 31
0.0
  0
LINE
  5
70A
  8
1_PRZEJAZD_A
 10
351.6139989752234
 20
419.2083524358557
 30
0.0
 11
351.6139989752234
 21
439.9883524358556
 31
0.0
  0
LINE
  5
70B
  8
1_PRZEJAZD_A
 10
497.3666503305233
 20
575.6283524358556
 30
0.0
 11
497.3666503305233
 21
579.6283524358556
 31
0.0
  0
LINE
  5
70C
  8
1_PRZEJAZD_A
 10
497.3666503305233
 20
560.6278409523557
 30
0.0
 11
497.3666503305233
 21
575.6283524358556
 31
0.0
  0
LINE
  5
70D
  8
1_PRZEJAZD_A
 10
278.9635198735381
 20
560.6283524358556
 30
0.0
 11
497.3666503305233
 21
560.6278409523557
 31
0.0
  0
LINE
  5
70E
  8
1_PRZEJAZD_A
 10
263.9635198735381
 20
560.6283524358556
 30
0.0
 11
278.9635198735381
 21
560.6283524358556
 31
0.0
  0
LINE
  5
70F
  8
1_PRZEJAZD_A
 10
159.9466503305234
 20
560.6283524358556
 30
0.0
 11
263.9635198735381
 21
560.6283524358556
 31
0.0
  0
LINE
  5
710
  8
1_PRZEJAZD_A
 10
159.9466503305234
 20
583.6283524358556
 30
0.0
 11
159.9466503305234
 21
560.6283524358556
 31
0.0
  0
LINE
  5
711
  8
1_PRZEJAZD_A
 10
180.7266503305235
 20
583.6283524358556
 30
0.0
 11
159.9466503305234
 21
583.6283524358556
 31
0.0
  0
LINE
  5
712
  8
1_PRZEJAZD_A
 10
71.00665033052337
 20
961.962708736156
 30
0.0
 11
91.78665033052339
 21
961.962708736156
 31
0.0
  0
LINE
  5
713
  8
1_PRZEJAZD_A
 10
71.00665033052337
 20
990.3780991640272
 30
0.0
 11
71.00665033052337
 21
961.962708736156
 31
0.0
  0
LINE
  5
714
  8
1_PRZEJAZD_A
 10
71.00665033052337
 20
1005.378099164027
 30
0.0
 11
71.00665033052337
 21
990.3780991640272
 31
0.0
  0
LINE
  5
715
  8
1_PRZEJAZD_A
 10
71.00665033052337
 20
1031.629375402856
 30
0.0
 11
71.00665033052337
 21
1005.378099164027
 31
0.0
  0
LINE
  5
716
  8
1_PRZEJAZD_A
 10
91.78665033052339
 20
1031.629375402856
 30
0.0
 11
71.00665033052337
 21
1031.629375402856
 31
0.0
  0
LINE
  5
717
  8
1_PRZEJAZD_A
 10
159.9466503305234
 20
760.6288639193557
 30
0.0
 11
180.7266503305235
 21
760.6288639193557
 31
0.0
  0
LINE
  5
718
  8
1_PRZEJAZD_A
 10
159.9466503305234
 20
786.0407578843025
 30
0.0
 11
159.9466503305234
 21
760.6288639193557
 31
0.0
  0
LINE
  5
719
  8
1_PRZEJAZD_A
 10
159.9466503305234
 20
801.0407578843026
 30
0.0
 11
159.9466503305234
 21
786.0407578843025
 31
0.0
  0
LINE
  5
71A
  8
1_PRZEJAZD_A
 10
159.9466503305234
 20
830.2957010804558
 30
0.0
 11
159.9466503305234
 21
801.0407578843026
 31
0.0
  0
LINE
  5
71B
  8
1_PRZEJAZD_A
 10
180.7266503305235
 20
830.2957010804558
 30
0.0
 11
159.9466503305234
 21
830.2957010804558
 31
0.0
  0
LINE
  5
71C
  8
1_PRZEJAZD_A
 10
366.0066503305234
 20
776.9627087361558
 30
0.0
 11
345.2266503305235
 21
776.9627087361558
 31
0.0
  0
LINE
  5
71D
  8
1_PRZEJAZD_A
 10
366.0066503305234
 20
805.8993645783892
 30
0.0
 11
366.0066503305234
 21
776.9627087361558
 31
0.0
  0
LINE
  5
71E
  8
1_PRZEJAZD_A
 10
366.0066503305234
 20
820.8993645783892
 30
0.0
 11
366.0066503305234
 21
805.8993645783892
 31
0.0
  0
LINE
  5
71F
  8
1_PRZEJAZD_A
 10
366.0066503305234
 20
846.6293754028558
 30
0.0
 11
366.0066503305234
 21
820.8993645783892
 31
0.0
  0
LINE
  5
720
  8
1_PRZEJAZD_A
 10
345.2266503305235
 20
846.6293754028558
 30
0.0
 11
366.0066503305234
 21
846.6293754028558
 31
0.0
  0
LINE
  5
721
  8
1_PRZEJAZD_A
 10
227.7523646162234
 20
1046.629375402856
 30
0.0
 11
227.7523646162234
 21
1042.629375402856
 31
0.0
  0
LINE
  5
722
  8
1_PRZEJAZD_A
 10
227.7523646162234
 20
1064.629375402856
 30
0.0
 11
227.7523646162234
 21
1046.629375402856
 31
0.0
  0
LINE
  5
723
  8
1_PRZEJAZD_A
 10
237.5282648317176
 20
1064.629375402856
 30
0.0
 11
227.7523646162234
 21
1064.629375402856
 31
0.0
  0
LINE
  5
724
  8
1_PRZEJAZD_A
 10
252.5282648317176
 20
1064.629375402856
 30
0.0
 11
237.5282648317176
 21
1064.629375402856
 31
0.0
  0
LINE
  5
725
  8
1_PRZEJAZD_A
 10
262.2437931876233
 20
1064.629375402856
 30
0.0
 11
252.5282648317176
 21
1064.629375402856
 31
0.0
  0
LINE
  5
726
  8
1_PRZEJAZD_A
 10
262.2437931876233
 20
1046.629375402856
 30
0.0
 11
262.2437931876233
 21
1064.629375402856
 31
0.0
  0
LINE
  5
727
  8
1_PRZEJAZD_A
 10
262.2437931876233
 20
1042.629375402856
 30
0.0
 11
262.2437931876233
 21
1046.629375402856
 31
0.0
  0
LINE
  5
728
  8
1_PRZEJAZD_A
 10
742.3495074733232
 20
1046.629375402856
 30
0.0
 11
742.3495074733232
 21
1042.629375402856
 31
0.0
  0
LINE
  5
729
  8
1_PRZEJAZD_A
 10
742.3495074733232
 20
1064.629375402856
 30
0.0
 11
742.3495074733232
 21
1046.629375402856
 31
0.0
  0
LINE
  5
72A
  8
1_PRZEJAZD_A
 10
752.1203704116054
 20
1064.629375402856
 30
0.0
 11
742.3495074733232
 21
1064.629375402856
 31
0.0
  0
LINE
  5
72B
  8
1_PRZEJAZD_A
 10
767.1203704116054
 20
1064.629375402856
 30
0.0
 11
752.1203704116054
 21
1064.629375402856
 31
0.0
  0
LINE
  5
72C
  8
1_PRZEJAZD_A
 10
776.8409360448234
 20
1064.629375402856
 30
0.0
 11
767.1203704116054
 21
1064.629375402856
 31
0.0
  0
LINE
  5
72D
  8
1_PRZEJAZD_A
 10
776.8409360448234
 20
1046.629375402856
 30
0.0
 11
776.8409360448234
 21
1064.629375402856
 31
0.0
  0
LINE
  5
72E
  8
1_PRZEJAZD_A
 10
776.8409360448234
 20
1042.629375402856
 30
0.0
 11
776.8409360448234
 21
1046.629375402856
 31
0.0
  0
LINE
  5
72F
  8
1_PRZEJAZD_A
 10
813.1466503305234
 20
760.6293754028558
 30
0.0
 11
792.3666503305234
 21
760.6293754028558
 31
0.0
  0
LINE
  5
730
  8
1_PRZEJAZD_A
 10
813.1466503305234
 20
789.6152595002345
 30
0.0
 11
813.1466503305234
 21
760.6293754028558
 31
0.0
  0
LINE
  5
731
  8
1_PRZEJAZD_A
 10
813.1466503305234
 20
804.6152595002346
 30
0.0
 11
813.1466503305234
 21
789.6152595002345
 31
0.0
  0
LINE
  5
732
  8
1_PRZEJAZD_A
 10
813.1466503305234
 20
830.2960420694557
 30
0.0
 11
813.1466503305234
 21
804.6152595002346
 31
0.0
  0
LINE
  5
733
  8
1_PRZEJAZD_A
 10
792.3666503305234
 20
830.2960420694557
 30
0.0
 11
813.1466503305234
 21
830.2960420694557
 31
0.0
  0
LINE
  5
734
  8
1_PRZEJAZD_A
 10
638.5866503305233
 20
715.2960420695557
 30
0.0
 11
659.3666503305233
 21
715.2960420695557
 31
0.0
  0
LINE
  5
735
  8
1_PRZEJAZD_A
 10
638.5866503305233
 20
742.5039972545911
 30
0.0
 11
638.5866503305233
 21
715.2960420695557
 31
0.0
  0
LINE
  5
736
  8
1_PRZEJAZD_A
 10
638.5866503305233
 20
757.5039972545911
 30
0.0
 11
638.5866503305233
 21
742.5039972545911
 31
0.0
  0
LINE
  5
737
  8
1_PRZEJAZD_A
 10
638.5866503305233
 20
784.9627087361558
 30
0.0
 11
638.5866503305233
 21
757.5039972545911
 31
0.0
  0
LINE
  5
738
  8
1_PRZEJAZD_A
 10
659.3666503305233
 20
784.9627087361558
 30
0.0
 11
638.5866503305233
 21
784.9627087361558
 31
0.0
  0
LINE
  5
739
  8
1_PRZEJAZD_A
 10
518.1466503305234
 20
867.2480325161005
 30
0.0
 11
518.1466503305234
 21
891.962708736156
 31
0.0
  0
LINE
  5
73A
  8
1_PRZEJAZD_A
 10
518.1466503305234
 20
852.2480325161005
 30
0.0
 11
518.1466503305234
 21
867.2480325161005
 31
0.0
  0
LINE
  5
73B
  8
1_PRZEJAZD_A
 10
518.1466503305234
 20
822.2960420694557
 30
0.0
 11
518.1466503305234
 21
852.2480325161005
 31
0.0
  0
LINE
  5
73C
  8
1_PRZEJAZD_A
 10
518.1466503305234
 20
608.4780187669346
 30
0.0
 11
518.1466503305234
 21
645.2960420694557
 31
0.0
  0
LINE
  5
73D
  8
1_PRZEJAZD_A
 10
518.1466503305234
 20
593.4780187669346
 30
0.0
 11
518.1466503305234
 21
608.4780187669346
 31
0.0
  0
LINE
  5
73E
  8
1_PRZEJAZD_A
 10
518.1466503305234
 20
575.6293754028555
 30
0.0
 11
518.1466503305234
 21
593.4780187669346
 31
0.0
  0
LINE
  5
73F
  8
1_PRZEJAZD_A
 10
674.8923646162233
 20
546.6293754028555
 30
0.0
 11
674.8923646162233
 21
564.6293754028555
 31
0.0
  0
LINE
  5
740
  8
1_PRZEJAZD_A
 10
674.8923646162733
 20
542.6293754028555
 30
0.0
 11
674.8923646162233
 21
546.6293754028555
 31
0.0
  0
LINE
  5
741
  8
1_PRZEJAZD_A
 10
686.9511911507218
 20
542.6293754028555
 30
0.0
 11
674.8923646162733
 21
542.6293754028555
 31
0.0
  0
LINE
  5
742
  8
1_PRZEJAZD_A
 10
701.9511911507218
 20
542.6293754028555
 30
0.0
 11
686.9511911507218
 21
542.6293754028555
 31
0.0
  0
LINE
  5
743
  8
1_PRZEJAZD_A
 10
709.3837931876733
 20
542.6293754028555
 30
0.0
 11
701.9511911507218
 21
542.6293754028555
 31
0.0
  0
LINE
  5
744
  8
1_PRZEJAZD_A
 10
709.3837931876234
 20
546.6293754028555
 30
0.0
 11
709.3837931876733
 21
542.6293754028555
 31
0.0
  0
LINE
  5
745
  8
1_PRZEJAZD_A
 10
709.3837931876234
 20
564.6293754028555
 30
0.0
 11
709.3837931876234
 21
546.6293754028555
 31
0.0
  0
LINE
  5
746
  8
1_PRZEJAZD_A
 10
933.5866503305233
 20
821.8386586734769
 30
0.0
 11
933.5866503305233
 21
791.9006837048164
 31
0.0
  0
LINE
  5
747
  8
1_PRZEJAZD_A
 10
933.5866503305233
 20
846.6293754028558
 30
0.0
 11
933.5866503305233
 21
821.8386586734769
 31
0.0
  0
LINE
  5
748
  8
1_PRZEJAZD_A
 10
912.8066503305233
 20
846.6293754028558
 30
0.0
 11
933.5866503305233
 21
846.6293754028558
 31
0.0
  0
LINE
  5
749
  8
1_PRZEJAZD_A
 62
     1
 10
912.8066503305233
 20
653.6293754028555
 30
0.0
 11
912.8066503305233
 21
657.6293754028555
 31
0.0
  0
LINE
  5
74A
  8
1_PRZEJAZD_A
 62
     1
 10
912.8066503305233
 20
638.6293754028555
 30
0.0
 11
912.8066503305233
 21
653.6293754028555
 31
0.0
  0
LINE
  5
74B
  8
1_PRZEJAZD_A
 62
     1
 10
865.3066503305233
 20
638.6293754028555
 30
0.0
 11
912.8066503305233
 21
638.6293754028555
 31
0.0
  0
LINE
  5
74C
  8
1_PRZEJAZD_A
 62
     1
 10
865.3066503305233
 20
968.6293754028557
 30
0.0
 11
865.3066503305233
 21
638.6293754028555
 31
0.0
  0
LINE
  5
74D
  8
1_PRZEJAZD_A
 62
     1
 10
706.8666503305234
 20
968.6293754028557
 30
0.0
 11
865.3066503305233
 21
968.6293754028557
 31
0.0
  0
LINE
  5
74E
  8
1_PRZEJAZD_A
 62
     1
 10
706.8666503305234
 20
638.6293754028555
 30
0.0
 11
706.8666503305234
 21
968.6293754028557
 31
0.0
  0
LINE
  5
74F
  8
1_PRZEJAZD_A
 10
259.7266503305235
 20
638.6293754028555
 30
0.0
 11
259.7266503305235
 21
968.6293754028557
 31
0.0
  0
LINE
  5
750
  8
1_PRZEJAZD_A
 10
418.3666503305233
 20
638.6283524358556
 30
0.0
 11
259.7266503305235
 21
638.6293754028555
 31
0.0
  0
LINE
  5
751
  8
1_PRZEJAZD_A
 10
418.3666503305233
 20
968.6293754028557
 30
0.0
 11
418.3666503305233
 21
638.6283524358556
 31
0.0
  0
LINE
  5
752
  8
1_PRZEJAZD_A
 10
452.1685210691448
 20
968.6293754028557
 30
0.0
 11
418.3666503305233
 21
968.6293754028557
 31
0.0
  0
LINE
  5
753
  8
1_PRZEJAZD_A
 10
467.1685210691448
 20
968.6293754028557
 30
0.0
 11
452.1685210691448
 21
968.6293754028557
 31
0.0
  0
LINE
  5
754
  8
1_PRZEJAZD_A
 10
518.1466503305234
 20
968.6293754028557
 30
0.0
 11
467.1685210691448
 21
968.6293754028557
 31
0.0
  0
LINE
  5
755
  8
1_PRZEJAZD_A
 10
562.0587200472205
 20
968.6293754028557
 30
0.0
 11
518.1466503305234
 21
968.6293754028557
 31
0.0
  0
LINE
  5
756
  8
1_PRZEJAZD_A
 10
577.0587200472205
 20
968.6293754028557
 30
0.0
 11
562.0587200472205
 21
968.6293754028557
 31
0.0
  0
LINE
  5
757
  8
1_PRZEJAZD_A
 10
586.4266503305233
 20
968.6293754028557
 30
0.0
 11
577.0587200472205
 21
968.6293754028557
 31
0.0
  0
LINE
  5
758
  8
1_PRZEJAZD_A
 10
586.4266503305233
 20
638.6293754028555
 30
0.0
 11
586.4266503305233
 21
968.6293754028557
 31
0.0
  0
LINE
  5
759
  8
1_PRZEJAZD_A
 10
744.8666503305234
 20
638.6293754028555
 30
0.0
 11
586.4266503305233
 21
638.6293754028555
 31
0.0
  0
LINE
  5
75A
  8
1_PRZEJAZD_A
 10
744.8666503305234
 20
968.6293754028557
 30
0.0
 11
744.8666503305234
 21
638.6293754028555
 31
0.0
  0
LINE
  5
75B
  8
1_PRZEJAZD_A
 62
     1
 10
933.5866503305233
 20
776.9627087361558
 30
0.0
 11
933.5866503305233
 21
806.838658673477
 31
0.0
  0
LINE
  5
75C
  8
1_PRZEJAZD_A
 62
     1
 10
912.8066503305233
 20
776.9627087361558
 30
0.0
 11
933.5866503305233
 21
776.9627087361558
 31
0.0
  0
LINE
  5
75D
  8
1_PRZEJAZD_A
 62
     1
 10
297.7266503305235
 20
968.6293754028557
 30
0.0
 11
297.7266503305235
 21
638.6293754028555
 31
0.0
  0
LINE
  5
75E
  8
1_PRZEJAZD_A
 62
     1
 10
139.2866503305233
 20
968.6293754028557
 30
0.0
 11
297.7266503305235
 21
968.6293754028557
 31
0.0
  0
LINE
  5
75F
  8
1_PRZEJAZD_A
 62
     1
 10
139.2866503305233
 20
638.6293754028555
 30
0.0
 11
139.2866503305233
 21
968.6293754028557
 31
0.0
  0
LINE
  5
760
  8
1_PRZEJAZD_A
 62
     1
 10
71.00665033052337
 20
638.6293754028555
 30
0.0
 11
139.2866503305233
 21
638.6293754028555
 31
0.0
  0
LINE
  5
761
  8
1_PRZEJAZD_A
 62
     1
 10
71.00665033052337
 20
661.6293754028555
 30
0.0
 11
71.00665033052337
 21
638.6293754028555
 31
0.0
  0
LINE
  5
762
  8
1_PRZEJAZD_A
 62
     1
 10
91.78665033052339
 20
661.6293754028555
 30
0.0
 11
71.00665033052337
 21
661.6293754028555
 31
0.0
  0
LINE
  5
763
  8
1_PRZEJAZD_A
 62
     1
 10
568.9266503305233
 20
546.6293754028555
 30
0.0
 11
568.9266503305233
 21
564.6293754028555
 31
0.0
  0
LINE
  5
764
  8
1_PRZEJAZD_A
 62
     1
 10
568.9266503305233
 20
542.6293754028555
 30
0.0
 11
568.9266503305233
 21
546.6293754028555
 31
0.0
  0
LINE
  5
765
  8
1_PRZEJAZD_A
 62
     1
 10
603.4180789019733
 20
542.6293754028555
 30
0.0
 11
568.9266503305233
 21
542.6293754028555
 31
0.0
  0
LINE
  5
766
  8
1_PRZEJAZD_A
 62
     1
 10
603.4180789019232
 20
546.6293754028555
 30
0.0
 11
603.4180789019733
 21
542.6293754028555
 31
0.0
  0
LINE
  5
767
  8
1_PRZEJAZD_A
 62
     1
 10
603.4180789019232
 20
564.6293754028555
 30
0.0
 11
603.4180789019232
 21
546.6293754028555
 31
0.0
  0
LINE
  5
768
  8
1_PRZEJAZD_A
 62
     1
 10
727.8752217591233
 20
546.6293754028555
 30
0.0
 11
727.8752217591233
 21
564.6293754028555
 31
0.0
  0
LINE
  5
769
  8
1_PRZEJAZD_A
 62
     1
 10
727.8752217591233
 20
542.6293754028555
 30
0.0
 11
727.8752217591233
 21
546.6293754028555
 31
0.0
  0
LINE
  5
76A
  8
1_PRZEJAZD_A
 62
     1
 10
762.3666503305234
 20
542.6293754028555
 30
0.0
 11
727.8752217591233
 21
542.6293754028555
 31
0.0
  0
LINE
  5
76B
  8
1_PRZEJAZD_A
 62
     1
 10
762.3666503305234
 20
546.6293754028555
 30
0.0
 11
762.3666503305234
 21
542.6293754028555
 31
0.0
  0
LINE
  5
76C
  8
1_PRZEJAZD_A
 62
     1
 10
762.3666503305234
 20
564.6293754028555
 30
0.0
 11
762.3666503305234
 21
546.6293754028555
 31
0.0
  0
LINE
  5
76D
  8
1_PRZEJAZD_A
 62
     1
 10
483.2808361364234
 20
560.6283524358556
 30
0.0
 11
483.2808361364234
 21
539.8483524358556
 31
0.0
  0
LINE
  5
76E
  8
1_PRZEJAZD_A
 62
     1
 10
552.9476732975235
 20
560.6283524358556
 30
0.0
 11
483.2808361364234
 21
560.6283524358556
 31
0.0
  0
LINE
  5
76F
  8
1_PRZEJAZD_A
 62
     1
 10
552.9476732975235
 20
539.8483524358556
 30
0.0
 11
552.9476732975235
 21
560.6283524358556
 31
0.0
  0
LINE
  5
770
  8
1_PRZEJAZD_A
 62
     1
 10
71.00665033052337
 20
838.6293754028558
 30
0.0
 11
91.78665033052339
 21
838.6293754028558
 31
0.0
  0
LINE
  5
771
  8
1_PRZEJAZD_A
 62
     1
 10
71.00665033052337
 20
908.2960420695558
 30
0.0
 11
71.00665033052337
 21
838.6293754028558
 31
0.0
  0
LINE
  5
772
  8
1_PRZEJAZD_A
 62
     1
 10
91.78665033052339
 20
908.2960420695558
 30
0.0
 11
71.00665033052337
 21
908.2960420695558
 31
0.0
  0
LINE
  5
773
  8
1_PRZEJAZD_A
 62
     1
 10
71.00665033052337
 20
715.2960420695557
 30
0.0
 11
91.78665033052339
 21
715.2960420695557
 31
0.0
  0
LINE
  5
774
  8
1_PRZEJAZD_A
 62
     1
 10
71.00665033052337
 20
784.9627087361558
 30
0.0
 11
71.00665033052337
 21
715.2960420695557
 31
0.0
  0
LINE
  5
775
  8
1_PRZEJAZD_A
 62
     1
 10
91.78665033052339
 20
784.9627087361558
 30
0.0
 11
71.00665033052337
 21
784.9627087361558
 31
0.0
  0
LINE
  5
776
  8
1_PRZEJAZD_A
 62
     1
 10
159.9466503305234
 20
883.9625382416557
 30
0.0
 11
180.7266503305235
 21
883.9625382416557
 31
0.0
  0
LINE
  5
777
  8
1_PRZEJAZD_A
 62
     1
 10
159.9466503305234
 20
953.6293754028557
 30
0.0
 11
159.9466503305234
 21
883.9625382416557
 31
0.0
  0
LINE
  5
778
  8
1_PRZEJAZD_A
 62
     1
 10
180.7266503305235
 20
953.6293754028557
 30
0.0
 11
159.9466503305234
 21
953.6293754028557
 31
0.0
  0
LINE
  5
779
  8
1_PRZEJAZD_A
 62
     1
 10
159.9466503305234
 20
637.2951895969557
 30
0.0
 11
180.7266503305235
 21
637.2951895969557
 31
0.0
  0
LINE
  5
77A
  8
1_PRZEJAZD_A
 62
     1
 10
159.9466503305234
 20
706.9620267581557
 30
0.0
 11
159.9466503305234
 21
637.2951895969557
 31
0.0
  0
LINE
  5
77B
  8
1_PRZEJAZD_A
 62
     1
 10
180.7266503305235
 20
706.9620267581557
 30
0.0
 11
159.9466503305234
 21
706.9620267581557
 31
0.0
  0
LINE
  5
77C
  8
1_PRZEJAZD_A
 62
     1
 10
366.0066503305234
 20
900.2960420695558
 30
0.0
 11
345.2266503305235
 21
900.2960420695558
 31
0.0
  0
LINE
  5
77D
  8
1_PRZEJAZD_A
 62
     1
 10
366.0066503305234
 20
969.962708736156
 30
0.0
 11
366.0066503305234
 21
900.2960420695558
 31
0.0
  0
LINE
  5
77E
  8
1_PRZEJAZD_A
 62
     1
 10
345.2266503305235
 20
969.962708736156
 30
0.0
 11
366.0066503305234
 21
969.962708736156
 31
0.0
  0
LINE
  5
77F
  8
1_PRZEJAZD_A
 62
     1
 10
366.0066503305234
 20
653.6293754028555
 30
0.0
 11
345.2266503305235
 21
653.6293754028555
 31
0.0
  0
LINE
  5
780
  8
1_PRZEJAZD_A
 62
     1
 10
366.0066503305234
 20
723.2960420695557
 30
0.0
 11
366.0066503305234
 21
653.6293754028555
 31
0.0
  0
LINE
  5
781
  8
1_PRZEJAZD_A
 62
     1
 10
345.2266503305235
 20
723.2960420695557
 30
0.0
 11
366.0066503305234
 21
723.2960420695557
 31
0.0
  0
LINE
  5
782
  8
1_PRZEJAZD_A
 62
     1
 10
638.5866503305233
 20
661.6293754028555
 30
0.0
 11
659.3666503305233
 21
661.6293754028555
 31
0.0
  0
LINE
  5
783
  8
1_PRZEJAZD_A
 62
     1
 10
638.5866503305233
 20
638.6293754028555
 30
0.0
 11
638.5866503305233
 21
661.6293754028555
 31
0.0
  0
LINE
  5
784
  8
1_PRZEJAZD_A
 62
     1
 10
638.5866503305233
 20
838.6293754028558
 30
0.0
 11
659.3666503305233
 21
838.6293754028558
 31
0.0
  0
LINE
  5
785
  8
1_PRZEJAZD_A
 62
     1
 10
638.5866503305233
 20
908.2960420695558
 30
0.0
 11
638.5866503305233
 21
838.6293754028558
 31
0.0
  0
LINE
  5
786
  8
1_PRZEJAZD_A
 62
     1
 10
659.3666503305233
 20
908.2960420695558
 30
0.0
 11
638.5866503305233
 21
908.2960420695558
 31
0.0
  0
LINE
  5
787
  8
1_PRZEJAZD_A
 62
     1
 10
638.5866503305233
 20
961.962708736156
 30
0.0
 11
659.3666503305233
 21
961.962708736156
 31
0.0
  0
LINE
  5
788
  8
1_PRZEJAZD_A
 62
     1
 10
638.5866503305233
 20
1031.629375402856
 30
0.0
 11
638.5866503305233
 21
961.962708736156
 31
0.0
  0
LINE
  5
789
  8
1_PRZEJAZD_A
 62
     1
 10
659.3666503305233
 20
1031.629375402856
 30
0.0
 11
638.5866503305233
 21
1031.629375402856
 31
0.0
  0
LINE
  5
78A
  8
1_PRZEJAZD_A
 62
     1
 10
912.8066503305233
 20
904.2960420695558
 30
0.0
 11
912.8066503305233
 21
900.2960420695558
 31
0.0
  0
LINE
  5
78B
  8
1_PRZEJAZD_A
 62
     1
 10
912.8066503305233
 20
900.2960420695558
 30
0.0
 11
912.8066503305233
 21
904.2960420695558
 31
0.0
  0
LINE
  5
78C
  8
1_PRZEJAZD_A
 62
     1
 10
912.8066503305233
 20
846.6293754028561
 30
0.0
 11
912.8066503305233
 21
900.2960420695558
 31
0.0
  0
LINE
  5
78D
  8
1_PRZEJAZD_A
 62
     1
 10
912.8066503305233
 20
842.6293754028561
 30
0.0
 11
912.8066503305233
 21
846.6293754028561
 31
0.0
  0
LINE
  5
78E
  8
1_PRZEJAZD_A
 62
     1
 10
912.8066503305233
 20
846.6293754028561
 30
0.0
 11
912.8066503305233
 21
842.6293754028561
 31
0.0
  0
LINE
  5
78F
  8
1_PRZEJAZD_A
 62
     1
 10
912.8066503305233
 20
900.2960420695558
 30
0.0
 11
912.8066503305233
 21
846.6293754028561
 31
0.0
  0
LINE
  5
790
  8
1_PRZEJAZD_A
 62
     1
 10
933.5866503305233
 20
653.6293754028555
 30
0.0
 11
912.8066503305233
 21
653.6293754028555
 31
0.0
  0
LINE
  5
791
  8
1_PRZEJAZD_A
 62
     1
 10
933.5866503305233
 20
723.2960420695557
 30
0.0
 11
933.5866503305233
 21
653.6293754028555
 31
0.0
  0
LINE
  5
792
  8
1_PRZEJAZD_A
 62
     1
 10
912.8066503305233
 20
723.2960420695557
 30
0.0
 11
933.5866503305233
 21
723.2960420695557
 31
0.0
  0
LINE
  5
793
  8
1_PRZEJAZD_A
 62
     1
 10
933.5866503305233
 20
900.2960420695558
 30
0.0
 11
912.8066503305233
 21
900.2960420695558
 31
0.0
  0
LINE
  5
794
  8
1_PRZEJAZD_A
 62
     1
 10
933.5866503305233
 20
969.962708736156
 30
0.0
 11
933.5866503305233
 21
900.2960420695558
 31
0.0
  0
LINE
  5
795
  8
1_PRZEJAZD_A
 62
     1
 10
912.8066503305233
 20
969.962708736156
 30
0.0
 11
933.5866503305233
 21
969.962708736156
 31
0.0
  0
LINE
  5
796
  8
1_PRZEJAZD_A
 62
     1
 10
933.5866503305233
 20
1046.629375402856
 30
0.0
 11
882.8066503305233
 21
1046.629375402856
 31
0.0
  0
LINE
  5
797
  8
1_PRZEJAZD_A
 62
     1
 10
933.5866503305233
 20
1023.629375402856
 30
0.0
 11
933.5866503305233
 21
1046.629375402856
 31
0.0
  0
LINE
  5
798
  8
1_PRZEJAZD_A
 62
     1
 10
912.8066503305233
 20
1023.629375402856
 30
0.0
 11
933.5866503305233
 21
1023.629375402856
 31
0.0
  0
LINE
  5
799
  8
1_PRZEJAZD_A
 62
     1
 10
813.1466503305234
 20
883.962708736156
 30
0.0
 11
792.3666503305234
 21
883.962708736156
 31
0.0
  0
LINE
  5
79A
  8
1_PRZEJAZD_A
 62
     1
 10
813.1466503305234
 20
953.6293754028557
 30
0.0
 11
813.1466503305234
 21
883.962708736156
 31
0.0
  0
LINE
  5
79B
  8
1_PRZEJAZD_A
 62
     1
 10
792.3666503305234
 20
953.6293754028557
 30
0.0
 11
813.1466503305234
 21
953.6293754028557
 31
0.0
  0
LINE
  5
79C
  8
1_PRZEJAZD_A
 62
     1
 10
848.3152217591232
 20
1046.629375402856
 30
0.0
 11
848.3152217591232
 21
1042.629375402856
 31
0.0
  0
LINE
  5
79D
  8
1_PRZEJAZD_A
 62
     1
 10
848.3152217591232
 20
1064.629375402856
 30
0.0
 11
848.3152217591232
 21
1046.629375402856
 31
0.0
  0
LINE
  5
79E
  8
1_PRZEJAZD_A
 62
     1
 10
882.8066503305233
 20
1064.629375402856
 30
0.0
 11
848.3152217591232
 21
1064.629375402856
 31
0.0
  0
LINE
  5
79F
  8
1_PRZEJAZD_A
 62
     1
 10
882.8066503305233
 20
1046.629375402856
 30
0.0
 11
882.8066503305233
 21
1064.629375402856
 31
0.0
  0
LINE
  5
7A0
  8
1_PRZEJAZD_A
 62
     1
 10
882.8066503305233
 20
1042.629375402856
 30
0.0
 11
882.8066503305233
 21
1046.629375402856
 31
0.0
  0
LINE
  5
7A1
  8
1_PRZEJAZD_A
 62
     1
 10
795.3323646162232
 20
1046.629375402856
 30
0.0
 11
795.3323646162232
 21
1042.629375402856
 31
0.0
  0
LINE
  5
7A2
  8
1_PRZEJAZD_A
 62
     1
 10
795.3323646162232
 20
1064.629375402856
 30
0.0
 11
795.3323646162232
 21
1046.629375402856
 31
0.0
  0
LINE
  5
7A3
  8
1_PRZEJAZD_A
 62
     1
 10
829.8237931876233
 20
1064.629375402856
 30
0.0
 11
795.3323646162232
 21
1064.629375402856
 31
0.0
  0
LINE
  5
7A4
  8
1_PRZEJAZD_A
 62
     1
 10
829.8237931876233
 20
1046.629375402856
 30
0.0
 11
829.8237931876233
 21
1064.629375402856
 31
0.0
  0
LINE
  5
7A5
  8
1_PRZEJAZD_A
 62
     1
 10
829.8237931876233
 20
1042.629375402856
 30
0.0
 11
829.8237931876233
 21
1046.629375402856
 31
0.0
  0
LINE
  5
7A6
  8
1_PRZEJAZD_A
 62
     1
 10
689.3666503305233
 20
1046.629375402856
 30
0.0
 11
689.3666503305233
 21
1042.629375402856
 31
0.0
  0
LINE
  5
7A7
  8
1_PRZEJAZD_A
 62
     1
 10
689.3666503305233
 20
1064.629375402856
 30
0.0
 11
689.3666503305233
 21
1046.629375402856
 31
0.0
  0
LINE
  5
7A8
  8
1_PRZEJAZD_A
 62
     1
 10
723.8580789019232
 20
1064.629375402856
 30
0.0
 11
689.3666503305233
 21
1064.629375402856
 31
0.0
  0
LINE
  5
7A9
  8
1_PRZEJAZD_A
 62
     1
 10
723.8580789019232
 20
1046.629375402856
 30
0.0
 11
723.8580789019232
 21
1064.629375402856
 31
0.0
  0
LINE
  5
7AA
  8
1_PRZEJAZD_A
 62
     1
 10
723.8580789019232
 20
1042.629375402856
 30
0.0
 11
723.8580789019232
 21
1046.629375402856
 31
0.0
  0
LINE
  5
7AB
  8
1_PRZEJAZD_A
 62
     1
 10
659.3666503305233
 20
1031.629375402856
 30
0.0
 11
659.3666503305233
 21
1027.629375402856
 31
0.0
  0
LINE
  5
7AC
  8
1_PRZEJAZD_A
 62
     1
 10
659.3666503305233
 20
1046.629375402856
 30
0.0
 11
659.3666503305233
 21
1031.629375402856
 31
0.0
  0
LINE
  5
7AD
  8
1_PRZEJAZD_A
 62
     1
 10
689.3666503305233
 20
1046.629375402856
 30
0.0
 11
659.3666503305233
 21
1046.629375402856
 31
0.0
  0
LINE
  5
7AE
  8
1_PRZEJAZD_A
 62
     1
 10
280.7352217591233
 20
1046.629375402856
 30
0.0
 11
280.7352217591233
 21
1042.629375402856
 31
0.0
  0
LINE
  5
7AF
  8
1_PRZEJAZD_A
 62
     1
 10
280.7352217591233
 20
1064.629375402856
 30
0.0
 11
280.7352217591233
 21
1046.629375402856
 31
0.0
  0
LINE
  5
7B0
  8
1_PRZEJAZD_A
 62
     1
 10
315.2266503305235
 20
1064.629375402856
 30
0.0
 11
280.7352217591233
 21
1064.629375402856
 31
0.0
  0
LINE
  5
7B1
  8
1_PRZEJAZD_A
 62
     1
 10
315.2266503305235
 20
1046.629375402856
 30
0.0
 11
315.2266503305235
 21
1064.629375402856
 31
0.0
  0
LINE
  5
7B2
  8
1_PRZEJAZD_A
 62
     1
 10
315.2266503305235
 20
1042.629375402856
 30
0.0
 11
315.2266503305235
 21
1046.629375402856
 31
0.0
  0
LINE
  5
7B3
  8
1_PRZEJAZD_A
 62
     1
 10
174.7695074733234
 20
1046.629375402856
 30
0.0
 11
174.7695074733234
 21
1042.629375402856
 31
0.0
  0
LINE
  5
7B4
  8
1_PRZEJAZD_A
 62
     1
 10
174.7695074733234
 20
1064.629375402856
 30
0.0
 11
174.7695074733234
 21
1046.629375402856
 31
0.0
  0
LINE
  5
7B5
  8
1_PRZEJAZD_A
 62
     1
 10
209.2609360448234
 20
1064.629375402856
 30
0.0
 11
174.7695074733234
 21
1064.629375402856
 31
0.0
  0
LINE
  5
7B6
  8
1_PRZEJAZD_A
 62
     1
 10
209.2609360448234
 20
1046.629375402856
 30
0.0
 11
209.2609360448234
 21
1064.629375402856
 31
0.0
  0
LINE
  5
7B7
  8
1_PRZEJAZD_A
 62
     1
 10
209.2609360448234
 20
1042.629375402856
 30
0.0
 11
209.2609360448234
 21
1046.629375402856
 31
0.0
  0
LINE
  5
7B8
  8
1_PRZEJAZD_A
 62
     1
 10
121.7866503305234
 20
1046.629375402856
 30
0.0
 11
121.7866503305234
 21
1042.629375402856
 31
0.0
  0
LINE
  5
7B9
  8
1_PRZEJAZD_A
 62
     1
 10
121.7866503305234
 20
1064.629375402856
 30
0.0
 11
121.7866503305234
 21
1046.629375402856
 31
0.0
  0
LINE
  5
7BA
  8
1_PRZEJAZD_A
 62
     1
 10
156.2780789019234
 20
1064.629375402856
 30
0.0
 11
121.7866503305234
 21
1064.629375402856
 31
0.0
  0
LINE
  5
7BB
  8
1_PRZEJAZD_A
 62
     1
 10
156.2780789019234
 20
1046.629375402856
 30
0.0
 11
156.2780789019234
 21
1064.629375402856
 31
0.0
  0
LINE
  5
7BC
  8
1_PRZEJAZD_A
 62
     1
 10
156.2780789019234
 20
1042.629375402856
 30
0.0
 11
156.2780789019234
 21
1046.629375402856
 31
0.0
  0
LINE
  5
7BD
  8
1_PRZEJAZD_A
 62
     1
 10
91.78665033052339
 20
1031.629375402856
 30
0.0
 11
91.78665033052339
 21
1027.629375402856
 31
0.0
  0
LINE
  5
7BE
  8
1_PRZEJAZD_A
 62
     1
 10
91.78665033052339
 20
1046.629375402856
 30
0.0
 11
91.78665033052339
 21
1031.629375402856
 31
0.0
  0
LINE
  5
7BF
  8
1_PRZEJAZD_A
 62
     1
 10
121.7866503305234
 20
1046.629375402856
 30
0.0
 11
91.78665033052339
 21
1046.629375402856
 31
0.0
  0
LINE
  5
7C0
  8
1_PRZEJAZD_A
 62
     1
 10
813.1466503305234
 20
560.6293754028555
 30
0.0
 11
762.3666503305234
 21
560.6293754028555
 31
0.0
  0
LINE
  5
7C1
  8
1_PRZEJAZD_A
 62
     1
 10
813.1466503305234
 20
583.6293754028555
 30
0.0
 11
813.1466503305234
 21
560.6293754028555
 31
0.0
  0
LINE
  5
7C2
  8
1_PRZEJAZD_A
 62
     1
 10
792.3666503305234
 20
583.6293754028555
 30
0.0
 11
813.1466503305234
 21
583.6293754028555
 31
0.0
  0
LINE
  5
7C3
  8
1_PRZEJAZD_A
 62
     1
 10
813.1466503305234
 20
637.2960420694557
 30
0.0
 11
792.3666503305234
 21
637.2960420694557
 31
0.0
  0
LINE
  5
7C4
  8
1_PRZEJAZD_A
 62
     1
 10
813.1466503305234
 20
706.9627087361558
 30
0.0
 11
813.1466503305234
 21
637.2960420694557
 31
0.0
  0
LINE
  5
7C5
  8
1_PRZEJAZD_A
 62
     1
 10
792.3666503305234
 20
706.9627087361558
 30
0.0
 11
813.1466503305234
 21
706.9627087361558
 31
0.0
  0
LINE
  5
7C6
  8
1_PRZEJAZD_A
 62
     1
 10
366.0066503305234
 20
1046.629375402856
 30
0.0
 11
315.2266503305235
 21
1046.629375402856
 31
0.0
  0
LINE
  5
7C7
  8
1_PRZEJAZD_A
 62
     1
 10
366.0066503305234
 20
1023.629375402856
 30
0.0
 11
366.0066503305234
 21
1046.629375402856
 31
0.0
  0
LINE
  5
7C8
  8
1_PRZEJAZD_A
 62
     1
 10
345.2266503305235
 20
1023.629375402856
 30
0.0
 11
366.0066503305234
 21
1023.629375402856
 31
0.0
  0
LINE
  5
7C9
  8
1_PRZEJAZD_A
 62
     1
 10
159.9466503305233
 20
340.2083524358555
 30
0.0
 11
489.9476732975234
 21
340.2083524358555
 31
0.0
  0
LINE
  5
7CA
  8
1_PRZEJAZD_A
 62
     1
 10
159.9466503305233
 20
302.2083524358555
 30
0.0
 11
159.9466503305233
 21
340.2083524358555
 31
0.0
  0
LINE
  5
7CB
  8
1_PRZEJAZD_A
 62
     1
 10
159.9466503305233
 20
200.5683524358554
 30
0.0
 11
159.9466503305233
 21
302.2083524358555
 31
0.0
  0
LINE
  5
7CC
  8
1_PRZEJAZD_A
 62
     1
 10
159.9466503305233
 20
181.5683524358554
 30
0.0
 11
159.9466503305233
 21
200.5683524358554
 31
0.0
  0
LINE
  5
7CD
  8
1_PRZEJAZD_A
 62
     1
 10
489.9476732975234
 20
181.5683524358554
 30
0.0
 11
159.9466503305233
 21
181.5683524358554
 31
0.0
  0
LINE
  5
7CE
  8
1_PRZEJAZD_A
 62
     1
 10
489.9476732975234
 20
81.78835243585559
 30
0.0
 11
489.9476732975234
 21
181.5683524358554
 31
0.0
  0
LINE
  5
7CF
  8
1_PRZEJAZD_A
 62
     1
 10
466.9476732975234
 20
81.78835243585559
 30
0.0
 11
489.9476732975234
 21
81.78835243585559
 31
0.0
  0
LINE
  5
7D0
  8
1_PRZEJAZD_A
 62
     1
 10
466.9476732975234
 20
102.5683524358556
 30
0.0
 11
466.9476732975234
 21
81.78835243585559
 31
0.0
  0
LINE
  5
7D1
  8
1_PRZEJAZD_A
 62
     1
 10
413.2808361363234
 20
81.78835243585559
 30
0.0
 11
413.2808361363234
 21
102.5683524358556
 31
0.0
  0
LINE
  5
7D2
  8
1_PRZEJAZD_A
 62
     1
 10
343.6139989752234
 20
81.78835243585559
 30
0.0
 11
413.2808361363234
 21
81.78835243585559
 31
0.0
  0
LINE
  5
7D3
  8
1_PRZEJAZD_A
 62
     1
 10
343.6139989752234
 20
102.5683524358556
 30
0.0
 11
343.6139989752234
 21
81.78835243585559
 31
0.0
  0
LINE
  5
7D4
  8
1_PRZEJAZD_A
 62
     1
 10
166.6134874917234
 20
81.78835243585559
 30
0.0
 11
166.6134874917234
 21
102.5683524358556
 31
0.0
  0
LINE
  5
7D5
  8
1_PRZEJAZD_A
 62
     1
 10
96.94665033052331
 20
81.78835243585559
 30
0.0
 11
166.6134874917234
 21
81.78835243585559
 31
0.0
  0
LINE
  5
7D6
  8
1_PRZEJAZD_A
 62
     1
 10
96.94665033052331
 20
102.5683524358556
 30
0.0
 11
96.94665033052331
 21
81.78835243585559
 31
0.0
  0
LINE
  5
7D7
  8
1_PRZEJAZD_A
 62
     1
 10
158.6134874917234
 20
439.9883524358556
 30
0.0
 11
158.6134874917234
 21
419.2083524358557
 31
0.0
  0
LINE
  5
7D8
  8
1_PRZEJAZD_A
 62
     1
 10
228.2803246528234
 20
439.9883524358556
 30
0.0
 11
158.6134874917234
 21
439.9883524358556
 31
0.0
  0
LINE
  5
7D9
  8
1_PRZEJAZD_A
 62
     1
 10
228.2803246528234
 20
419.2083524358557
 30
0.0
 11
228.2803246528234
 21
439.9883524358556
 31
0.0
  0
LINE
  5
7DA
  8
1_PRZEJAZD_A
 62
     1
 10
405.2808361363234
 20
439.9883524358556
 30
0.0
 11
405.2808361363234
 21
419.2083524358557
 31
0.0
  0
LINE
  5
7DB
  8
1_PRZEJAZD_A
 62
     1
 10
474.9476732975234
 20
439.9883524358556
 30
0.0
 11
405.2808361363234
 21
439.9883524358556
 31
0.0
  0
LINE
  5
7DC
  8
1_PRZEJAZD_A
 62
     1
 10
474.9476732975234
 20
419.2083524358557
 30
0.0
 11
474.9476732975234
 21
439.9883524358556
 31
0.0
  0
LINE
  5
7DD
  8
1_PRZEJAZD_A
 62
     1
 10
489.9476732975234
 20
302.2083524358555
 30
0.0
 11
159.9466503305233
 21
302.2083524358555
 31
0.0
  0
LINE
  5
7DE
  8
1_PRZEJAZD_A
 62
     1
 10
489.9476732975234
 20
321.2083524358555
 30
0.0
 11
489.9476732975234
 21
302.2083524358555
 31
0.0
  0
LINE
  5
7DF
  8
1_PRZEJAZD_A
 62
     1
 10
489.9476732975234
 20
441.8483524358556
 30
0.0
 11
489.9476732975234
 21
321.2083524358555
 31
0.0
  0
LINE
  5
7E0
  8
1_PRZEJAZD_A
 62
     1
 10
489.9476732975234
 20
460.8483524358556
 30
0.0
 11
489.9476732975234
 21
441.8483524358556
 31
0.0
  0
LINE
  5
7E1
  8
1_PRZEJAZD_A
 62
     1
 10
159.9466503305234
 20
460.8483524358556
 30
0.0
 11
489.9476732975234
 21
460.8483524358556
 31
0.0
  0
LINE
  5
7E2
  8
1_PRZEJAZD_A
 62
     1
 10
159.9466503305234
 20
560.6283524358556
 30
0.0
 11
159.9466503305234
 21
460.8483524358556
 31
0.0
  0
LINE
  5
7E3
  8
1_PRZEJAZD_A
 62
     1
 10
182.9466503305234
 20
560.6283524358556
 30
0.0
 11
159.9466503305234
 21
560.6283524358556
 31
0.0
  0
LINE
  5
7E4
  8
1_PRZEJAZD_A
 62
     1
 10
182.9466503305234
 20
539.8483524358556
 30
0.0
 11
182.9466503305234
 21
560.6283524358556
 31
0.0
  0
LINE
  5
7E5
  8
1_PRZEJAZD_A
 62
     1
 10
544.9476732975235
 20
202.4283524358558
 30
0.0
 11
567.9476732975235
 21
202.4283524358558
 31
0.0
  0
LINE
  5
7E6
  8
1_PRZEJAZD_A
 62
     1
 10
544.9476732975235
 20
223.2083524358555
 30
0.0
 11
544.9476732975235
 21
202.4283524358558
 31
0.0
  0
LINE
  5
7E7
  8
1_PRZEJAZD_A
 62
     1
 10
491.2808361364234
 20
202.4283524358558
 30
0.0
 11
491.2808361364234
 21
223.2083524358555
 31
0.0
  0
LINE
  5
7E8
  8
1_PRZEJAZD_A
 62
     1
 10
421.6139989752234
 20
202.4283524358558
 30
0.0
 11
491.2808361364234
 21
202.4283524358558
 31
0.0
  0
LINE
  5
7E9
  8
1_PRZEJAZD_A
 62
     1
 10
421.6139989752234
 20
223.2083524358555
 30
0.0
 11
421.6139989752234
 21
202.4283524358558
 31
0.0
  0
LINE
  5
7EA
  8
1_PRZEJAZD_A
 62
     1
 10
244.6134874917234
 20
202.4283524358558
 30
0.0
 11
244.6134874917234
 21
223.2083524358555
 31
0.0
  0
LINE
  5
7EB
  8
1_PRZEJAZD_A
 62
     1
 10
174.9466503305234
 20
202.4283524358558
 30
0.0
 11
244.6134874917234
 21
202.4283524358558
 31
0.0
  0
LINE
  5
7EC
  8
1_PRZEJAZD_A
 62
     1
 10
174.9466503305234
 20
223.2083524358555
 30
0.0
 11
174.9466503305234
 21
202.4283524358558
 31
0.0
  0
LINE
  5
7ED
  8
1_PRZEJAZD_A
 62
     1
 10
621.9095074733233
 20
546.6293754028555
 30
0.0
 11
621.9095074733233
 21
564.6293754028555
 31
0.0
  0
LINE
  5
7EE
  8
1_PRZEJAZD_A
 62
     1
 10
621.9095074733733
 20
542.6293754028555
 30
0.0
 11
621.9095074733233
 21
546.6293754028555
 31
0.0
  0
LINE
  5
7EF
  8
1_PRZEJAZD_A
 62
     1
 10
656.4009360448233
 20
542.6293754028555
 30
0.0
 11
621.9095074733733
 21
542.6293754028555
 31
0.0
  0
LINE
  5
7F0
  8
1_PRZEJAZD_A
 62
     1
 10
656.4009360448234
 20
546.6293754028555
 30
0.0
 11
656.4009360448233
 21
542.6293754028555
 31
0.0
  0
LINE
  5
7F1
  8
1_PRZEJAZD_A
 62
     1
 10
656.4009360448234
 20
564.6293754028555
 30
0.0
 11
656.4009360448234
 21
546.6293754028555
 31
0.0
  0
LINE
  5
7F2
  8
1_PRZEJAZD_A
 62
     1
 10
538.9266503305233
 20
575.6293754028555
 30
0.0
 11
538.9266503305233
 21
579.6293754028555
 31
0.0
  0
LINE
  5
7F3
  8
1_PRZEJAZD_A
 62
     1
 10
538.9266503305233
 20
560.6288639193556
 30
0.0
 11
538.9266503305233
 21
575.6293754028555
 31
0.0
  0
LINE
  5
7F4
  8
1_PRZEJAZD_A
 62
     1
 10
568.9266503305233
 20
560.6293754028555
 30
0.0
 11
538.9266503305233
 21
560.6288639193556
 31
0.0
  0
ENDSEC
  0
EOF
