0
SECTION
2
HEADER
9
$INSUNITS
70
1
9
$ACADVER
1
AC1014
9
$HANDSEED
5
FFFF
0
ENDSEC
0
SECTION
2
TABLES
0
TABLE
2
VPORT
5
8
100
AcDbSymbolTable
0
ENDTAB
0
TABLE
2
LTYPE
5
5
100
AcDbSymbolTable
0
LTYPE
5
14
100
AcDbSymbolTableRecord
100
AcDbLinetypeTableRecord
2
BYBLOCK
70
0
0
LTYPE
5
15
100
AcDbSymbolTableRecord
100
AcDbLinetypeTableRecord
2
BYLAYER
70
0
0
ENDTAB
0
TABLE
2
LAYER
5
2
100
AcDbSymbolTable
70
2
0
LAYER
5
50
100
AcDbSymbolTableRecord
100
AcDbLayerTableRecord
2
0
70
0
6
CONTINUOUS
0
ENDTAB
0
TABLE
2
STYLE
5
3
100
AcDbSymbolTable
70
1
0
STYLE
5
11
100
AcDbSymbolTableRecord
100
AcDbTextStyleTableRecord
2
STANDARD
70
0
0
ENDTAB
0
TABLE
2
VIEW
5
6
100
AcDbSymbolTable
70
0
0
ENDTAB
0
TABLE
2
UCS
5
7
100
AcDbSymbolTable
70
0
0
ENDTAB
0
TABLE
2
APPID
5
9
100
AcDbSymbolTable
70
2
0
APPID
5
12
100
AcDbSymbolTableRecord
100
AcDbRegAppTableRecord
2
ACAD
70
0
0
ENDTAB
0
TABLE
2
DIMSTYLE
5
A
100
AcDbSymbolTable
70
1
0
ENDTAB
0
TABLE
2
BLOCK_RECORD
5
1
100
AcDbSymbolTable
70
1
0
BLOCK_RECORD
5
1F
100
AcDbSymbolTableRecord
100
AcDbBlockTableRecord
2
*MODEL_SPACE
0
BLOCK_RECORD
5
1B
100
AcDbSymbolTableRecord
100
AcDbBlockTableRecord
2
*PAPER_SPACE
0
ENDTAB
0
ENDSEC
0
SECTION
2
BLOCKS
0
BLOCK
5
20
100
AcDbEntity
100
AcDbBlockBegin
2
*MODEL_SPACE
0
ENDBLK
5
21
100
AcDbEntity
100
AcDbBlockEnd
0
BLOCK
5
1C
100
AcDbEntity
100
AcDbBlockBegin
2
*PAPER_SPACE
0
ENDBLK
5
1D
100
AcDbEntity
100
AcDbBlockEnd
0
ENDSEC
0
SECTION
2
ENTITIES
0
LINE
5
100
100
AcDbEntity
8
0
100
AcDbLine
10
0.75023846914570003
20
0.66868695172996795
30
0
11
0.74618322057958286
21
0.66574064118505105
31
0
0
ARC
5
101
100
AcDbEntity
8
0
100
AcDbCircle
10
0.41221474770752681
20
0.2994915448805186
30
0
40
0.1000000000000001
100
AcDbArc
50
125.99999999999997
51
306
0
ARC
5
102
100
AcDbEntity
8
0
100
AcDbCircle
10
1.2360679774997896
20
3.4148099920803286e-19
30
0
40
0.52705098312484233
100
AcDbArc
50
128.19422025708397
51
180
0
ARC
5
103
100
AcDbEntity
8
0
100
AcDbCircle
10
0
20
0
30
0
40
1.0000000000000002
100
AcDbArc
50
329.73917047726678
51
335.52982415175387
0
ARC
5
104
100
AcDbEntity
8
0
100
AcDbCircle
10
0.41221474770752681
20
0.2994915448805186
30
0
40
0.099999999999999992
100
AcDbArc
50
131.63152794917286
51
216
0
ARC
5
105
100
AcDbEntity
8
0
100
AcDbCircle
10
0.41221474770752681
20
0.2994915448805186
30
0
40
0.10000000000000003
100
AcDbArc
50
216
51
306
0
ARC
5
106
100
AcDbEntity
8
0
100
AcDbCircle
10
0.41221474770752681
20
0.2994915448805186
30
0
40
0.1000000000000001
100
AcDbArc
50
125.99999999999997
51
131.63152794917286
0
LINE
5
107
100
AcDbEntity
8
0
100
AcDbLine
10
-0.40257367888503531
20
0.91538758625457073
30
0
11
-0.25255767458982797
21
0.4536857995223989
31
0
0
ARC
5
108
100
AcDbEntity
8
0
100
AcDbCircle
10
-0.15745202296031249
20
0.48458749895989367
30
0
40
0.1000000000000001
100
AcDbArc
50
-162.00000000000003
51
18.000000000000028
0
LINE
5
109
100
AcDbEntity
8
0
100
AcDbLine
10
-0.062346371330797054
20
0.51548919839738849
30
0
11
-0.21236237562600432
21
0.97719098512956026
31
0
0
LINE
5
110
100
AcDbEntity
8
0
100
AcDbLine
10
-0.99999999999999989
20
-0.099999999999999992
30
0
11
-0.50952544949442879
21
-0.10000000000000003
31
0
0
ARC
5
111
100
AcDbEntity
8
0
100
AcDbCircle
10
-0.50952544949442868
20
0
30
0
40
0.10000000000000003
100
AcDbArc
50
-90.000000000000057
51
90
0
LINE
5
112
100
AcDbEntity
8
0
100
AcDbLine
10
-0.50952544949442868
20
0.10000000000000007
30
0
11
-0.99999999999999978
21
0.10000000000000017
31
0
0
ARC
5
113
100
AcDbEntity
8
0
100
AcDbCircle
10
-0.99999999999999978
20
0.7265425280053609
30
0
40
0.52705098312484233
100
AcDbArc
50
-90
51
15.805779742916023
0
LINE
5
114
100
AcDbEntity
8
0
100
AcDbLine
10
-0.21391134274543219
20
-0.98195821573264841
30
0
11
-0.21236237562600471
21
-0.97719098512956026
31
0
0
ARC
5
115
100
AcDbEntity
8
0
100
AcDbCircle
10
-0.15745202296031255
20
-0.48458749895989367
30
0
40
0.10000000000000014
100
AcDbArc
50
-18
51
162.00000000000003
0
LINE
5
116
100
AcDbEntity
8
0
100
AcDbLine
10
-0.40257367888503548
20
-0.91538758625457062
30
0
11
-0.40412264600446318
21
-0.92015481685765887
31
0
0
ARC
5
117
100
AcDbEntity
8
0
100
AcDbCircle
10
0.41221474770752675
20
-0.29949154488051866
30
0
40
0.10000000000000013
100
AcDbArc
50
53.999999999999936
51
234
0
LINE
5
118
100
AcDbEntity
8
0
100
AcDbLine
10
0.35343622247827938
20
-0.38039324431801341
30
0
11
0.74618322057958253
21
-0.66574064118505105
31
0
0
ARC
5
119
100
AcDbEntity
8
0
100
AcDbCircle
10
0.38196601125010476
20
-1.1755705045849465
30
0
40
0.52705098312484244
100
AcDbArc
50
56.194220257083948
51
159.805779742916
0
CIRCLE
5
120
100
AcDbEntity
8
0
100
AcDbCircle
10
0
20
0
30
0
40
0.099999999999999992
0
LINE
5
121
100
AcDbEntity
8
0
100
AcDbLine
10
0.86779551960419454
20
-0.50688355285497855
30
0
11
0.86374027103807716
21
-0.50393724231006154
31
0
0
LINE
5
122
100
AcDbEntity
8
0
100
AcDbLine
10
0.5142256417882014
20
-0.24999999999999997
30
0
11
0.47099327293677423
21
-0.2185898454430239
31
0
0
LINE
5
123
100
AcDbEntity
8
0
100
AcDbLine
10
0.86374027103807716
20
-0.50393724231006154
30
0
11
0.5142256417882014
21
-0.24999999999999997
31
0
0
LINE
5
124
100
AcDbEntity
8
0
100
AcDbLine
10
0.74618322057958253
20
-0.66574064118505105
30
0
11
0.7502384691456998
21
-0.66868695172996817
31
0
0
ARC
5
125
100
AcDbEntity
8
0
100
AcDbCircle
10
0
20
0
30
0
40
1
100
AcDbArc
50
312.47017584824613
51
318.26082952273322
0
ARC
5
126
100
AcDbEntity
8
0
100
AcDbCircle
10
0
20
0
30
0
40
1.0000000000000004
100
AcDbArc
50
257.73917047726678
51
263.52982415175387
0
LINE
5
127
100
AcDbEntity
8
0
100
AcDbLine
10
-0.21236237562600471
20
-0.97719098512956026
30
0
11
-0.062346371330797075
21
-0.51548919839738849
31
0
0
LINE
5
128
100
AcDbEntity
8
0
100
AcDbLine
10
-0.25255767458982797
20
-0.4536857995223989
30
0
11
-0.40257367888503548
21
-0.91538758625457062
31
0
0
ARC
5
129
100
AcDbEntity
8
0
100
AcDbCircle
10
0
20
0
30
0
40
1.0000000000000004
100
AcDbArc
50
240.47017584824616
51
246.26082952273322
0
ARC
5
130
100
AcDbEntity
8
0
100
AcDbCircle
10
-1.0000000000000002
20
-0.72654252800536068
30
0
40
0.527050983124843
100
AcDbArc
50
-15.80577974291611
51
87.80577974291603
0
ARC
5
131
100
AcDbEntity
8
0
100
AcDbCircle
10
0
20
0
30
0
40
1.0000000000000004
100
AcDbArc
50
96.470175848246114
51
102.2608295227332
0
LINE
5
132
100
AcDbEntity
8
0
100
AcDbLine
10
-0.21236237562600432
20
0.97719098512956026
30
0
11
-0.21391134274543194
21
0.98195821573264841
31
0
0
ARC
5
133
100
AcDbEntity
8
0
100
AcDbCircle
10
0.38196601125010515
20
1.1755705045849465
30
0
40
0.52705098312484211
100
AcDbArc
50
200.19422025708394
51
303.805779742916
0
ARC
5
134
100
AcDbEntity
8
0
100
AcDbCircle
10
0
20
0
30
0
40
1.0000000000000004
100
AcDbArc
50
113.73917047726681
51
119.52982415175386
0
LINE
5
135
100
AcDbEntity
8
0
100
AcDbLine
10
-0.40412264600446296
20
0.92015481685765887
30
0
11
-0.40257367888503531
21
0.91538758625457073
31
0
0
ARC
5
136
100
AcDbEntity
8
0
100
AcDbCircle
10
0
20
0
30
0
40
1.0000000000000004
100
AcDbArc
50
185.73917047726678
51
191.52982415175384
0
ARC
5
137
100
AcDbEntity
8
0
100
AcDbCircle
10
0
20
0
30
0
40
1
100
AcDbArc
50
168.47017584824619
51
174.26082952273327
0
ARC
5
138
100
AcDbEntity
8
0
100
AcDbCircle
10
0
20
0
30
0
40
1
100
AcDbArc
50
24.470175848246122
51
24.609369901680399
0
ARC
5
139
100
AcDbEntity
8
0
100
AcDbCircle
10
0
20
0
30
0
40
1.0000000000000002
100
AcDbArc
50
24.609369901680399
51
30.260829522733204
0
ARC
5
140
100
AcDbEntity
8
0
100
AcDbCircle
10
1.2360679774997896
20
3.4148099920803286e-19
30
0
40
0.52705098312484233
100
AcDbArc
50
128.19422025708397
51
231.805779742916
0
ARC
5
141
100
AcDbEntity
8
0
100
AcDbCircle
10
0
20
0
30
0
40
1.0000000000000007
100
AcDbArc
50
41.739170477266789
51
47.529824151753871
0
LINE
5
142
100
AcDbEntity
8
0
100
AcDbLine
10
0.74618322057958286
20
0.66574064118505105
30
0
11
0.35343622247827949
21
0.38039324431801347
31
0
0
LINE
5
143
100
AcDbEntity
8
0
100
AcDbLine
10
0.47099327293677412
20
0.21858984544302379
30
0
11
0.70901699437494736
21
0.39152420174195796
31
0
0
LINE
5
144
100
AcDbEntity
8
0
100
AcDbLine
10
0.86374027103807749
20
0.5039372423100611
30
0
11
0.86779551960419476
21
0.50688355285497821
31
0
0
LINE
5
145
100
AcDbEntity
8
0
100
AcDbLine
10
0.70901699437494736
20
0.39152420174195796
30
0
11
0.86374027103807749
21
0.5039372423100611
31
0
0
ARC
5
146
100
AcDbEntity
8
0
100
AcDbCircle
10
1.2360679774997896
20
-1.5826861238486893
30
0
40
0.50705098312484231
100
AcDbArc
50
-126.44060206139453
51
126
0
ARC
5
147
100
AcDbEntity
8
0
100
AcDbCircle
10
-0.047375148519660251
20
-1.5826740114128404
30
0
40
1.0673751500680577
100
AcDbArc
50
-0.014648849869763805
51
22.600783331765495
0
ARC
5
148
100
AcDbEntity
8
0
100
AcDbCircle
10
0
20
-1.5826861238486893
30
0
40
1.02
100
AcDbArc
50
336.42740706255472
51
359.98535115013021
0
CIRCLE
5
149
100
AcDbEntity
8
0
100
AcDbCircle
10
1.2360679774997896
20
-1.5826861238486893
30
0
40
0.09999999999999995
0
LINE
5
150
100
AcDbEntity
8
0
100
AcDbLine
10
-0.039495844789339769
20
-1.1526244210352619
30
0
11
-0.54917714892765679
21
-1.4491637176637877
31
0
0
ARC
5
151
100
AcDbEntity
8
0
100
AcDbCircle
10
-0.47395339492865302
20
-1.5784556579775939
30
0
40
0.14958281651249725
100
AcDbArc
50
120.19140854251836
51
239.92946574210097
0
CIRCLE
5
152
100
AcDbEntity
8
0
100
AcDbCircle
10
-0.45650616011279654
20
-1.5791586815874004
30
0
40
0.089999999999999997
0
LINE
5
153
100
AcDbEntity
8
0
100
AcDbLine
10
-0.055851903317066916
20
-1.9933797699986509
30
0
11
-0.54890422044201059
21
-1.7079060065699121
31
0
0
ARC
5
154
100
AcDbEntity
8
0
100
AcDbCircle
10
0.27004117064013972
20
-1.5791829254962733
30
0
40
0.52703445964092721
100
AcDbArc
50
-128.19592461617012
51
125.96694104998785
0
LWPOLYLINE
5
155
100
AcDbEntity
8
0
100
AcDbPolyline
90
3
70
1
43
0.0
10
0.053968390392775095
20
-1.5791586828634718
42
-0.10321908593590781
10
-0.031146397959169164
20
-1.9870675465104508
42
1.9814076648161667
10
-0.031146397959169295
20
-1.1712498192164928
42
-0.10321908593590781
0
CIRCLE
5
156
100
AcDbEntity
8
0
100
AcDbCircle
10
0.27003636789256441
20
-1.5791586828634718
30
0
40
0.09999999999999995
0
LWPOLYLINE
5
157
100
AcDbEntity
8
0
100
AcDbPolyline
90
4
70
1
43
0.0
10
1.2982380601692243
20
0.24999999999999997
10
2.5343060376690141
20
0.24999999999999997
42
-0.99999999999999989
10
2.5343060376690141
20
-0.24999999999999997
10
1.2982380601692243
20
-0.24999999999999997
42
-0.99999999999999989
0
CIRCLE
5
158
100
AcDbEntity
8
0
100
AcDbCircle
10
2.5343060376690141
20
3.4148099920803286e-19
30
0
40
0.089999999999999997
0
CIRCLE
5
159
100
AcDbEntity
8
0
100
AcDbCircle
10
1.2982380601692243
20
0
30
0
40
0.089999999999999997
0
CIRCLE
5
160
100
AcDbEntity
8
0
100
AcDbCircle
10
1.2982380601692243
20
-0.63748242275800593
30
0
40
0.25003791843706435
0
CIRCLE
5
161
100
AcDbEntity
8
0
100
AcDbCircle
10
1.2982380601692243
20
-0.63748242275800593
30
0
40
0.10000000000000003
0
ENDSEC
0
SECTION
2
OBJECTS
0
DICTIONARY
5
C
100
AcDbDictionary
3
ACAD_GROUP
350
D
3
ACAD_MLINESTYLE
350
17
0
DICTIONARY
5
D
100
AcDbDictionary
0
DICTIONARY
5
1A
330
C
100
AcDbDictionary
0
DICTIONARY
5
17
100
AcDbDictionary
0
ENDSEC
0
EOF
