0
SECTION
2
HEADER
9
$INSUNITS
70
4
9
$ACADVER
1
AC1014
9
$HANDSEED
5
FFFF
0
ENDSEC
0
SECTION
2
TABLES
0
TABLE
2
VPORT
5
8
100
AcDbSymbolTable
0
ENDTAB
0
TABLE
2
LTYPE
5
5
100
AcDbSymbolTable
0
LTYPE
5
14
100
AcDbSymbolTableRecord
100
AcDbLinetypeTableRecord
2
BYBLOCK
70
0
0
LTYPE
5
15
100
AcDbSymbolTableRecord
100
AcDbLinetypeTableRecord
2
BYLAYER
70
0
0
ENDTAB
0
TABLE
2
LAYER
5
2
100
AcDbSymbolTable
70
2
0
LAYER
5
50
100
AcDbSymbolTableRecord
100
AcDbLayerTableRecord
2
0
70
0
6
CONTINUOUS
0
ENDTAB
0
TABLE
2
STYLE
5
3
100
AcDbSymbolTable
70
1
0
STYLE
5
11
100
AcDbSymbolTableRecord
100
AcDbTextStyleTableRecord
2
STANDARD
70
0
0
ENDTAB
0
TABLE
2
VIEW
5
6
100
AcDbSymbolTable
70
0
0
ENDTAB
0
TABLE
2
UCS
5
7
100
AcDbSymbolTable
70
0
0
ENDTAB
0
TABLE
2
APPID
5
9
100
AcDbSymbolTable
70
2
0
APPID
5
12
100
AcDbSymbolTableRecord
100
AcDbRegAppTableRecord
2
ACAD
70
0
0
ENDTAB
0
TABLE
2
DIMSTYLE
5
A
100
AcDbSymbolTable
70
1
0
ENDTAB
0
TABLE
2
BLOCK_RECORD
5
1
100
AcDbSymbolTable
70
1
0
BLOCK_RECORD
5
1F
100
AcDbSymbolTableRecord
100
AcDbBlockTableRecord
2
*MODEL_SPACE
0
BLOCK_RECORD
5
1B
100
AcDbSymbolTableRecord
100
AcDbBlockTableRecord
2
*PAPER_SPACE
0
ENDTAB
0
ENDSEC
0
SECTION
2
BLOCKS
0
BLOCK
5
20
100
AcDbEntity
100
AcDbBlockBegin
2
*MODEL_SPACE
0
ENDBLK
5
21
100
AcDbEntity
100
AcDbBlockEnd
0
BLOCK
5
1C
100
AcDbEntity
100
AcDbBlockBegin
2
*PAPER_SPACE
0
ENDBLK
5
1D
100
AcDbEntity
100
AcDbBlockEnd
0
ENDSEC
0
SECTION
2
ENTITIES
0
LWPOLYLINE
5
100
100
AcDbEntity
8
0
100
AcDbPolyline
90
8
70
1
43
0.0
10
-277.52566588753155
20
-266.13620813732143
42
-0.45880961672009657
10
-341.72498550749305
20
-306.44479603626644
10
-588.70202792861153
20
-230.13951605729056
42
-0.37098081687772749
10
-623.38240130962674
20
-174.90423019688748
10
-612.9008461824817
20
-105.47072549136068
42
-0.37098081687772316
10
-563.46099968199405
20
-62.934074472089854
10
-304.96505148211867
20
-62.934074472087332
42
-0.45880961672009801
10
-255.52520498162977
20
-120.39742345281635
0
CIRCLE
5
101
100
AcDbEntity
8
0
100
AcDbCircle
10
9.0359712269739845
20
-33.778033405452277
30
0
40
1.587500000000013
0
CIRCLE
5
102
100
AcDbEntity
8
0
100
AcDbCircle
10
3.4007350494776745
20
-71.10781824183195
30
0
40
1.587500000000013
0
CIRCLE
5
103
100
AcDbEntity
8
0
100
AcDbCircle
10
-44.687564677621872
20
-389.66161535305071
30
0
40
1.5874999999999955
0
CIRCLE
5
104
100
AcDbEntity
8
0
100
AcDbCircle
10
-50.322800855118182
20
-426.99140018943041
30
0
40
1.587500000000013
0
CIRCLE
5
105
100
AcDbEntity
8
0
100
AcDbCircle
10
-192.05359906814573
20
-51.569854842287057
30
0
40
1.5874999999999955
0
CIRCLE
5
106
100
AcDbEntity
8
0
100
AcDbCircle
10
-214.6266034521912
20
-201.10136873553904
30
0
40
1.5875000000000004
0
CIRCLE
5
107
100
AcDbEntity
8
0
100
AcDbCircle
10
-237.19960783623668
20
-350.63288262879109
30
0
40
1.5874999999999955
0
ARC
5
108
100
AcDbEntity
8
0
100
AcDbCircle
10
-65.402840637091515
20
-444.9479338408824
30
2.8025969286496341e-44
40
1.5875000000000004
100
AcDbArc
50
-105.8784448210065
51
71.540647360395468
0
ARC
5
109
100
AcDbEntity
8
0
100
AcDbCircle
10
-65.334523489993728
20
-444.96904090003261
30
-6.9504403830510927e-42
40
1.587499999999511
100
AcDbArc
50
74.121555178427371
51
251.54064736096183
0
CIRCLE
5
110
100
AcDbEntity
8
0
100
AcDbCircle
10
-198.7116589210564
20
-403.76124457168578
30
0
40
1.5875000000000132
0
CIRCLE
5
111
100
AcDbEntity
8
0
100
AcDbCircle
10
-332.02047720502105
20
-362.57455530248939
30
0
40
1.5875000000000132
0
CIRCLE
5
112
100
AcDbEntity
8
0
100
AcDbCircle
10
-465.32929548898596
20
-321.38786603329288
30
4.0389678347315804e-27
40
1.5875000000000132
0
CIRCLE
5
113
100
AcDbEntity
8
0
100
AcDbCircle
10
-598.63811377295099
20
-280.20117676409637
30
4.0389678347315804e-27
40
1.5874999999999952
0
CIRCLE
5
114
100
AcDbEntity
8
0
100
AcDbCircle
10
-731.94693205691578
20
-239.01448749489992
30
-4.0389678347315804e-27
40
1.5874999999999959
0
CIRCLE
5
115
100
AcDbEntity
8
0
100
AcDbCircle
10
-865.2557503408807
20
-197.82779822570348
30
-4.0389678347315804e-27
40
1.5874999999999959
0
CIRCLE
5
116
100
AcDbEntity
8
0
100
AcDbCircle
10
-998.56456862484549
20
-156.64110895650697
30
0
40
1.5874999999999959
0
ELLIPSE
5
117
100
AcDbEntity
8
0
100
AcDbEllipse
10
-837.2292177159369
20
-12.168994913150293
30
0
11
4.7618410950467371e-11
21
-1.5875005802289492
31
0.0
40
0.99999963450158036
41
0
42
6.2831853071795862
0
ELLIPSE
5
118
100
AcDbEntity
8
0
100
AcDbEllipse
10
-697.70293200165111
20
-12.168994913151074
30
4.0389678347315804e-27
11
4.7618410950467371e-11
21
-1.5875005802289492
31
0.0
40
0.99999963450158036
41
0
42
6.2831853071795862
0
ELLIPSE
5
119
100
AcDbEntity
8
0
100
AcDbEllipse
10
-558.17664628736532
20
-12.168994913151785
30
0
11
1.4916319047986182e-10
21
-1.5875005802289488
31
0.0
40
0.99999963450158036
41
0
42
6.2831853071795862
0
ELLIPSE
5
120
100
AcDbEntity
8
0
100
AcDbEllipse
10
-976.7555034302228
20
-12.168994913149547
30
0
11
4.8579170200402366e-11
21
-1.587500580228949
31
0.0
40
0.99999963450158058
41
0
42
6.2831853071795862
0
ELLIPSE
5
121
100
AcDbEntity
8
0
100
AcDbEllipse
10
-279.12407485879373
20
-12.168994913153242
30
-4.0389678347315804e-27
11
1.4925599818582658e-10
21
-1.587500580228967
31
0.0
40
0.99999963450158025
41
0
42
6.2831853071795862
0
ELLIPSE
5
122
100
AcDbEntity
8
0
100
AcDbEllipse
10
-139.59778914450811
20
-12.168994913154023
30
0
11
1.4925599818582658e-10
21
-1.587500580228967
31
0.0
40
0.99999963450158025
41
0
42
6.2831853071795862
0
ELLIPSE
5
123
100
AcDbEntity
8
0
100
AcDbEllipse
10
-0.07150343022232164
20
-12.168994913154734
30
0
11
1.4912523473020745e-10
21
-1.587500580228967
31
0.0
40
0.99999963450158025
41
0.022522669820650855
42
3.1190699842853959
0
ELLIPSE
5
124
100
AcDbEntity
8
0
100
AcDbEllipse
10
3.1171450272621357e-28
20
-12.168994913129616
30
0
11
9.8384885308111514e-11
21
-1.5875005802289315
31
0.0
40
0.99999963450158058
41
3.1641153234325063
42
6.2606626379170498
0
ELLIPSE
5
125
100
AcDbEntity
8
0
100
AcDbEllipse
10
-418.65036057307952
20
-12.168994913152531
30
0
11
4.7602694355775015e-11
21
-1.587500580228967
31
0.0
40
0.99999963450158003
41
0
42
6.2831853071795862
0
LWPOLYLINE
5
126
100
AcDbEntity
8
0
100
AcDbPolyline
90
20
70
1
43
0.0
10
1.3461454173580023e-14
20
1.2434497875801753e-13
42
-0.40204359675655144
10
25.37788868213703
20
-24.340393451764506
10
25.217932411810011
20
-25.993681020321091
10
17.167065049239664
20
-79.325455754294779
42
-0.37098081687772577
10
-7.9483769730082443
20
-100.93407447208449
10
-94.276841949966666
20
-100.93407447208534
42
0.37098081687772105
10
-143.7166884504548
20
-143.47072549135632
10
-163.88848237647971
20
-277.09577745090547
42
0.37098081687772438
10
-129.20810899546436
20
-332.33106331130841
10
-46.726549399496129
20
-357.81431647676436
42
-0.37098081687772538
10
-29.108919721940314
20
-385.87384169384904
10
-37.159787084509794
20
-439.20561642782059
10
-37.494991736057486
20
-440.83244882065196
42
-0.40204359675653784
10
-68.927037318680533
20
-456.59691829607345
10
-1002.1570824535321
20
-168.2689863525475
42
-0.40204359675652868
10
-1019.2190727214069
20
-137.52194624380672
10
-1018.8838680698623
20
-135.89511385098774
10
-1002.2933483826858
20
-25.993681020330577
10
-1002.1333921123587
20
-24.340393451763159
42
-0.40204359675653567
10
-976.75550343022201
20
7.1054273576010019e-14
0
LINE
5
127
100
AcDbEntity
8
0
100
AcDbLine
10
-37.327389410283693
20
-440.01903262423696
30
0
11
-1019.0514703956355
21
-136.70853004740181
31
1.9721522630525295e-30
0
LINE
5
128
100
AcDbEntity
8
0
100
AcDbLine
10
25.297910546974123
20
-25.167037236037011
30
0
11
-1002.2133702475228
21
-25.167037236046959
31
0
0
ENDSEC
0
SECTION
2
OBJECTS
0
DICTIONARY
5
C
100
AcDbDictionary
3
ACAD_GROUP
350
D
3
ACAD_MLINESTYLE
350
17
0
DICTIONARY
5
D
100
AcDbDictionary
0
DICTIONARY
5
1A
330
C
100
AcDbDictionary
0
DICTIONARY
5
17
100
AcDbDictionary
0
ENDSEC
0
EOF
