0
SECTION
2
HEADER
9
$INSUNITS
70
4
9
$ACADVER
1
AC1014
9
$HANDSEED
5
FFFF
0
ENDSEC
0
SECTION
2
TABLES
0
TABLE
2
VPORT
5
8
100
AcDbSymbolTable
0
ENDTAB
0
TABLE
2
LTYPE
5
5
100
AcDbSymbolTable
0
LTYPE
5
14
100
AcDbSymbolTableRecord
100
AcDbLinetypeTableRecord
2
BYBLOCK
70
0
0
LTYPE
5
15
100
AcDbSymbolTableRecord
100
AcDbLinetypeTableRecord
2
BYLAYER
70
0
0
ENDTAB
0
TABLE
2
LAYER
5
2
100
AcDbSymbolTable
70
2
0
LAYER
5
50
100
AcDbSymbolTableRecord
100
AcDbLayerTableRecord
2
0
70
0
6
CONTINUOUS
0
ENDTAB
0
TABLE
2
STYLE
5
3
100
AcDbSymbolTable
70
1
0
STYLE
5
11
100
AcDbSymbolTableRecord
100
AcDbTextStyleTableRecord
2
STANDARD
70
0
0
ENDTAB
0
TABLE
2
VIEW
5
6
100
AcDbSymbolTable
70
0
0
ENDTAB
0
TABLE
2
UCS
5
7
100
AcDbSymbolTable
70
0
0
ENDTAB
0
TABLE
2
APPID
5
9
100
AcDbSymbolTable
70
2
0
APPID
5
12
100
AcDbSymbolTableRecord
100
AcDbRegAppTableRecord
2
ACAD
70
0
0
ENDTAB
0
TABLE
2
DIMSTYLE
5
A
100
AcDbSymbolTable
70
1
0
ENDTAB
0
TABLE
2
BLOCK_RECORD
5
1
100
AcDbSymbolTable
70
1
0
BLOCK_RECORD
5
1F
100
AcDbSymbolTableRecord
100
AcDbBlockTableRecord
2
*MODEL_SPACE
0
BLOCK_RECORD
5
1B
100
AcDbSymbolTableRecord
100
AcDbBlockTableRecord
2
*PAPER_SPACE
0
ENDTAB
0
ENDSEC
0
SECTION
2
BLOCKS
0
BLOCK
5
20
100
AcDbEntity
100
AcDbBlockBegin
2
*MODEL_SPACE
0
ENDBLK
5
21
100
AcDbEntity
100
AcDbBlockEnd
0
BLOCK
5
1C
100
AcDbEntity
100
AcDbBlockBegin
2
*PAPER_SPACE
0
ENDBLK
5
1D
100
AcDbEntity
100
AcDbBlockEnd
0
ENDSEC
0
SECTION
2
ENTITIES
0
LWPOLYLINE
5
100
100
AcDbEntity
8
0
100
AcDbPolyline
90
4
70
1
43
0.0
10
34.574687969579543
20
-53.184380653142327
10
49.574687969579472
20
-38.184380653142377
10
43.91783372008711
20
-38.18438065314237
10
28.917833720087177
20
-53.18438065314232
0
LWPOLYLINE
5
101
100
AcDbEntity
8
0
100
AcDbPolyline
90
4
70
1
43
0.0
10
9.1188438468637436
20
-53.18438065314232
10
24.118843846863676
20
-38.184380653142377
10
18.461989597371307
20
-38.184380653142377
10
3.461989597371379
20
-53.18438065314232
0
LWPOLYLINE
5
102
100
AcDbEntity
8
0
100
AcDbPolyline
90
4
70
1
43
0.0
10
-1.3370002758520783
20
-38.184380653142362
10
-6.9938545253444531
20
-38.184380653142362
10
-16.274554435338032
20
-47.465080563135942
10
-13.446127310591848
20
-50.293507687882133
0
LWPOLYLINE
5
103
100
AcDbEntity
8
0
100
AcDbPolyline
90
3
70
1
43
0.0
10
-19.810088341270774
20
-43.929546657203211
10
-14.06492233720993
20
-38.184380653142355
10
-25.55525434533164
20
-38.184380653142355
0
LWPOLYLINE
5
104
100
AcDbEntity
8
0
100
AcDbPolyline
90
4
70
1
43
0.0
10
-3.6090782144941569
20
-53.184380653142313
10
11.390921785505776
20
-38.18438065314237
10
5.7340675360133995
20
-38.18438065314237
10
-9.2659324639865268
20
-53.18438065314232
0
LWPOLYLINE
5
105
100
AcDbEntity
8
0
100
AcDbPolyline
90
4
70
1
43
0.0
10
21.846765908221645
20
-53.184380653142327
10
36.846765908221577
20
-38.184380653142377
10
31.189911658729208
20
-38.18438065314237
10
16.189911658729276
20
-53.18438065314232
0
LWPOLYLINE
5
106
100
AcDbEntity
8
0
100
AcDbPolyline
90
4
70
1
43
0.0
10
62.302610030937387
20
-38.184380653142384
10
56.645755781445011
20
-38.184380653142384
10
41.645755781445082
20
-53.184380653142334
10
47.302610030937444
20
-53.184380653142327
0
LWPOLYLINE
5
107
100
AcDbEntity
8
0
100
AcDbPolyline
90
4
70
1
43
0.0
10
102.37367784280296
20
-10.684380653142281
10
106.37367784280298
20
-10.684380653142281
10
106.37367784280298
20
-9.184380653142286
10
102.37367784280296
20
-9.184380653142286
0
LWPOLYLINE
5
108
100
AcDbEntity
8
0
100
AcDbPolyline
90
4
70
1
43
0.0
10
73.373677842802948
20
-10.684380653142277
10
77.373677842802962
20
-10.684380653142277
10
77.373677842802962
20
-9.1843806531422825
10
73.373677842802948
20
-9.1843806531422842
0
LWPOLYLINE
5
109
100
AcDbEntity
8
0
100
AcDbPolyline
90
4
70
1
43
0.0
10
44.373677842802934
20
-10.684380653142282
10
48.373677842802934
20
-10.684380653142282
10
48.373677842802934
20
-9.1843806531422878
10
44.373677842802934
20
-9.1843806531422878
0
LWPOLYLINE
5
110
100
AcDbEntity
8
0
100
AcDbPolyline
90
4
70
1
43
0.0
10
15.373677842802923
20
-10.684380653142281
10
19.373677842802927
20
-10.684380653142281
10
19.373677842802927
20
-9.184380653142286
10
15.373677842802923
20
-9.184380653142286
0
LWPOLYLINE
5
111
100
AcDbEntity
8
0
100
AcDbPolyline
90
4
70
1
43
0.0
10
-13.626322157197086
20
-10.684380653142277
10
-9.6263221571970821
20
-10.684380653142277
10
-9.6263221571970803
20
-9.1843806531422825
10
-13.626322157197084
20
-9.1843806531422807
0
LWPOLYLINE
5
112
100
AcDbEntity
8
0
100
AcDbPolyline
90
4
70
1
43
0.0
10
-42.626322157197109
20
-10.684380653142282
10
-38.626322157197094
20
-10.684380653142282
10
-38.62632215719708
20
-9.1843806531422878
10
-42.626322157197087
20
-9.1843806531422878
0
LWPOLYLINE
5
113
100
AcDbEntity
8
0
100
AcDbPolyline
90
4
70
1
43
0.0
10
-71.626322157197094
20
-22.184380653142277
10
-67.626322157197094
20
-22.18438065314227
10
-67.626322157197109
20
-20.684380653142274
10
-71.626322157197109
20
-20.684380653142274
0
LWPOLYLINE
5
114
100
AcDbEntity
8
0
100
AcDbPolyline
90
4
70
1
43
0.0
10
-71.626322157197109
20
-10.684380653142281
10
-67.626322157197109
20
-10.684380653142281
10
-67.626322157197109
20
-9.1843806531422842
10
-71.626322157197123
20
-9.1843806531422842
0
LWPOLYLINE
5
115
100
AcDbEntity
8
0
100
AcDbPolyline
90
4
70
1
43
0.0
10
-42.626322157197109
20
-22.184380653142281
10
-38.626322157197094
20
-22.184380653142274
10
-38.626322157197094
20
-20.684380653142277
10
-42.626322157197094
20
-20.684380653142277
0
LWPOLYLINE
5
116
100
AcDbEntity
8
0
100
AcDbPolyline
90
4
70
1
43
0.0
10
-13.626322157197087
20
-22.184380653142277
10
-9.6263221571970838
20
-22.18438065314227
10
-9.6263221571970821
20
-20.684380653142274
10
-13.626322157197086
20
-20.684380653142274
0
LWPOLYLINE
5
117
100
AcDbEntity
8
0
100
AcDbPolyline
90
4
70
1
43
0.0
10
15.373677842802923
20
-22.184380653142277
10
19.373677842802927
20
-22.18438065314227
10
19.373677842802927
20
-20.684380653142274
10
15.373677842802921
20
-20.684380653142274
0
LWPOLYLINE
5
118
100
AcDbEntity
8
0
100
AcDbPolyline
90
4
70
1
43
0.0
10
44.37367784280292
20
-22.184380653142281
10
48.373677842802927
20
-22.184380653142274
10
48.373677842802927
20
-20.684380653142277
10
44.37367784280292
20
-20.684380653142277
0
LWPOLYLINE
5
119
100
AcDbEntity
8
0
100
AcDbPolyline
90
4
70
1
43
0.0
10
73.373677842802948
20
-22.184380653142277
10
77.373677842802948
20
-22.18438065314227
10
77.373677842802948
20
-20.684380653142274
10
73.373677842802948
20
-20.684380653142274
0
LWPOLYLINE
5
120
100
AcDbEntity
8
0
100
AcDbPolyline
90
4
70
1
43
0.0
10
102.37367784280298
20
-22.184380653142281
10
106.37367784280299
20
-22.184380653142274
10
106.37367784280299
20
-20.684380653142277
10
102.37367784280298
20
-20.684380653142277
0
CIRCLE
5
121
100
AcDbEntity
8
0
100
AcDbCircle
10
59.373677842802941
20
131.81561934685772
30
0
40
1.6500000000000006
0
CIRCLE
5
122
100
AcDbEntity
8
0
100
AcDbCircle
10
39.373677842802969
20
151.81561934685777
30
0
40
1.6500000000000006
0
CIRCLE
5
123
100
AcDbEntity
8
0
100
AcDbCircle
10
59.373677842802977
20
151.81561934685777
30
0
40
1.6500000000000006
0
CIRCLE
5
124
100
AcDbEntity
8
0
100
AcDbCircle
10
49.373677842802948
20
141.81561934685777
30
0
40
1.6500000000000006
0
CIRCLE
5
125
100
AcDbEntity
8
0
100
AcDbCircle
10
-22.626322157197119
20
131.81561934685777
30
0
40
1.6500000000000006
0
CIRCLE
5
126
100
AcDbEntity
8
0
100
AcDbCircle
10
-2.62632215719713
20
151.81561934685783
30
0
40
1.6500000000000006
0
CIRCLE
5
127
100
AcDbEntity
8
0
100
AcDbCircle
10
-22.62632215719713
20
151.81561934685777
30
0
40
1.6500000000000006
0
CIRCLE
5
128
100
AcDbEntity
8
0
100
AcDbCircle
10
-12.626322157197116
20
141.81561934685777
30
0
40
1.6500000000000006
0
LWPOLYLINE
5
129
100
AcDbEntity
8
0
100
AcDbPolyline
90
4
70
1
43
0.0
10
-96.626322157197109
20
7.8156193468577211
10
-106.62632215719711
20
7.8156193468577211
10
-106.62632215719711
20
1.8156193468577291
10
-96.626322157197109
20
1.815619346857722
0
LWPOLYLINE
5
130
100
AcDbEntity
8
0
100
AcDbPolyline
90
4
70
1
43
0.0
10
-116.62632215719711
20
7.8156193468577229
10
-126.62632215719711
20
7.8156193468577229
10
-126.62632215719711
20
1.8156193468577135
10
-116.62632215719711
20
1.8156193468577153
0
CIRCLE
5
131
100
AcDbEntity
8
0
100
AcDbCircle
10
-127.62632215719712
20
26.815619346857737
30
0
40
1.6500000000000006
0
CIRCLE
5
132
100
AcDbEntity
8
0
100
AcDbCircle
10
-127.62632215719711
20
46.815619346857744
30
0
40
1.6500000000000006
0
CIRCLE
5
133
100
AcDbEntity
8
0
100
AcDbCircle
10
-117.62632215719711
20
36.815619346857737
30
0
40
1.6500000000000006
0
CIRCLE
5
134
100
AcDbEntity
8
0
100
AcDbCircle
10
-4.3763221571967943
20
83.065619346857545
30
0
40
1.6500000000000008
0
CIRCLE
5
135
100
AcDbEntity
8
0
100
AcDbCircle
10
48.123677842803218
20
30.565619346857538
30
0
40
1.6500000000000008
0
CIRCLE
5
136
100
AcDbEntity
8
0
100
AcDbCircle
10
-4.376322157196797
20
30.565619346857545
30
0
40
1.6500000000000008
0
CIRCLE
5
137
100
AcDbEntity
8
0
100
AcDbCircle
10
48.123677842803218
20
83.065619346857545
30
0
40
1.6500000000000008
0
CIRCLE
5
138
100
AcDbEntity
8
0
100
AcDbCircle
10
21.873677842803211
20
56.815619346857538
30
0
40
26.250000000000014
0
LWPOLYLINE
5
139
100
AcDbEntity
8
0
100
AcDbPolyline
90
4
70
1
43
0.0
10
-81.626322157197123
20
91.815619346857758
10
-87.626322157197123
20
91.815619346857758
10
-87.626322157197109
20
81.815619346857744
10
-81.626322157197123
20
81.815619346857758
0
LWPOLYLINE
5
140
100
AcDbEntity
8
0
100
AcDbPolyline
90
4
70
1
43
0.0
10
-81.626322157197109
20
71.81561934685773
10
-87.626322157197109
20
71.81561934685773
10
-87.626322157197109
20
61.81561934685773
10
-81.626322157197109
20
61.815619346857737
0
LWPOLYLINE
5
141
100
AcDbEntity
8
0
100
AcDbPolyline
90
4
70
1
43
0.0
10
-81.626322157197109
20
51.81561934685773
10
-87.626322157197109
20
51.81561934685773
10
-87.626322157197109
20
41.815619346857737
10
-81.626322157197109
20
41.81561934685773
0
LWPOLYLINE
5
142
100
AcDbEntity
8
0
100
AcDbPolyline
90
4
70
1
43
0.0
10
-81.626322157197109
20
31.81561934685773
10
-87.626322157197109
20
31.81561934685773
10
-87.626322157197109
20
21.815619346857726
10
-81.626322157197109
20
21.815619346857726
0
LWPOLYLINE
5
143
100
AcDbEntity
8
0
100
AcDbPolyline
90
4
70
1
43
0.0
10
-81.626322157197109
20
11.815619346857723
10
-87.626322157197109
20
11.815619346857723
10
-87.626322157197109
20
1.8156193468577275
10
-81.626322157197109
20
1.8156193468577198
0
LWPOLYLINE
5
144
100
AcDbEntity
8
0
100
AcDbPolyline
90
4
70
1
43
0.0
10
-81.626322157197109
20
-8.1843806531422754
10
-87.626322157197109
20
-8.1843806531422754
10
-87.626322157197109
20
-18.184380653142274
10
-81.626322157197109
20
-18.184380653142277
0
LWPOLYLINE
5
145
100
AcDbEntity
8
0
100
AcDbPolyline
90
39
70
1
43
0.0
10
-137.62632215719714
20
51.815619346857709
10
-27.626322157197166
20
161.81561934685774
10
64.373677842803005
20
161.81561934685774
10
124.37367784280299
20
101.81561934685774
10
124.37367784280295
20
10.815619346857472
10
118.37367784280296
20
10.815619346857462
10
118.37367784280296
20
0.81561934685742354
10
124.37367784280295
20
0.81561934685742132
10
124.37367784280295
20
-9.1843806531425365
10
118.37367784280296
20
-9.1843806531425383
10
118.37367784280296
20
-19.18438065314254
10
124.37367784280296
20
-19.18438065314254
10
124.37367784280295
20
-38.184380653142362
10
109.37367784280298
20
-38.184380653142284
10
109.37367784280296
20
-32.184380653142284
10
99.373677842802962
20
-32.184380653142284
10
99.373677842802948
20
-38.184380653142284
10
89.373677842802948
20
-38.184380653142277
10
89.373677842802948
20
-32.184380653142284
10
79.373677842802934
20
-32.184380653142284
10
79.373677842802934
20
-38.184380653142284
10
69.37367784280292
20
-38.184380653142334
10
49.37367784280292
20
-58.184380653142327
10
-12.626322157197132
20
-58.184380653142334
10
-32.626322157197187
20
-38.184380653142284
10
-42.626322157197109
20
-38.184380653142284
10
-42.626322157197116
20
-32.184380653142284
10
-52.626322157197116
20
-32.184380653142291
10
-52.626322157197109
20
-38.184380653142284
10
-62.626322157197116
20
-38.184380653142277
10
-62.626322157197123
20
-32.184380653142284
10
-72.626322157197123
20
-32.184380653142284
10
-72.626322157197109
20
-38.184380653142284
10
-81.626322157197094
20
-38.184380653142284
10
-81.626322157197094
20
-28.184380653142277
10
-87.62632215719708
20
-28.184380653142284
10
-87.62632215719708
20
-38.184380653142362
10
-127.62632215719708
20
-38.184380653142298
10
-137.62632215719708
20
-28.184380653142362
0
ENDSEC
0
SECTION
2
OBJECTS
0
DICTIONARY
5
C
100
AcDbDictionary
3
ACAD_GROUP
350
D
3
ACAD_MLINESTYLE
350
17
0
DICTIONARY
5
D
100
AcDbDictionary
0
DICTIONARY
5
1A
330
C
100
AcDbDictionary
0
DICTIONARY
5
17
100
AcDbDictionary
0
ENDSEC
0
EOF
