  0
SECTION
  2
HEADER
  9
$ACADVER
  1
AC1024
  9
$ACADMAINTVER
 70
     6
  9
$DWGCODEPAGE
  3
ANSI_1252
  9
$INSBASE
 10
0.0
 20
0.0
 30
0.0
  9
$EXTMIN
 10
1.000000000000000E+20
 20
1.000000000000000E+20
 30
1.000000000000000E+20
  9
$EXTMAX
 10
-1.000000000000000E+20
 20
-1.000000000000000E+20
 30
-1.000000000000000E+20
  9
$LIMMIN
 10
0.0
 20
0.0
  9
$LIMMAX
 10
12.0
 20
9.0
  9
$ORTHOMODE
 70
     0
  9
$REGENMODE
 70
     1
  9
$FILLMODE
 70
     1
  9
$QTEXTMODE
 70
     0
  9
$MIRRTEXT
 70
     1
  9
$LTSCALE
 40
1.0
  9
$ATTMODE
 70
     1
  9
$TEXTSIZE
 40
0.2
  9
$TRACEWID
 40
0.05
  9
$TEXTSTYLE
  7
Standard
  9
$CLAYER
  8
0
  9
$CELTYPE
  6
ByLayer
  9
$CECOLOR
 62
   256
  9
$CELTSCALE
 40
1.0
  9
$DISPSILH
 70
     0
  9
$DIMSCALE
 40
1.0
  9
$DIMASZ
 40
0.18
  9
$DIMEXO
 40
0.0625
  9
$DIMDLI
 40
0.38
  9
$DIMRND
 40
0.0
  9
$DIMDLE
 40
0.0
  9
$DIMEXE
 40
0.18
  9
$DIMTP
 40
0.0
  9
$DIMTM
 40
0.0
  9
$DIMTXT
 40
0.18
  9
$DIMCEN
 40
0.09
  9
$DIMTSZ
 40
0.0
  9
$DIMTOL
 70
     0
  9
$DIMLIM
 70
     0
  9
$DIMTIH
 70
     1
  9
$DIMTOH
 70
     1
  9
$DIMSE1
 70
     0
  9
$DIMSE2
 70
     0
  9
$DIMTAD
 70
     0
  9
$DIMZIN
 70
     0
  9
$DIMBLK
  1

  9
$DIMASO
 70
     1
  9
$DIMSHO
 70
     1
  9
$DIMPOST
  1

  9
$DIMAPOST
  1

  9
$DIMALT
 70
     0
  9
$DIMALTD
 70
     2
  9
$DIMALTF
 40
25.4
  9
$DIMLFAC
 40
1.0
  9
$DIMTOFL
 70
     0
  9
$DIMTVP
 40
0.0
  9
$DIMTIX
 70
     0
  9
$DIMSOXD
 70
     0
  9
$DIMSAH
 70
     0
  9
$DIMBLK1
  1

  9
$DIMBLK2
  1

  9
$DIMSTYLE
  2
Standard
  9
$DIMCLRD
 70
     0
  9
$DIMCLRE
 70
     0
  9
$DIMCLRT
 70
     0
  9
$DIMTFAC
 40
1.0
  9
$DIMGAP
 40
0.09
  9
$DIMJUST
 70
     0
  9
$DIMSD1
 70
     0
  9
$DIMSD2
 70
     0
  9
$DIMTOLJ
 70
     1
  9
$DIMTZIN
 70
     0
  9
$DIMALTZ
 70
     0
  9
$DIMALTTZ
 70
     0
  9
$DIMUPT
 70
     0
  9
$DIMDEC
 70
     4
  9
$DIMTDEC
 70
     4
  9
$DIMALTU
 70
     2
  9
$DIMALTTD
 70
     2
  9
$DIMTXSTY
  7
Standard
  9
$DIMAUNIT
 70
     0
  9
$DIMADEC
 70
     0
  9
$DIMALTRND
 40
0.0
  9
$DIMAZIN
 70
     0
  9
$DIMDSEP
 70
    46
  9
$DIMATFIT
 70
     3
  9
$DIMFRAC
 70
     0
  9
$DIMLDRBLK
  1

  9
$DIMLUNIT
 70
     2
  9
$DIMLWD
 70
    -2
  9
$DIMLWE
 70
    -2
  9
$DIMTMOVE
 70
     0
  9
$DIMFXL
 40
1.0
  9
$DIMFXLON
 70
     0
  9
$DIMJOGANG
 40
0.7853981633974483
  9
$DIMTFILL
 70
     0
  9
$DIMTFILLCLR
 70
     0
  9
$DIMARCSYM
 70
     0
  9
$DIMLTYPE
  6

  9
$DIMLTEX1
  6

  9
$DIMLTEX2
  6

  9
$DIMTXTDIRECTION
 70
     0
  9
$LUNITS
 70
     2
  9
$LUPREC
 70
     4
  9
$SKETCHINC
 40
0.1
  9
$FILLETRAD
 40
0.5
  9
$AUNITS
 70
     0
  9
$AUPREC
 70
     0
  9
$MENU
  1
.
  9
$ELEVATION
 40
0.0
  9
$PELEVATION
 40
0.0
  9
$THICKNESS
 40
0.0
  9
$LIMCHECK
 70
     0
  9
$CHAMFERA
 40
0.5
  9
$CHAMFERB
 40
0.5
  9
$CHAMFERC
 40
1.0
  9
$CHAMFERD
 40
0.0
  9
$SKPOLY
 70
     0
  9
$TDCREATE
 40
2458290.519635798
  9
$TDUCREATE
 40
2458290.436302465
  9
$TDUPDATE
 40
2458290.519635868
  9
$TDUUPDATE
 40
2458290.436302535
  9
$TDINDWG
 40
0.0000000116
  9
$TDUSRTIMER
 40
0.0000000116
  9
$USRTIMER
 70
     1
  9
$ANGBASE
 50
0.0
  9
$ANGDIR
 70
     0
  9
$PDMODE
 70
     0
  9
$PDSIZE
 40
0.0
  9
$PLINEWID
 40
0.0
  9
$SPLFRAME
 70
     0
  9
$SPLINETYPE
 70
     6
  9
$SPLINESEGS
 70
     8
  9
$HANDSEED
  5
B8
  9
$SURFTAB1
 70
     6
  9
$SURFTAB2
 70
     6
  9
$SURFTYPE
 70
     6
  9
$SURFU
 70
     6
  9
$SURFV
 70
     6
  9
$UCSBASE
  2

  9
$UCSNAME
  2

  9
$UCSORG
 10
0.0
 20
0.0
 30
0.0
  9
$UCSXDIR
 10
1.0
 20
0.0
 30
0.0
  9
$UCSYDIR
 10
0.0
 20
1.0
 30
0.0
  9
$UCSORTHOREF
  2

  9
$UCSORTHOVIEW
 70
     0
  9
$UCSORGTOP
 10
0.0
 20
0.0
 30
0.0
  9
$UCSORGBOTTOM
 10
0.0
 20
0.0
 30
0.0
  9
$UCSORGLEFT
 10
0.0
 20
0.0
 30
0.0
  9
$UCSORGRIGHT
 10
0.0
 20
0.0
 30
0.0
  9
$UCSORGFRONT
 10
0.0
 20
0.0
 30
0.0
  9
$UCSORGBACK
 10
0.0
 20
0.0
 30
0.0
  9
$PUCSBASE
  2

  9
$PUCSNAME
  2

  9
$PUCSORG
 10
0.0
 20
0.0
 30
0.0
  9
$PUCSXDIR
 10
1.0
 20
0.0
 30
0.0
  9
$PUCSYDIR
 10
0.0
 20
1.0
 30
0.0
  9
$PUCSORTHOREF
  2

  9
$PUCSORTHOVIEW
 70
     0
  9
$PUCSORGTOP
 10
0.0
 20
0.0
 30
0.0
  9
$PUCSORGBOTTOM
 10
0.0
 20
0.0
 30
0.0
  9
$PUCSORGLEFT
 10
0.0
 20
0.0
 30
0.0
  9
$PUCSORGRIGHT
 10
0.0
 20
0.0
 30
0.0
  9
$PUCSORGFRONT
 10
0.0
 20
0.0
 30
0.0
  9
$PUCSORGBACK
 10
0.0
 20
0.0
 30
0.0
  9
$USERI1
 70
     0
  9
$USERI2
 70
     0
  9
$USERI3
 70
     0
  9
$USERI4
 70
     0
  9
$USERI5
 70
     0
  9
$USERR1
 40
0.0
  9
$USERR2
 40
0.0
  9
$USERR3
 40
0.0
  9
$USERR4
 40
0.0
  9
$USERR5
 40
0.0
  9
$WORLDVIEW
 70
     1
  9
$SHADEDGE
 70
     3
  9
$SHADEDIF
 70
    70
  9
$TILEMODE
 70
     1
  9
$MAXACTVP
 70
    64
  9
$PINSBASE
 10
0.0
 20
0.0
 30
0.0
  9
$PLIMCHECK
 70
     0
  9
$PEXTMIN
 10
1.000000000000000E+20
 20
1.000000000000000E+20
 30
1.000000000000000E+20
  9
$PEXTMAX
 10
-1.000000000000000E+20
 20
-1.000000000000000E+20
 30
-1.000000000000000E+20
  9
$PLIMMIN
 10
0.0
 20
0.0
  9
$PLIMMAX
 10
12.0
 20
9.0
  9
$UNITMODE
 70
     0
  9
$VISRETAIN
 70
     1
  9
$PLINEGEN
 70
     0
  9
$PSLTSCALE
 70
     1
  9
$TREEDEPTH
 70
  3020
  9
$CMLSTYLE
  2
Standard
  9
$CMLJUST
 70
     0
  9
$CMLSCALE
 40
1.0
  9
$PROXYGRAPHICS
 70
     1
  9
$MEASUREMENT
 70
     0
  9
$CELWEIGHT
370
    -1
  9
$ENDCAPS
280
     0
  9
$JOINSTYLE
280
     0
  9
$LWDISPLAY
290
     1
  9
$INSUNITS
 70
     1
  9
$HYPERLINKBASE
  1

  9
$STYLESHEET
  1

  9
$XEDIT
290
     1
  9
$CEPSNTYPE
380
     0
  9
$PSTYLEMODE
290
     1
  9
$FINGERPRINTGUID
  2
{B5FA7779-E3E0-4D82-A4E5-7725B684C14D}
  9
$VERSIONGUID
  2
{FAEB1C32-E019-11D5-929B-00C0DF256EC4}
  9
$EXTNAMES
290
     1
  9
$PSVPSCALE
 40
0.0
  9
$OLESTARTUP
290
     0
  9
$SORTENTS
280
   127
  9
$INDEXCTL
280
     0
  9
$HIDETEXT
280
     1
  9
$XCLIPFRAME
280
     2
  9
$HALOGAP
280
     0
  9
$OBSCOLOR
 70
   257
  9
$OBSLTYPE
280
     0
  9
$INTERSECTIONDISPLAY
280
     0
  9
$INTERSECTIONCOLOR
 70
   257
  9
$DIMASSOC
280
     2
  9
$PROJECTNAME
  1

  9
$CAMERADISPLAY
290
     0
  9
$LENSLENGTH
 40
50.0
  9
$CAMERAHEIGHT
 40
0.0
  9
$STEPSPERSEC
 40
2.0
  9
$STEPSIZE
 40
6.0
  9
$3DDWFPREC
 40
2.0
  9
$PSOLWIDTH
 40
0.25
  9
$PSOLHEIGHT
 40
4.0
  9
$LOFTANG1
 40
1.570796326794897
  9
$LOFTANG2
 40
1.570796326794897
  9
$LOFTMAG1
 40
0.0
  9
$LOFTMAG2
 40
0.0
  9
$LOFTPARAM
 70
     7
  9
$LOFTNORMALS
280
     1
  9
$LATITUDE
 40
37.795
  9
$LONGITUDE
 40
-122.394
  9
$NORTHDIRECTION
 40
0.0
  9
$TIMEZONE
 70
 -8000
  9
$LIGHTGLYPHDISPLAY
280
     1
  9
$TILEMODELIGHTSYNCH
280
     1
  9
$CMATERIAL
347
3C
  9
$SOLIDHIST
280
     1
  9
$SHOWHIST
280
     1
  9
$DWFFRAME
280
     2
  9
$DGNFRAME
280
     2
  9
$REALWORLDSCALE
290
     1
  9
$INTERFERECOLOR
 62
   256
  9
$CSHADOW
280
     0
  9
$SHADOWPLANELOCATION
 40
0.0
  0
ENDSEC
  0
SECTION
  2
CLASSES
  0
CLASS
  1
ACDBDICTIONARYWDFLT
  2
AcDbDictionaryWithDefault
  3
ObjectDBX Classes
 90
        0
 91
        4
280
     0
281
     0
  0
CLASS
  1
VISUALSTYLE
  2
AcDbVisualStyle
  3
ObjectDBX Classes
 90
     4095
 91
        4
280
     0
281
     0
  0
CLASS
  1
MATERIAL
  2
AcDbMaterial
  3
ObjectDBX Classes
 90
     1153
 91
        4
280
     0
281
     0
  0
CLASS
  1
SUN
  2
AcDbSun
  3
SCENEOE
 90
     1024
 91
        4
280
     0
281
     0
  0
ENDSEC
  0
SECTION
  2
TABLES
  0
TABLE
  2
VPORT
  5
8
330
0
100
AcDbSymbolTable
 70
     1
  0
VPORT
  5
29
330
8
100
AcDbSymbolTableRecord
100
AcDbViewportTableRecord
  2
*Active
 70
     0
 10
0.0
 20
0.0
 11
1.0
 21
1.0
 12
0.0
 22
0.0
 13
0.0
 23
0.0
 14
0.5
 24
0.5
 15
0.5
 25
0.5
 16
0.0
 26
0.0
 36
1.0
 17
599.999152627778
 27
-400.0006110111112
 37
0.0
 40
800.0012220222224
 41
1.499995590284514
 42
50.0
 43
0.0
 44
0.0
 50
0.0
 51
0.0
 71
     0
 72
   100
 73
     1
 74
     3
 75
     0
 76
     0
 77
     0
 78
     0
281
     0
 65
     1
110
0.0
120
0.0
130
0.0
111
1.0
121
0.0
131
0.0
112
0.0
122
1.0
132
0.0
 79
     0
146
0.0
 60
     3
 61
     5
292
     1
282
     1
141
0.0
142
0.0
 63
   250
361
3F
  0
ENDTAB
  0
TABLE
  2
LTYPE
  5
5
330
0
100
AcDbSymbolTable
 70
     1
  0
LTYPE
  5
14
330
5
100
AcDbSymbolTableRecord
100
AcDbLinetypeTableRecord
  2
ByBlock
 70
     0
  3

 72
    65
 73
     0
 40
0.0
  0
LTYPE
  5
15
330
5
100
AcDbSymbolTableRecord
100
AcDbLinetypeTableRecord
  2
ByLayer
 70
     0
  3

 72
    65
 73
     0
 40
0.0
  0
LTYPE
  5
16
330
5
100
AcDbSymbolTableRecord
100
AcDbLinetypeTableRecord
  2
Continuous
 70
     0
  3
Solid line
 72
    65
 73
     0
 40
0.0
  0
ENDTAB
  0
TABLE
  2
LAYER
  5
2
330
0
100
AcDbSymbolTable
 70
     3
  0
LAYER
  5
10
330
2
100
AcDbSymbolTableRecord
100
AcDbLayerTableRecord
  2
0
 70
     0
 62
     7
  6
Continuous
370
    -3
390
F
347
3E
  0
LAYER
  5
40
330
2
100
AcDbSymbolTableRecord
100
AcDbLayerTableRecord
  2
Calque 2
 70
     0
 62
     7
  6
Continuous
370
    -3
390
F
347
3E
  0
LAYER
  5
51
330
2
100
AcDbSymbolTableRecord
100
AcDbLayerTableRecord
  2
Calque 1
 70
     0
 62
     7
  6
Continuous
370
    -3
390
F
347
3E
  0
ENDTAB
  0
TABLE
  2
STYLE
  5
3
330
0
100
AcDbSymbolTable
 70
     1
  0
STYLE
  5
11
330
3
100
AcDbSymbolTableRecord
100
AcDbTextStyleTableRecord
  2
Standard
 70
     0
 40
0.0
 41
1.0
 50
0.0
 71
     0
 42
0.2
  3
txt
  4

  0
ENDTAB
  0
TABLE
  2
VIEW
  5
6
330
0
100
AcDbSymbolTable
 70
     0
  0
ENDTAB
  0
TABLE
  2
UCS
  5
7
330
0
100
AcDbSymbolTable
 70
     0
  0
ENDTAB
  0
TABLE
  2
APPID
  5
9
330
0
100
AcDbSymbolTable
 70
     1
  0
APPID
  5
12
330
9
100
AcDbSymbolTableRecord
100
AcDbRegAppTableRecord
  2
ACAD
 70
     0
  0
ENDTAB
  0
TABLE
  2
DIMSTYLE
  5
A
330
0
100
AcDbSymbolTable
 70
     1
100
AcDbDimStyleTable
  0
DIMSTYLE
105
27
330
A
100
AcDbSymbolTableRecord
100
AcDbDimStyleTableRecord
  2
Standard
 70
     0
178
     0
340
11
  0
ENDTAB
  0
TABLE
  2
BLOCK_RECORD
  5
1
330
0
100
AcDbSymbolTable
 70
     1
  0
BLOCK_RECORD
  5
1F
330
1
100
AcDbSymbolTableRecord
100
AcDbBlockTableRecord
  2
*Model_Space
340
22
 70
     0
280
     1
281
     0
  0
BLOCK_RECORD
  5
1B
330
1
100
AcDbSymbolTableRecord
100
AcDbBlockTableRecord
  2
*Paper_Space
340
1E
 70
     0
280
     1
281
     0
  0
BLOCK_RECORD
  5
23
330
1
100
AcDbSymbolTableRecord
100
AcDbBlockTableRecord
  2
*Paper_Space0
340
26
 70
     0
280
     1
281
     0
  0
ENDTAB
  0
ENDSEC
  0
SECTION
  2
BLOCKS
  0
BLOCK
  5
20
330
1F
100
AcDbEntity
  8
0
100
AcDbBlockBegin
  2
*Model_Space
 70
     0
 10
0.0
 20
0.0
 30
0.0
  3
*Model_Space
  1

  0
ENDBLK
  5
21
330
1F
100
AcDbEntity
  8
0
100
AcDbBlockEnd
  0
BLOCK
  5
1C
330
1B
100
AcDbEntity
 67
     1
  8
0
100
AcDbBlockBegin
  2
*Paper_Space
 70
     0
 10
0.0
 20
0.0
 30
0.0
  3
*Paper_Space
  1

  0
ENDBLK
  5
1D
330
1B
100
AcDbEntity
 67
     1
  8
0
100
AcDbBlockEnd
  0
BLOCK
  5
24
330
23
100
AcDbEntity
  8
0
100
AcDbBlockBegin
  2
*Paper_Space0
 70
     0
 10
0.0
 20
0.0
 30
0.0
  3
*Paper_Space0
  1

  0
ENDBLK
  5
25
330
23
100
AcDbEntity
  8
0
100
AcDbBlockEnd
  0
ENDSEC
  0
SECTION
  2
ENTITIES
  0
POLYLINE
  5
41
330
1F
100
AcDbEntity
  8
Calque 2
 62
   250
420
  2565157
370
    35
100
AcDb2dPolyline
 66
     1
 10
0.0
 20
0.0
 30
0.0
  0
VERTEX
  5
42
330
41
100
AcDbEntity
  8
Calque 2
 62
   250
420
  2565157
370
    35
100
AcDbVertex
100
AcDb2dVertex
 10
608.6981367826689
 20
-562.0087061477775
 30
0.0
  0
VERTEX
  5
43
330
41
100
AcDbEntity
  8
Calque 2
 62
   250
420
  2565157
370
    35
100
AcDbVertex
100
AcDb2dVertex
 10
218.6981368801675
 20
-562.0087061477775
 30
0.0
  0
VERTEX
  5
44
330
41
100
AcDbEntity
  8
Calque 2
 62
   250
420
  2565157
370
    35
100
AcDbVertex
100
AcDb2dVertex
 10
218.6981368801675
 20
-238.0087062287789
 30
0.0
  0
VERTEX
  5
45
330
41
100
AcDbEntity
  8
Calque 2
 62
   250
420
  2565157
370
    35
100
AcDbVertex
100
AcDb2dVertex
 10
608.6981367826689
 20
-238.0087062287789
 30
0.0
  0
VERTEX
  5
46
330
41
100
AcDbEntity
  8
Calque 2
 62
   250
420
  2565157
370
    35
100
AcDbVertex
100
AcDb2dVertex
 10
608.6981367826689
 20
-562.0087061477775
 30
0.0
  0
SEQEND
  5
48
330
41
100
AcDbEntity
  8
Calque 2
 62
   250
420
  2565157
370
    35
  0
HATCH
  5
47
330
1F
100
AcDbEntity
  8
Calque 2
 62
   253
420
 11711154
100
AcDbHatch
 10
0.0
 20
0.0
 30
0.0
210
0.0
220
0.0
230
1.0
  2
SOLID
 70
     1
 71
     0
 91
        1
 92
        1
 93
        4
 72
     1
 10
608.6981367826689
 20
-562.0087061477775
 11
218.6981368801675
 21
-562.0087061477775
 72
     1
 10
218.6981368801675
 20
-562.0087061477775
 11
218.6981368801675
 21
-238.0087062287789
 72
     1
 10
218.6981368801675
 20
-238.0087062287789
 11
608.6981367826689
 21
-238.0087062287789
 72
     1
 10
608.6981367826689
 20
-238.0087062287789
 11
608.6981367826689
 21
-562.0087061477775
 97
        0
 75
     2
 76
     1
 98
        0
  0
POLYLINE
  5
49
330
1F
100
AcDbEntity
  8
Calque 2
 62
   250
420
  2565157
370
    35
100
AcDb2dPolyline
 66
     1
 10
0.0
 20
0.0
 30
0.0
  0
VERTEX
  5
4A
330
49
100
AcDbEntity
  8
Calque 2
 62
   250
420
  2565157
370
    35
100
AcDbVertex
100
AcDb2dVertex
 10
998.6981366851682
 20
-562.0087061477775
 30
0.0
  0
VERTEX
  5
4B
330
49
100
AcDbEntity
  8
Calque 2
 62
   250
420
  2565157
370
    35
100
AcDbVertex
100
AcDb2dVertex
 10
608.6981367826689
 20
-562.0087061477775
 30
0.0
  0
VERTEX
  5
4C
330
49
100
AcDbEntity
  8
Calque 2
 62
   250
420
  2565157
370
    35
100
AcDbVertex
100
AcDb2dVertex
 10
608.6981367826689
 20
-238.0087062287789
 30
0.0
  0
VERTEX
  5
4D
330
49
100
AcDbEntity
  8
Calque 2
 62
   250
420
  2565157
370
    35
100
AcDbVertex
100
AcDb2dVertex
 10
998.6981366851682
 20
-238.0087062287789
 30
0.0
  0
VERTEX
  5
4E
330
49
100
AcDbEntity
  8
Calque 2
 62
   250
420
  2565157
370
    35
100
AcDbVertex
100
AcDb2dVertex
 10
998.6981366851682
 20
-562.0087061477775
 30
0.0
  0
SEQEND
  5
50
330
49
100
AcDbEntity
  8
Calque 2
 62
   250
420
  2565157
370
    35
  0
HATCH
  5
4F
330
1F
100
AcDbEntity
  8
Calque 2
 62
   253
420
 11711154
100
AcDbHatch
 10
0.0
 20
0.0
 30
0.0
210
0.0
220
0.0
230
1.0
  2
SOLID
 70
     1
 71
     0
 91
        1
 92
        1
 93
        4
 72
     1
 10
998.6981366851682
 20
-562.0087061477775
 11
608.6981367826689
 21
-562.0087061477775
 72
     1
 10
608.6981367826689
 20
-562.0087061477775
 11
608.6981367826689
 21
-238.0087062287789
 72
     1
 10
608.6981367826689
 20
-238.0087062287789
 11
998.6981366851682
 21
-238.0087062287789
 72
     1
 10
998.6981366851682
 20
-238.0087062287789
 11
998.6981366851682
 21
-562.0087061477775
 97
        0
 75
     2
 76
     1
 98
        0
  0
SPLINE
  5
52
330
1F
100
AcDbEntity
  8
Calque 1
 62
   250
420
  2565157
370
    35
100
AcDbSpline
210
0.0
220
0.0
230
1.0
 70
    11
 71
     3
 72
    17
 73
    13
 74
     0
 42
0.0000000001
 43
0.0000000001
 12
1.0
 22
0.0
 32
0.0
 13
1.0
 23
0.0
 33
0.0
 40
0.0
 40
0.0
 40
0.0
 40
0.0
 40
1.0
 40
1.0
 40
1.0
 40
2.0
 40
2.0
 40
2.0
 40
3.0
 40
3.0
 40
3.0
 40
4.0
 40
4.0
 40
4.0
 40
4.0
 10
602.1785501250987
 20
-303.9958004742155
 30
0.0
 10
602.1785501250987
 20
-331.6100379573117
 30
0.0
 10
579.7927876206942
 20
-353.9958004617134
 30
0.0
 10
552.1785501375979
 20
-353.9958004617134
 30
0.0
 10
524.5643126545019
 20
-353.9958004617134
 30
0.0
 10
502.1785501501003
 20
-331.6100379573117
 30
0.0
 10
502.1785501501003
 20
-303.9958004742155
 30
0.0
 10
502.1785501501003
 20
-276.3815629911192
 30
0.0
 10
524.5643126545019
 20
-253.9958004867146
 30
0.0
 10
552.1785501375979
 20
-253.9958004867146
 30
0.0
 10
579.7927876206942
 20
-253.9958004867146
 30
0.0
 10
602.1785501250987
 20
-276.3815629911192
 30
0.0
 10
602.1785501250987
 20
-303.9958004742155
 30
0.0
  0
HATCH
  5
53
330
1F
100
AcDbEntity
  8
Calque 1
 62
     7
420
 16711679
100
AcDbHatch
 10
0.0
 20
0.0
 30
0.0
210
0.0
220
0.0
230
1.0
  2
SOLID
 70
     1
 71
     0
 91
        1
 92
        1
 93
        1
 72
     4
 94
        3
 73
     0
 74
     1
 95
       17
 96
       13
 40
0.0
 40
0.0
 40
0.0
 40
0.0
 40
1.0
 40
1.0
 40
1.0
 40
2.0
 40
2.0
 40
2.0
 40
3.0
 40
3.0
 40
3.0
 40
4.0
 40
4.0
 40
4.0
 40
4.0
 10
602.1785501250987
 20
-303.9958004742155
 10
602.1785501250987
 20
-331.6100379573117
 10
579.7927876206942
 20
-353.9958004617134
 10
552.1785501375979
 20
-353.9958004617134
 10
524.5643126545019
 20
-353.9958004617134
 10
502.1785501501003
 20
-331.6100379573117
 10
502.1785501501003
 20
-303.9958004742155
 10
502.1785501501003
 20
-276.3815629911192
 10
524.5643126545019
 20
-253.9958004867146
 10
552.1785501375979
 20
-253.9958004867146
 10
579.7927876206942
 20
-253.9958004867146
 10
602.1785501250987
 20
-276.3815629911192
 10
602.1785501250987
 20
-303.9958004742155
 97
        0
 97
        0
 75
     2
 76
     1
 98
        0
  0
SPLINE
  5
54
330
1F
100
AcDbEntity
  8
Calque 1
 62
   250
420
  2565157
370
    35
100
AcDbSpline
210
0.0
220
0.0
230
1.0
 70
    11
 71
     3
 72
    17
 73
    13
 74
     0
 42
0.0000000001
 43
0.0000000001
 12
1.0
 22
0.0
 32
0.0
 13
1.0
 23
0.0
 33
0.0
 40
0.0
 40
0.0
 40
0.0
 40
0.0
 40
1.0
 40
1.0
 40
1.0
 40
2.0
 40
2.0
 40
2.0
 40
3.0
 40
3.0
 40
3.0
 40
4.0
 40
4.0
 40
4.0
 40
4.0
 10
466.639537141501
 20
-300.546868632666
 30
0.0
 10
466.639537141501
 20
-330.922529864071
 30
0.0
 10
442.0151983866575
 20
-355.5468686189128
 30
0.0
 10
411.6395371552522
 20
-355.5468686189128
 30
0.0
 10
381.263875923847
 20
-355.5468686189128
 30
0.0
 10
356.6395371690035
 20
-330.922529864071
 30
0.0
 10
356.6395371690035
 20
-300.546868632666
 30
0.0
 10
356.6395371690035
 20
-270.1712074012572
 30
0.0
 10
381.263875923847
 20
-245.5468686464137
 30
0.0
 10
411.6395371552522
 20
-245.5468686464137
 30
0.0
 10
442.0151983866575
 20
-245.5468686464137
 30
0.0
 10
466.639537141501
 20
-270.1712074012572
 30
0.0
 10
466.639537141501
 20
-300.546868632666
 30
0.0
  0
HATCH
  5
55
330
1F
100
AcDbEntity
  8
Calque 1
 62
     7
420
 16711679
100
AcDbHatch
 10
0.0
 20
0.0
 30
0.0
210
0.0
220
0.0
230
1.0
  2
SOLID
 70
     1
 71
     0
 91
        1
 92
        1
 93
        1
 72
     4
 94
        3
 73
     0
 74
     1
 95
       17
 96
       13
 40
0.0
 40
0.0
 40
0.0
 40
0.0
 40
1.0
 40
1.0
 40
1.0
 40
2.0
 40
2.0
 40
2.0
 40
3.0
 40
3.0
 40
3.0
 40
4.0
 40
4.0
 40
4.0
 40
4.0
 10
466.639537141501
 20
-300.546868632666
 10
466.639537141501
 20
-330.922529864071
 10
442.0151983866575
 20
-355.5468686189128
 10
411.6395371552522
 20
-355.5468686189128
 10
381.263875923847
 20
-355.5468686189128
 10
356.6395371690035
 20
-330.922529864071
 10
356.6395371690035
 20
-300.546868632666
 10
356.6395371690035
 20
-270.1712074012572
 10
381.263875923847
 20
-245.5468686464137
 10
411.6395371552522
 20
-245.5468686464137
 10
442.0151983866575
 20
-245.5468686464137
 10
466.639537141501
 20
-270.1712074012572
 10
466.639537141501
 20
-300.546868632666
 97
        0
 97
        0
 75
     2
 76
     1
 98
        0
  0
SPLINE
  5
56
330
1F
100
AcDbEntity
  8
Calque 1
 62
   250
420
  2565157
370
    35
100
AcDbSpline
210
0.0
220
0.0
230
1.0
 70
    11
 71
     3
 72
    17
 73
    13
 74
     0
 42
0.0000000001
 43
0.0000000001
 12
1.0
 22
0.0
 32
0.0
 13
1.0
 23
0.0
 33
0.0
 40
0.0
 40
0.0
 40
0.0
 40
0.0
 40
1.0
 40
1.0
 40
1.0
 40
2.0
 40
2.0
 40
2.0
 40
3.0
 40
3.0
 40
3.0
 40
4.0
 40
4.0
 40
4.0
 40
4.0
 10
747.6047517777204
 20
-499.6315207946922
 30
0.0
 10
747.6047517777204
 20
-472.0172833115962
 30
0.0
 10
769.9905142821259
 20
-449.6315208071914
 30
0.0
 10
797.6047517652212
 20
-449.6315208071914
 30
0.0
 10
825.2189892483177
 20
-449.6315208071914
 30
0.0
 10
847.6047517527227
 20
-472.0172833115962
 30
0.0
 10
847.6047517527227
 20
-499.6315207946922
 30
0.0
 10
847.6047517527227
 20
-527.2457582777887
 30
0.0
 10
825.2189892483177
 20
-549.6315207821937
 30
0.0
 10
797.6047517652212
 20
-549.6315207821937
 30
0.0
 10
769.9905142821259
 20
-549.6315207821937
 30
0.0
 10
747.6047517777204
 20
-527.2457582777887
 30
0.0
 10
747.6047517777204
 20
-499.6315207946922
 30
0.0
  0
HATCH
  5
57
330
1F
100
AcDbEntity
  8
Calque 1
 62
     7
420
 16711679
100
AcDbHatch
 10
0.0
 20
0.0
 30
0.0
210
0.0
220
0.0
230
1.0
  2
SOLID
 70
     1
 71
     0
 91
        1
 92
        1
 93
        1
 72
     4
 94
        3
 73
     0
 74
     1
 95
       17
 96
       13
 40
0.0
 40
0.0
 40
0.0
 40
0.0
 40
1.0
 40
1.0
 40
1.0
 40
2.0
 40
2.0
 40
2.0
 40
3.0
 40
3.0
 40
3.0
 40
4.0
 40
4.0
 40
4.0
 40
4.0
 10
747.6047517777204
 20
-499.6315207946922
 10
747.6047517777204
 20
-472.0172833115962
 10
769.9905142821259
 20
-449.6315208071914
 10
797.6047517652212
 20
-449.6315208071914
 10
825.2189892483177
 20
-449.6315208071914
 10
847.6047517527227
 20
-472.0172833115962
 10
847.6047517527227
 20
-499.6315207946922
 10
847.6047517527227
 20
-527.2457582777887
 10
825.2189892483177
 20
-549.6315207821937
 10
797.6047517652212
 20
-549.6315207821937
 10
769.9905142821259
 20
-549.6315207821937
 10
747.6047517777204
 20
-527.2457582777887
 10
747.6047517777204
 20
-499.6315207946922
 97
        0
 97
        0
 75
     2
 76
     1
 98
        0
  0
SPLINE
  5
58
330
1F
100
AcDbEntity
  8
Calque 1
 62
   250
420
  2565157
370
    35
100
AcDbSpline
210
0.0
220
0.0
230
1.0
 70
    11
 71
     3
 72
    17
 73
    13
 74
     0
 42
0.0000000001
 43
0.0000000001
 12
1.0
 22
0.0
 32
0.0
 13
1.0
 23
0.0
 33
0.0
 40
0.0
 40
0.0
 40
0.0
 40
0.0
 40
1.0
 40
1.0
 40
1.0
 40
2.0
 40
2.0
 40
2.0
 40
3.0
 40
3.0
 40
3.0
 40
4.0
 40
4.0
 40
4.0
 40
4.0
 10
861.089725099243
 20
-495.2524821555279
 30
0.0
 10
861.089725099243
 20
-464.8768209241229
 30
0.0
 10
885.7140638540865
 20
-440.2524821692795
 30
0.0
 10
916.0897250854882
 20
-440.2524821692795
 30
0.0
 10
946.4653863169009
 20
-440.2524821692795
 30
0.0
 10
971.0897250717404
 20
-464.8768209241229
 30
0.0
 10
971.0897250717404
 20
-495.2524821555279
 30
0.0
 10
971.0897250717404
 20
-525.6281433869335
 30
0.0
 10
946.4653863169009
 20
-550.2524821417769
 30
0.0
 10
916.0897250854882
 20
-550.2524821417769
 30
0.0
 10
885.7140638540865
 20
-550.2524821417769
 30
0.0
 10
861.089725099243
 20
-525.6281433869335
 30
0.0
 10
861.089725099243
 20
-495.2524821555279
 30
0.0
  0
HATCH
  5
59
330
1F
100
AcDbEntity
  8
Calque 1
 62
     7
420
 16711679
100
AcDbHatch
 10
0.0
 20
0.0
 30
0.0
210
0.0
220
0.0
230
1.0
  2
SOLID
 70
     1
 71
     0
 91
        1
 92
        1
 93
        1
 72
     4
 94
        3
 73
     0
 74
     1
 95
       17
 96
       13
 40
0.0
 40
0.0
 40
0.0
 40
0.0
 40
1.0
 40
1.0
 40
1.0
 40
2.0
 40
2.0
 40
2.0
 40
3.0
 40
3.0
 40
3.0
 40
4.0
 40
4.0
 40
4.0
 40
4.0
 10
861.089725099243
 20
-495.2524821555279
 10
861.089725099243
 20
-464.8768209241229
 10
885.7140638540865
 20
-440.2524821692795
 10
916.0897250854882
 20
-440.2524821692795
 10
946.4653863169009
 20
-440.2524821692795
 10
971.0897250717404
 20
-464.8768209241229
 10
971.0897250717404
 20
-495.2524821555279
 10
971.0897250717404
 20
-525.6281433869335
 10
946.4653863169009
 20
-550.2524821417769
 10
916.0897250854882
 20
-550.2524821417769
 10
885.7140638540865
 20
-550.2524821417769
 10
861.089725099243
 20
-525.6281433869335
 10
861.089725099243
 20
-495.2524821555279
 97
        0
 97
        0
 75
     2
 76
     1
 98
        0
  0
SPLINE
  5
5A
330
1F
100
AcDbEntity
  8
Calque 1
 62
   250
420
  2565157
370
    35
100
AcDbSpline
210
0.0
220
0.0
230
1.0
 70
    11
 71
     3
 72
    17
 73
    13
 74
     0
 42
0.0000000001
 43
0.0000000001
 12
1.0
 22
0.0
 32
0.0
 13
1.0
 23
0.0
 33
0.0
 40
0.0
 40
0.0
 40
0.0
 40
0.0
 40
1.0
 40
1.0
 40
1.0
 40
2.0
 40
2.0
 40
2.0
 40
3.0
 40
3.0
 40
3.0
 40
4.0
 40
4.0
 40
4.0
 40
4.0
 10
351.3650119722676
 20
-303.9958004742135
 30
0.0
 10
351.3650119722676
 20
-337.1328854539317
 30
0.0
 10
324.5020969669837
 20
-363.9958004592121
 30
0.0
 10
291.3650119872675
 20
-363.9958004592121
 30
0.0
 10
258.2279270075519
 20
-363.9958004592121
 30
0.0
 10
231.3650120022676
 20
-337.1328854539317
 30
0.0
 10
231.3650120022676
 20
-303.9958004742135
 30
0.0
 10
231.3650120022676
 20
-270.8587154944989
 30
0.0
 10
258.2279270075519
 20
-243.9958004892137
 30
0.0
 10
291.3650119872675
 20
-243.9958004892137
 30
0.0
 10
324.5020969669837
 20
-243.9958004892137
 30
0.0
 10
351.3650119722676
 20
-270.8587154944989
 30
0.0
 10
351.3650119722676
 20
-303.9958004742135
 30
0.0
  0
HATCH
  5
5B
330
1F
100
AcDbEntity
  8
Calque 1
 62
     7
420
 16711679
100
AcDbHatch
 10
0.0
 20
0.0
 30
0.0
210
0.0
220
0.0
230
1.0
  2
SOLID
 70
     1
 71
     0
 91
        1
 92
        1
 93
        1
 72
     4
 94
        3
 73
     0
 74
     1
 95
       17
 96
       13
 40
0.0
 40
0.0
 40
0.0
 40
0.0
 40
1.0
 40
1.0
 40
1.0
 40
2.0
 40
2.0
 40
2.0
 40
3.0
 40
3.0
 40
3.0
 40
4.0
 40
4.0
 40
4.0
 40
4.0
 10
351.3650119722676
 20
-303.9958004742135
 10
351.3650119722676
 20
-337.1328854539317
 10
324.5020969669837
 20
-363.9958004592121
 10
291.3650119872675
 20
-363.9958004592121
 10
258.2279270075519
 20
-363.9958004592121
 10
231.3650120022676
 20
-337.1328854539317
 10
231.3650120022676
 20
-303.9958004742135
 10
231.3650120022676
 20
-270.8587154944989
 10
258.2279270075519
 20
-243.9958004892137
 10
291.3650119872675
 20
-243.9958004892137
 10
324.5020969669837
 20
-243.9958004892137
 10
351.3650119722676
 20
-270.8587154944989
 10
351.3650119722676
 20
-303.9958004742135
 97
        0
 97
        0
 75
     2
 76
     1
 98
        0
  0
SPLINE
  5
5C
330
1F
100
AcDbEntity
  8
Calque 1
 62
   250
420
  2565157
370
    35
100
AcDbSpline
210
0.0
220
0.0
230
1.0
 70
    11
 71
     3
 72
    17
 73
    13
 74
     0
 42
0.0000000001
 43
0.0000000001
 12
1.0
 22
0.0
 32
0.0
 13
1.0
 23
0.0
 33
0.0
 40
0.0
 40
0.0
 40
0.0
 40
0.0
 40
1.0
 40
1.0
 40
1.0
 40
2.0
 40
2.0
 40
2.0
 40
3.0
 40
3.0
 40
3.0
 40
4.0
 40
4.0
 40
4.0
 40
4.0
 10
805.9040068249802
 20
-403.9958004492145
 30
0.0
 10
805.9040068249802
 20
-431.6100379323105
 30
0.0
 10
783.5182443205786
 20
-453.9958004367153
 30
0.0
 10
755.9040068374826
 20
-453.9958004367153
 30
0.0
 10
728.2897693543828
 20
-453.9958004367153
 30
0.0
 10
705.9040068499811
 20
-431.6100379323105
 30
0.0
 10
705.9040068499811
 20
-403.9958004492145
 30
0.0
 10
705.9040068499811
 20
-376.3815629661186
 30
0.0
 10
728.2897693543828
 20
-353.9958004617134
 30
0.0
 10
755.9040068374826
 20
-353.9958004617134
 30
0.0
 10
783.5182443205786
 20
-353.9958004617134
 30
0.0
 10
805.9040068249802
 20
-376.3815629661186
 30
0.0
 10
805.9040068249802
 20
-403.9958004492145
 30
0.0
  0
HATCH
  5
5D
330
1F
100
AcDbEntity
  8
Calque 1
 62
     7
420
 16711679
100
AcDbHatch
 10
0.0
 20
0.0
 30
0.0
210
0.0
220
0.0
230
1.0
  2
SOLID
 70
     1
 71
     0
 91
        1
 92
        1
 93
        1
 72
     4
 94
        3
 73
     0
 74
     1
 95
       17
 96
       13
 40
0.0
 40
0.0
 40
0.0
 40
0.0
 40
1.0
 40
1.0
 40
1.0
 40
2.0
 40
2.0
 40
2.0
 40
3.0
 40
3.0
 40
3.0
 40
4.0
 40
4.0
 40
4.0
 40
4.0
 10
805.9040068249802
 20
-403.9958004492145
 10
805.9040068249802
 20
-431.6100379323105
 10
783.5182443205786
 20
-453.9958004367153
 10
755.9040068374826
 20
-453.9958004367153
 10
728.2897693543828
 20
-453.9958004367153
 10
705.9040068499811
 20
-431.6100379323105
 10
705.9040068499811
 20
-403.9958004492145
 10
705.9040068499811
 20
-376.3815629661186
 10
728.2897693543828
 20
-353.9958004617134
 10
755.9040068374826
 20
-353.9958004617134
 10
783.5182443205786
 20
-353.9958004617134
 10
805.9040068249802
 20
-376.3815629661186
 10
805.9040068249802
 20
-403.9958004492145
 97
        0
 97
        0
 75
     2
 76
     1
 98
        0
  0
SPLINE
  5
5E
330
1F
100
AcDbEntity
  8
Calque 1
 62
   250
420
  2565157
370
    35
100
AcDbSpline
210
0.0
220
0.0
230
1.0
 70
    11
 71
     3
 72
    17
 73
    13
 74
     0
 42
0.0000000001
 43
0.0000000001
 12
1.0
 22
0.0
 32
0.0
 13
1.0
 23
0.0
 33
0.0
 40
0.0
 40
0.0
 40
0.0
 40
0.0
 40
1.0
 40
1.0
 40
1.0
 40
2.0
 40
2.0
 40
2.0
 40
3.0
 40
3.0
 40
3.0
 40
4.0
 40
4.0
 40
4.0
 40
4.0
 10
855.2491396061614
 20
-304.3093327209581
 30
0.0
 10
855.2491396061614
 20
-334.6849939523638
 30
0.0
 10
830.624800851314
 20
-359.3093327072056
 30
0.0
 10
800.2491396199091
 20
-359.3093327072056
 30
0.0
 10
769.8734783885035
 20
-359.3093327072056
 30
0.0
 10
745.2491396336601
 20
-334.6849939523638
 30
0.0
 10
745.2491396336601
 20
-304.3093327209581
 30
0.0
 10
745.2491396336601
 20
-273.9336714895497
 30
0.0
 10
769.8734783885035
 20
-249.3093327347059
 30
0.0
 10
800.2491396199091
 20
-249.3093327347059
 30
0.0
 10
830.624800851314
 20
-249.3093327347059
 30
0.0
 10
855.2491396061614
 20
-273.9336714895497
 30
0.0
 10
855.2491396061614
 20
-304.3093327209581
 30
0.0
  0
HATCH
  5
5F
330
1F
100
AcDbEntity
  8
Calque 1
 62
     7
420
 16711679
100
AcDbHatch
 10
0.0
 20
0.0
 30
0.0
210
0.0
220
0.0
230
1.0
  2
SOLID
 70
     1
 71
     0
 91
        1
 92
        1
 93
        1
 72
     4
 94
        3
 73
     0
 74
     1
 95
       17
 96
       13
 40
0.0
 40
0.0
 40
0.0
 40
0.0
 40
1.0
 40
1.0
 40
1.0
 40
2.0
 40
2.0
 40
2.0
 40
3.0
 40
3.0
 40
3.0
 40
4.0
 40
4.0
 40
4.0
 40
4.0
 10
855.2491396061614
 20
-304.3093327209581
 10
855.2491396061614
 20
-334.6849939523638
 10
830.624800851314
 20
-359.3093327072056
 10
800.2491396199091
 20
-359.3093327072056
 10
769.8734783885035
 20
-359.3093327072056
 10
745.2491396336601
 20
-334.6849939523638
 10
745.2491396336601
 20
-304.3093327209581
 10
745.2491396336601
 20
-273.9336714895497
 10
769.8734783885035
 20
-249.3093327347059
 10
800.2491396199091
 20
-249.3093327347059
 10
830.624800851314
 20
-249.3093327347059
 10
855.2491396061614
 20
-273.9336714895497
 10
855.2491396061614
 20
-304.3093327209581
 97
        0
 97
        0
 75
     2
 76
     1
 98
        0
  0
SPLINE
  5
60
330
1F
100
AcDbEntity
  8
Calque 1
 62
   250
420
  2565157
370
    35
100
AcDbSpline
210
0.0
220
0.0
230
1.0
 70
    11
 71
     3
 72
    17
 73
    13
 74
     0
 42
0.0000000001
 43
0.0000000001
 12
1.0
 22
0.0
 32
0.0
 13
1.0
 23
0.0
 33
0.0
 40
0.0
 40
0.0
 40
0.0
 40
0.0
 40
1.0
 40
1.0
 40
1.0
 40
2.0
 40
2.0
 40
2.0
 40
3.0
 40
3.0
 40
3.0
 40
4.0
 40
4.0
 40
4.0
 40
4.0
 10
742.0840806974438
 20
-310.5704407753871
 30
0.0
 10
742.0840806974438
 20
-343.7075257551046
 30
0.0
 10
715.2211656921586
 20
-370.5704407603862
 30
0.0
 10
682.084080712444
 20
-370.5704407603862
 30
0.0
 10
648.9469957327294
 20
-370.5704407603862
 30
0.0
 10
622.0840807274442
 20
-343.7075257551046
 30
0.0
 10
622.0840807274442
 20
-310.5704407753871
 30
0.0
 10
622.0840807274442
 20
-277.4333557956721
 30
0.0
 10
648.9469957327294
 20
-250.5704407903863
 30
0.0
 10
682.084080712444
 20
-250.5704407903863
 30
0.0
 10
715.2211656921586
 20
-250.5704407903863
 30
0.0
 10
742.0840806974438
 20
-277.4333557956721
 30
0.0
 10
742.0840806974438
 20
-310.5704407753871
 30
0.0
  0
HATCH
  5
61
330
1F
100
AcDbEntity
  8
Calque 1
 62
     7
420
 16711679
100
AcDbHatch
 10
0.0
 20
0.0
 30
0.0
210
0.0
220
0.0
230
1.0
  2
SOLID
 70
     1
 71
     0
 91
        1
 92
        1
 93
        1
 72
     4
 94
        3
 73
     0
 74
     1
 95
       17
 96
       13
 40
0.0
 40
0.0
 40
0.0
 40
0.0
 40
1.0
 40
1.0
 40
1.0
 40
2.0
 40
2.0
 40
2.0
 40
3.0
 40
3.0
 40
3.0
 40
4.0
 40
4.0
 40
4.0
 40
4.0
 10
742.0840806974438
 20
-310.5704407753871
 10
742.0840806974438
 20
-343.7075257551046
 10
715.2211656921586
 20
-370.5704407603862
 10
682.084080712444
 20
-370.5704407603862
 10
648.9469957327294
 20
-370.5704407603862
 10
622.0840807274442
 20
-343.7075257551046
 10
622.0840807274442
 20
-310.5704407753871
 10
622.0840807274442
 20
-277.4333557956721
 10
648.9469957327294
 20
-250.5704407903863
 10
682.084080712444
 20
-250.5704407903863
 10
715.2211656921586
 20
-250.5704407903863
 10
742.0840806974438
 20
-277.4333557956721
 10
742.0840806974438
 20
-310.5704407753871
 97
        0
 97
        0
 75
     2
 76
     1
 98
        0
  0
SPLINE
  5
62
330
1F
100
AcDbEntity
  8
Calque 1
 62
   250
420
  2565157
370
    35
100
AcDbSpline
210
0.0
220
0.0
230
1.0
 70
    11
 71
     3
 72
    17
 73
    13
 74
     0
 42
0.0000000001
 43
0.0000000001
 12
1.0
 22
0.0
 32
0.0
 13
1.0
 23
0.0
 33
0.0
 40
0.0
 40
0.0
 40
0.0
 40
0.0
 40
1.0
 40
1.0
 40
1.0
 40
2.0
 40
2.0
 40
2.0
 40
3.0
 40
3.0
 40
3.0
 40
4.0
 40
4.0
 40
4.0
 40
4.0
 10
990.120381897629
 20
-408.8457973928857
 30
0.0
 10
990.120381897629
 20
-425.0657455755382
 30
0.0
 10
965.701059360287
 20
-438.2146115571865
 30
0.0
 10
935.5782984496474
 20
-438.2146115571865
 30
0.0
 10
905.4555375390078
 20
-438.2146115571865
 30
0.0
 10
881.0362150016657
 20
-425.0657455755382
 30
0.0
 10
881.0362150016657
 20
-408.8457973928857
 30
0.0
 10
881.0362150016657
 20
-392.625849210233
 30
0.0
 10
905.4555375390078
 20
-379.4769832285882
 30
0.0
 10
935.5782984496474
 20
-379.4769832285882
 30
0.0
 10
965.701059360287
 20
-379.4769832285882
 30
0.0
 10
990.120381897629
 20
-392.625849210233
 30
0.0
 10
990.120381897629
 20
-408.8457973928857
 30
0.0
  0
HATCH
  5
63
330
1F
100
AcDbEntity
  8
Calque 1
 62
     7
420
 16711679
100
AcDbHatch
 10
0.0
 20
0.0
 30
0.0
210
0.0
220
0.0
230
1.0
  2
SOLID
 70
     1
 71
     0
 91
        1
 92
        1
 93
        1
 72
     4
 94
        3
 73
     0
 74
     1
 95
       17
 96
       13
 40
0.0
 40
0.0
 40
0.0
 40
0.0
 40
1.0
 40
1.0
 40
1.0
 40
2.0
 40
2.0
 40
2.0
 40
3.0
 40
3.0
 40
3.0
 40
4.0
 40
4.0
 40
4.0
 40
4.0
 10
990.120381897629
 20
-408.8457973928857
 10
990.120381897629
 20
-425.0657455755382
 10
965.701059360287
 20
-438.2146115571865
 10
935.5782984496474
 20
-438.2146115571865
 10
905.4555375390078
 20
-438.2146115571865
 10
881.0362150016657
 20
-425.0657455755382
 10
881.0362150016657
 20
-408.8457973928857
 10
881.0362150016657
 20
-392.625849210233
 10
905.4555375390078
 20
-379.4769832285882
 10
935.5782984496474
 20
-379.4769832285882
 10
965.701059360287
 20
-379.4769832285882
 10
990.120381897629
 20
-392.625849210233
 10
990.120381897629
 20
-408.8457973928857
 97
        0
 97
        0
 75
     2
 76
     1
 98
        0
  0
SPLINE
  5
64
330
1F
100
AcDbEntity
  8
Calque 1
 62
   250
420
  2565157
370
    35
100
AcDbSpline
210
0.0
220
0.0
230
1.0
 70
    11
 71
     3
 72
    65
 73
    61
 74
     0
 42
0.0000000001
 43
0.0000000001
 12
1.0
 22
0.0
 32
0.0
 13
1.0
 23
0.0
 33
0.0
 40
0.0
 40
0.0
 40
0.0
 40
0.0
 40
1.0
 40
1.0
 40
1.0
 40
2.0
 40
2.0
 40
2.0
 40
3.0
 40
3.0
 40
3.0
 40
4.0
 40
4.0
 40
4.0
 40
5.0
 40
5.0
 40
5.0
 40
6.0
 40
6.0
 40
6.0
 40
7.0
 40
7.0
 40
7.0
 40
8.0
 40
8.0
 40
8.0
 40
9.0
 40
9.0
 40
9.0
 40
10.0
 40
10.0
 40
10.0
 40
11.0
 40
11.0
 40
11.0
 40
12.0
 40
12.0
 40
12.0
 40
13.0
 40
13.0
 40
13.0
 40
14.0
 40
14.0
 40
14.0
 40
15.0
 40
15.0
 40
15.0
 40
16.0
 40
16.0
 40
16.0
 40
17.0
 40
17.0
 40
17.0
 40
18.0
 40
18.0
 40
18.0
 40
19.0
 40
19.0
 40
19.0
 40
20.0
 40
20.0
 40
20.0
 40
20.0
 10
361.9763950687742
 20
-334.9585682522561
 30
0.0
 10
361.9763950687742
 20
-334.9585682522561
 30
0.0
 10
372.1438931651024
 20
-366.2509097575959
 30
0.0
 10
372.1438931651024
 20
-366.2509097575959
 30
0.0
 10
372.6938501804178
 20
-367.9435034097824
 30
0.0
 10
374.2711455926906
 20
-369.0894756060253
 30
0.0
 10
376.0508438789494
 20
-369.0894756060253
 30
0.0
 10
376.0508438789494
 20
-369.0894756060253
 30
0.0
 10
408.9535588797771
 20
-369.0894756060253
 30
0.0
 10
408.9535588797771
 20
-369.0894756060253
 30
0.0
 10
412.933085227294
 20
-369.0894756060253
 30
0.0
 10
414.5876916580054
 20
-374.1818305783383
 30
0.0
 10
411.3681872133033
 20
-376.520937476517
 30
0.0
 10
411.3681872133033
 20
-376.520937476517
 30
0.0
 10
384.7493316165579
 20
-395.8606681143854
 30
0.0
 10
384.7493316165579
 20
-395.8606681143854
 30
0.0
 10
383.309525458115
 20
-396.9067485205795
 30
0.0
 10
382.7070522209254
 20
-398.7609704842652
 30
0.0
 10
383.2570092362409
 20
-400.4535641364518
 30
0.0
 10
383.2570092362409
 20
-400.4535641364518
 30
0.0
 10
393.4245073325727
 20
-431.7459056417903
 30
0.0
 10
393.4245073325727
 20
-431.7459056417903
 30
0.0
 10
394.654248603516
 20
-435.5306601063616
 30
0.0
 10
390.3224327299008
 20
-438.6779085620318
 30
0.0
 10
387.102928285199
 20
-436.3388016638528
 30
0.0
 10
387.102928285199
 20
-436.3388016638528
 30
0.0
 10
360.4840726884536
 20
-416.9990710259848
 30
0.0
 10
360.4840726884536
 20
-416.9990710259848
 30
0.0
 10
359.0442665300104
 20
-415.9529906197907
 30
0.0
 10
357.0946221798438
 20
-415.9529906197907
 30
0.0
 10
355.6548160214006
 20
-416.9990710259848
 30
0.0
 10
355.6548160214006
 20
-416.9990710259848
 30
0.0
 10
329.0359604246555
 20
-436.3388016638528
 30
0.0
 10
329.0359604246555
 20
-436.3388016638528
 30
0.0
 10
325.8164559799525
 20
-438.6779085620318
 30
0.0
 10
321.4846401063376
 20
-435.5306601063616
 30
0.0
 10
322.7143813772828
 20
-431.7459056417903
 30
0.0
 10
322.7143813772828
 20
-431.7459056417903
 30
0.0
 10
332.8818794736139
 20
-400.4535641364518
 30
0.0
 10
332.8818794736139
 20
-400.4535641364518
 30
0.0
 10
333.4318364889278
 20
-398.7609704842652
 30
0.0
 10
332.8293632517389
 20
-396.9067485205795
 30
0.0
 10
331.3895570932953
 20
-395.8606681143854
 30
0.0
 10
331.3895570932953
 20
-395.8606681143854
 30
0.0
 10
304.7707014965509
 20
-376.520937476517
 30
0.0
 10
304.7707014965509
 20
-376.520937476517
 30
0.0
 10
301.5511970518475
 20
-374.1818305783383
 30
0.0
 10
303.2058034825621
 20
-369.0894756060253
 30
0.0
 10
307.1853298300774
 20
-369.0894756060253
 30
0.0
 10
307.1853298300774
 20
-369.0894756060253
 30
0.0
 10
340.0880448309051
 20
-369.0894756060253
 30
0.0
 10
340.0880448309051
 20
-369.0894756060253
 30
0.0
 10
341.8677431171645
 20
-369.0894756060253
 30
0.0
 10
343.4450385294367
 20
-367.9435034097824
 30
0.0
 10
343.9949955447509
 20
-366.2509097575959
 30
0.0
 10
343.9949955447509
 20
-366.2509097575959
 30
0.0
 10
354.1624936410835
 20
-334.9585682522561
 30
0.0
 10
354.1624936410835
 20
-334.9585682522561
 30
0.0
 10
355.3922349120269
 20
-331.1738137876816
 30
0.0
 10
360.7466537978273
 20
-331.1738137876816
 30
0.0
 10
361.9763950687742
 20
-334.9585682522561
 30
0.0
  0
HATCH
  5
65
330
1F
100
AcDbEntity
  8
Calque 1
 62
     7
420
 16711679
100
AcDbHatch
 10
0.0
 20
0.0
 30
0.0
210
0.0
220
0.0
230
1.0
  2
SOLID
 70
     1
 71
     0
 91
        1
 92
        1
 93
        1
 72
     4
 94
        3
 73
     0
 74
     1
 95
       65
 96
       61
 40
0.0
 40
0.0
 40
0.0
 40
0.0
 40
1.0
 40
1.0
 40
1.0
 40
2.0
 40
2.0
 40
2.0
 40
3.0
 40
3.0
 40
3.0
 40
4.0
 40
4.0
 40
4.0
 40
5.0
 40
5.0
 40
5.0
 40
6.0
 40
6.0
 40
6.0
 40
7.0
 40
7.0
 40
7.0
 40
8.0
 40
8.0
 40
8.0
 40
9.0
 40
9.0
 40
9.0
 40
10.0
 40
10.0
 40
10.0
 40
11.0
 40
11.0
 40
11.0
 40
12.0
 40
12.0
 40
12.0
 40
13.0
 40
13.0
 40
13.0
 40
14.0
 40
14.0
 40
14.0
 40
15.0
 40
15.0
 40
15.0
 40
16.0
 40
16.0
 40
16.0
 40
17.0
 40
17.0
 40
17.0
 40
18.0
 40
18.0
 40
18.0
 40
19.0
 40
19.0
 40
19.0
 40
20.0
 40
20.0
 40
20.0
 40
20.0
 10
361.9763950687742
 20
-334.9585682522561
 10
361.9763950687742
 20
-334.9585682522561
 10
372.1438931651024
 20
-366.2509097575959
 10
372.1438931651024
 20
-366.2509097575959
 10
372.6938501804178
 20
-367.9435034097824
 10
374.2711455926906
 20
-369.0894756060253
 10
376.0508438789494
 20
-369.0894756060253
 10
376.0508438789494
 20
-369.0894756060253
 10
408.9535588797771
 20
-369.0894756060253
 10
408.9535588797771
 20
-369.0894756060253
 10
412.933085227294
 20
-369.0894756060253
 10
414.5876916580054
 20
-374.1818305783383
 10
411.3681872133033
 20
-376.520937476517
 10
411.3681872133033
 20
-376.520937476517
 10
384.7493316165579
 20
-395.8606681143854
 10
384.7493316165579
 20
-395.8606681143854
 10
383.309525458115
 20
-396.9067485205795
 10
382.7070522209254
 20
-398.7609704842652
 10
383.2570092362409
 20
-400.4535641364518
 10
383.2570092362409
 20
-400.4535641364518
 10
393.4245073325727
 20
-431.7459056417903
 10
393.4245073325727
 20
-431.7459056417903
 10
394.654248603516
 20
-435.5306601063616
 10
390.3224327299008
 20
-438.6779085620318
 10
387.102928285199
 20
-436.3388016638528
 10
387.102928285199
 20
-436.3388016638528
 10
360.4840726884536
 20
-416.9990710259848
 10
360.4840726884536
 20
-416.9990710259848
 10
359.0442665300104
 20
-415.9529906197907
 10
357.0946221798438
 20
-415.9529906197907
 10
355.6548160214006
 20
-416.9990710259848
 10
355.6548160214006
 20
-416.9990710259848
 10
329.0359604246555
 20
-436.3388016638528
 10
329.0359604246555
 20
-436.3388016638528
 10
325.8164559799525
 20
-438.6779085620318
 10
321.4846401063376
 20
-435.5306601063616
 10
322.7143813772828
 20
-431.7459056417903
 10
322.7143813772828
 20
-431.7459056417903
 10
332.8818794736139
 20
-400.4535641364518
 10
332.8818794736139
 20
-400.4535641364518
 10
333.4318364889278
 20
-398.7609704842652
 10
332.8293632517389
 20
-396.9067485205795
 10
331.3895570932953
 20
-395.8606681143854
 10
331.3895570932953
 20
-395.8606681143854
 10
304.7707014965509
 20
-376.520937476517
 10
304.7707014965509
 20
-376.520937476517
 10
301.5511970518475
 20
-374.1818305783383
 10
303.2058034825621
 20
-369.0894756060253
 10
307.1853298300774
 20
-369.0894756060253
 10
307.1853298300774
 20
-369.0894756060253
 10
340.0880448309051
 20
-369.0894756060253
 10
340.0880448309051
 20
-369.0894756060253
 10
341.8677431171645
 20
-369.0894756060253
 10
343.4450385294367
 20
-367.9435034097824
 10
343.9949955447509
 20
-366.2509097575959
 10
343.9949955447509
 20
-366.2509097575959
 10
354.1624936410835
 20
-334.9585682522561
 10
354.1624936410835
 20
-334.9585682522561
 10
355.3922349120269
 20
-331.1738137876816
 10
360.7466537978273
 20
-331.1738137876816
 10
361.9763950687742
 20
-334.9585682522561
 97
        0
 97
        0
 75
     2
 76
     1
 98
        0
  0
SPLINE
  5
66
330
1F
100
AcDbEntity
  8
Calque 1
 62
   250
420
  2565157
370
    35
100
AcDbSpline
210
0.0
220
0.0
230
1.0
 70
    11
 71
     3
 72
    65
 73
    61
 74
     0
 42
0.0000000001
 43
0.0000000001
 12
1.0
 22
0.0
 32
0.0
 13
1.0
 23
0.0
 33
0.0
 40
0.0
 40
0.0
 40
0.0
 40
0.0
 40
1.0
 40
1.0
 40
1.0
 40
2.0
 40
2.0
 40
2.0
 40
3.0
 40
3.0
 40
3.0
 40
4.0
 40
4.0
 40
4.0
 40
5.0
 40
5.0
 40
5.0
 40
6.0
 40
6.0
 40
6.0
 40
7.0
 40
7.0
 40
7.0
 40
8.0
 40
8.0
 40
8.0
 40
9.0
 40
9.0
 40
9.0
 40
10.0
 40
10.0
 40
10.0
 40
11.0
 40
11.0
 40
11.0
 40
12.0
 40
12.0
 40
12.0
 40
13.0
 40
13.0
 40
13.0
 40
14.0
 40
14.0
 40
14.0
 40
15.0
 40
15.0
 40
15.0
 40
16.0
 40
16.0
 40
16.0
 40
17.0
 40
17.0
 40
17.0
 40
18.0
 40
18.0
 40
18.0
 40
19.0
 40
19.0
 40
19.0
 40
20.0
 40
20.0
 40
20.0
 40
20.0
 10
853.7394717746678
 20
-342.4102330365604
 30
0.0
 10
853.7394717746678
 20
-342.4102330365604
 30
0.0
 10
861.3267015924143
 20
-365.7613253393997
 30
0.0
 10
861.3267015924143
 20
-365.7613253393997
 30
0.0
 10
861.7370926468808
 20
-367.0243791315406
 30
0.0
 10
862.9141081397802
 20
-367.8795309432518
 30
0.0
 10
864.2421614894008
 20
-367.8795309432518
 30
0.0
 10
864.2421614894008
 20
-367.8795309432518
 30
0.0
 10
888.7949529405344
 20
-367.8795309432518
 30
0.0
 10
888.7949529405344
 20
-367.8795309432518
 30
0.0
 10
891.7645705080312
 20
-367.8795309432518
 30
0.0
 10
892.9992773286089
 20
-371.6795677981826
 30
0.0
 10
890.5968062497101
 20
-373.4250652093073
 30
0.0
 10
890.5968062497101
 20
-373.4250652093073
 30
0.0
 10
870.7331807063988
 20
-387.8568339268944
 30
0.0
 10
870.7331807063988
 20
-387.8568339268944
 30
0.0
 10
869.6587629771168
 20
-388.6374441000592
 30
0.0
 10
869.2091830641184
 20
-390.0211087969487
 30
0.0
 10
869.6195741185849
 20
-391.2841625890935
 30
0.0
 10
869.6195741185849
 20
-391.2841625890935
 30
0.0
 10
877.2068039363314
 20
-414.6352548919314
 30
0.0
 10
877.2068039363314
 20
-414.6352548919314
 30
0.0
 10
878.1244662314817
 20
-417.4595290304023
 30
0.0
 10
874.8919618090679
 20
-419.8080809652513
 30
0.0
 10
872.4894907301691
 20
-418.062583554127
 30
0.0
 10
872.4894907301691
 20
-418.062583554127
 30
0.0
 10
852.6258651868577
 20
-403.6308148365403
 30
0.0
 10
852.6258651868577
 20
-403.6308148365403
 30
0.0
 10
851.5514474575797
 20
-402.8502046633751
 30
0.0
 10
850.0965762977848
 20
-402.8502046633751
 30
0.0
 10
849.0221585685061
 20
-403.6308148365403
 30
0.0
 10
849.0221585685061
 20
-403.6308148365403
 30
0.0
 10
829.1585330251947
 20
-418.062583554127
 30
0.0
 10
829.1585330251947
 20
-418.062583554127
 30
0.0
 10
826.7560619462961
 20
-419.8080809652513
 30
0.0
 10
823.5235575238828
 20
-417.4595290304023
 30
0.0
 10
824.4412198190331
 20
-414.6352548919314
 30
0.0
 10
824.4412198190331
 20
-414.6352548919314
 30
0.0
 10
832.0284496367758
 20
-391.2841625890935
 30
0.0
 10
832.0284496367758
 20
-391.2841625890935
 30
0.0
 10
832.4388406912461
 20
-390.0211087969487
 30
0.0
 10
831.9892607782439
 20
-388.6374441000592
 30
0.0
 10
830.9148430489657
 20
-387.8568339268944
 30
0.0
 10
830.9148430489657
 20
-387.8568339268944
 30
0.0
 10
811.0512175056538
 20
-373.4250652093073
 30
0.0
 10
811.0512175056538
 20
-373.4250652093073
 30
0.0
 10
808.648746426755
 20
-371.6795677981826
 30
0.0
 10
809.8834532473334
 20
-367.8795309432518
 30
0.0
 10
812.8530708148295
 20
-367.8795309432518
 30
0.0
 10
812.8530708148295
 20
-367.8795309432518
 30
0.0
 10
837.4058622659637
 20
-367.8795309432518
 30
0.0
 10
837.4058622659637
 20
-367.8795309432518
 30
0.0
 10
838.7339156155838
 20
-367.8795309432518
 30
0.0
 10
839.9109311084799
 20
-367.0243791315406
 30
0.0
 10
840.3213221629496
 20
-365.7613253393997
 30
0.0
 10
840.3213221629496
 20
-365.7613253393997
 30
0.0
 10
847.9085519806961
 20
-342.4102330365604
 30
0.0
 10
847.9085519806961
 20
-342.4102330365604
 30
0.0
 10
848.8262142758464
 20
-339.5859588980858
 30
0.0
 10
852.8218094795182
 20
-339.5859588980858
 30
0.0
 10
853.7394717746678
 20
-342.4102330365604
 30
0.0
  0
HATCH
  5
67
330
1F
100
AcDbEntity
  8
Calque 1
 62
     7
420
 16711679
100
AcDbHatch
 10
0.0
 20
0.0
 30
0.0
210
0.0
220
0.0
230
1.0
  2
SOLID
 70
     1
 71
     0
 91
        1
 92
        1
 93
        1
 72
     4
 94
        3
 73
     0
 74
     1
 95
       65
 96
       61
 40
0.0
 40
0.0
 40
0.0
 40
0.0
 40
1.0
 40
1.0
 40
1.0
 40
2.0
 40
2.0
 40
2.0
 40
3.0
 40
3.0
 40
3.0
 40
4.0
 40
4.0
 40
4.0
 40
5.0
 40
5.0
 40
5.0
 40
6.0
 40
6.0
 40
6.0
 40
7.0
 40
7.0
 40
7.0
 40
8.0
 40
8.0
 40
8.0
 40
9.0
 40
9.0
 40
9.0
 40
10.0
 40
10.0
 40
10.0
 40
11.0
 40
11.0
 40
11.0
 40
12.0
 40
12.0
 40
12.0
 40
13.0
 40
13.0
 40
13.0
 40
14.0
 40
14.0
 40
14.0
 40
15.0
 40
15.0
 40
15.0
 40
16.0
 40
16.0
 40
16.0
 40
17.0
 40
17.0
 40
17.0
 40
18.0
 40
18.0
 40
18.0
 40
19.0
 40
19.0
 40
19.0
 40
20.0
 40
20.0
 40
20.0
 40
20.0
 10
853.7394717746678
 20
-342.4102330365604
 10
853.7394717746678
 20
-342.4102330365604
 10
861.3267015924143
 20
-365.7613253393997
 10
861.3267015924143
 20
-365.7613253393997
 10
861.7370926468808
 20
-367.0243791315406
 10
862.9141081397802
 20
-367.8795309432518
 10
864.2421614894008
 20
-367.8795309432518
 10
864.2421614894008
 20
-367.8795309432518
 10
888.7949529405344
 20
-367.8795309432518
 10
888.7949529405344
 20
-367.8795309432518
 10
891.7645705080312
 20
-367.8795309432518
 10
892.9992773286089
 20
-371.6795677981826
 10
890.5968062497101
 20
-373.4250652093073
 10
890.5968062497101
 20
-373.4250652093073
 10
870.7331807063988
 20
-387.8568339268944
 10
870.7331807063988
 20
-387.8568339268944
 10
869.6587629771168
 20
-388.6374441000592
 10
869.2091830641184
 20
-390.0211087969487
 10
869.6195741185849
 20
-391.2841625890935
 10
869.6195741185849
 20
-391.2841625890935
 10
877.2068039363314
 20
-414.6352548919314
 10
877.2068039363314
 20
-414.6352548919314
 10
878.1244662314817
 20
-417.4595290304023
 10
874.8919618090679
 20
-419.8080809652513
 10
872.4894907301691
 20
-418.062583554127
 10
872.4894907301691
 20
-418.062583554127
 10
852.6258651868577
 20
-403.6308148365403
 10
852.6258651868577
 20
-403.6308148365403
 10
851.5514474575797
 20
-402.8502046633751
 10
850.0965762977848
 20
-402.8502046633751
 10
849.0221585685061
 20
-403.6308148365403
 10
849.0221585685061
 20
-403.6308148365403
 10
829.1585330251947
 20
-418.062583554127
 10
829.1585330251947
 20
-418.062583554127
 10
826.7560619462961
 20
-419.8080809652513
 10
823.5235575238828
 20
-417.4595290304023
 10
824.4412198190331
 20
-414.6352548919314
 10
824.4412198190331
 20
-414.6352548919314
 10
832.0284496367758
 20
-391.2841625890935
 10
832.0284496367758
 20
-391.2841625890935
 10
832.4388406912461
 20
-390.0211087969487
 10
831.9892607782439
 20
-388.6374441000592
 10
830.9148430489657
 20
-387.8568339268944
 10
830.9148430489657
 20
-387.8568339268944
 10
811.0512175056538
 20
-373.4250652093073
 10
811.0512175056538
 20
-373.4250652093073
 10
808.648746426755
 20
-371.6795677981826
 10
809.8834532473334
 20
-367.8795309432518
 10
812.8530708148295
 20
-367.8795309432518
 10
812.8530708148295
 20
-367.8795309432518
 10
837.4058622659637
 20
-367.8795309432518
 10
837.4058622659637
 20
-367.8795309432518
 10
838.7339156155838
 20
-367.8795309432518
 10
839.9109311084799
 20
-367.0243791315406
 10
840.3213221629496
 20
-365.7613253393997
 10
840.3213221629496
 20
-365.7613253393997
 10
847.9085519806961
 20
-342.4102330365604
 10
847.9085519806961
 20
-342.4102330365604
 10
848.8262142758464
 20
-339.5859588980858
 10
852.8218094795182
 20
-339.5859588980858
 10
853.7394717746678
 20
-342.4102330365604
 97
        0
 97
        0
 75
     2
 76
     1
 98
        0
  0
SPLINE
  5
68
330
1F
100
AcDbEntity
  8
Calque 1
 62
   250
420
  2565157
370
    35
100
AcDbSpline
210
0.0
220
0.0
230
1.0
 70
    11
 71
     3
 72
    41
 73
    37
 74
     0
 42
0.0000000001
 43
0.0000000001
 12
1.0
 22
0.0
 32
0.0
 13
1.0
 23
0.0
 33
0.0
 40
0.0
 40
0.0
 40
0.0
 40
0.0
 40
1.0
 40
1.0
 40
1.0
 40
2.0
 40
2.0
 40
2.0
 40
3.0
 40
3.0
 40
3.0
 40
4.0
 40
4.0
 40
4.0
 40
5.0
 40
5.0
 40
5.0
 40
6.0
 40
6.0
 40
6.0
 40
7.0
 40
7.0
 40
7.0
 40
8.0
 40
8.0
 40
8.0
 40
9.0
 40
9.0
 40
9.0
 40
10.0
 40
10.0
 40
10.0
 40
11.0
 40
11.0
 40
11.0
 40
12.0
 40
12.0
 40
12.0
 40
12.0
 10
282.1052539659764
 20
-366.92654376707
 30
0.0
 10
282.1052539659764
 20
-366.92654376707
 30
0.0
 10
256.8606171509556
 20
-366.92654376707
 30
0.0
 10
256.8606171509556
 20
-366.92654376707
 30
0.0
 10
250.4746315571937
 20
-366.92654376707
 30
0.0
 10
244.5737375262559
 20
-370.3334265242928
 30
0.0
 10
241.3807447293746
 20
-375.8638522766905
 30
0.0
 10
241.3807447293746
 20
-375.8638522766905
 30
0.0
 10
228.7584263218646
 20
-397.7263490678115
 30
0.0
 10
228.7584263218646
 20
-397.7263490678115
 30
0.0
 10
225.5654335249835
 20
-403.2567748202085
 30
0.0
 10
225.5654335249835
 20
-410.0705403346516
 30
0.0
 10
228.7584263218646
 20
-415.6009660870525
 30
0.0
 10
228.7584263218646
 20
-415.6009660870525
 30
0.0
 10
241.3807447293746
 20
-437.4634628781697
 30
0.0
 10
241.3807447293746
 20
-437.4634628781697
 30
0.0
 10
244.5737375262553
 20
-442.9938886305712
 30
0.0
 10
250.4746315571937
 20
-446.400771387794
 30
0.0
 10
256.8606171509556
 20
-446.400771387794
 30
0.0
 10
256.8606171509556
 20
-446.400771387794
 30
0.0
 10
282.1052539659764
 20
-446.400771387794
 30
0.0
 10
282.1052539659764
 20
-446.400771387794
 30
0.0
 10
288.4912395597376
 20
-446.400771387794
 30
0.0
 10
294.3921335906764
 20
-442.9938886305712
 30
0.0
 10
297.5851263875575
 20
-437.4634628781697
 30
0.0
 10
297.5851263875575
 20
-437.4634628781697
 30
0.0
 10
310.2074447950674
 20
-415.6009660870525
 30
0.0
 10
310.2074447950674
 20
-415.6009660870525
 30
0.0
 10
313.4004375919482
 20
-410.0705403346516
 30
0.0
 10
313.4004375919482
 20
-403.2567748202085
 30
0.0
 10
310.2074447950674
 20
-397.7263490678115
 30
0.0
 10
310.2074447950674
 20
-397.7263490678115
 30
0.0
 10
297.5851263875575
 20
-375.8638522766905
 30
0.0
 10
297.5851263875575
 20
-375.8638522766905
 30
0.0
 10
294.3921335906764
 20
-370.3334265242928
 30
0.0
 10
288.4912395597376
 20
-366.92654376707
 30
0.0
 10
282.1052539659764
 20
-366.92654376707
 30
0.0
  0
HATCH
  5
69
330
1F
100
AcDbEntity
  8
Calque 1
 62
     7
420
 16711679
100
AcDbHatch
 10
0.0
 20
0.0
 30
0.0
210
0.0
220
0.0
230
1.0
  2
SOLID
 70
     1
 71
     0
 91
        1
 92
        1
 93
        1
 72
     4
 94
        3
 73
     0
 74
     1
 95
       41
 96
       37
 40
0.0
 40
0.0
 40
0.0
 40
0.0
 40
1.0
 40
1.0
 40
1.0
 40
2.0
 40
2.0
 40
2.0
 40
3.0
 40
3.0
 40
3.0
 40
4.0
 40
4.0
 40
4.0
 40
5.0
 40
5.0
 40
5.0
 40
6.0
 40
6.0
 40
6.0
 40
7.0
 40
7.0
 40
7.0
 40
8.0
 40
8.0
 40
8.0
 40
9.0
 40
9.0
 40
9.0
 40
10.0
 40
10.0
 40
10.0
 40
11.0
 40
11.0
 40
11.0
 40
12.0
 40
12.0
 40
12.0
 40
12.0
 10
282.1052539659764
 20
-366.92654376707
 10
282.1052539659764
 20
-366.92654376707
 10
256.8606171509556
 20
-366.92654376707
 10
256.8606171509556
 20
-366.92654376707
 10
250.4746315571937
 20
-366.92654376707
 10
244.5737375262559
 20
-370.3334265242928
 10
241.3807447293746
 20
-375.8638522766905
 10
241.3807447293746
 20
-375.8638522766905
 10
228.7584263218646
 20
-397.7263490678115
 10
228.7584263218646
 20
-397.7263490678115
 10
225.5654335249835
 20
-403.2567748202085
 10
225.5654335249835
 20
-410.0705403346516
 10
228.7584263218646
 20
-415.6009660870525
 10
228.7584263218646
 20
-415.6009660870525
 10
241.3807447293746
 20
-437.4634628781697
 10
241.3807447293746
 20
-437.4634628781697
 10
244.5737375262553
 20
-442.9938886305712
 10
250.4746315571937
 20
-446.400771387794
 10
256.8606171509556
 20
-446.400771387794
 10
256.8606171509556
 20
-446.400771387794
 10
282.1052539659764
 20
-446.400771387794
 10
282.1052539659764
 20
-446.400771387794
 10
288.4912395597376
 20
-446.400771387794
 10
294.3921335906764
 20
-442.9938886305712
 10
297.5851263875575
 20
-437.4634628781697
 10
297.5851263875575
 20
-437.4634628781697
 10
310.2074447950674
 20
-415.6009660870525
 10
310.2074447950674
 20
-415.6009660870525
 10
313.4004375919482
 20
-410.0705403346516
 10
313.4004375919482
 20
-403.2567748202085
 10
310.2074447950674
 20
-397.7263490678115
 10
310.2074447950674
 20
-397.7263490678115
 10
297.5851263875575
 20
-375.8638522766905
 10
297.5851263875575
 20
-375.8638522766905
 10
294.3921335906764
 20
-370.3334265242928
 10
288.4912395597376
 20
-366.92654376707
 10
282.1052539659764
 20
-366.92654376707
 97
        0
 97
        0
 75
     2
 76
     1
 98
        0
  0
SPLINE
  5
6A
330
1F
100
AcDbEntity
  8
Calque 1
 62
   250
420
  2565157
370
    35
100
AcDbSpline
210
0.0
220
0.0
230
1.0
 70
    11
 71
     3
 72
    41
 73
    37
 74
     0
 42
0.0000000001
 43
0.0000000001
 12
1.0
 22
0.0
 32
0.0
 13
1.0
 23
0.0
 33
0.0
 40
0.0
 40
0.0
 40
0.0
 40
0.0
 40
1.0
 40
1.0
 40
1.0
 40
2.0
 40
2.0
 40
2.0
 40
3.0
 40
3.0
 40
3.0
 40
4.0
 40
4.0
 40
4.0
 40
5.0
 40
5.0
 40
5.0
 40
6.0
 40
6.0
 40
6.0
 40
7.0
 40
7.0
 40
7.0
 40
8.0
 40
8.0
 40
8.0
 40
9.0
 40
9.0
 40
9.0
 40
10.0
 40
10.0
 40
10.0
 40
11.0
 40
11.0
 40
11.0
 40
12.0
 40
12.0
 40
12.0
 40
12.0
 10
358.8110166104511
 20
-459.2586866150995
 30
0.0
 10
358.8110166104511
 20
-459.2586866150995
 30
0.0
 10
333.5663797954302
 20
-459.2586866150995
 30
0.0
 10
333.5663797954302
 20
-459.2586866150995
 30
0.0
 10
327.1803942016684
 20
-459.2586866150995
 30
0.0
 10
321.2795001707306
 20
-462.6655693723224
 30
0.0
 10
318.0865073738492
 20
-468.19599512472
 30
0.0
 10
318.0865073738492
 20
-468.19599512472
 30
0.0
 10
305.4641889663392
 20
-490.058491915841
 30
0.0
 10
305.4641889663392
 20
-490.058491915841
 30
0.0
 10
302.2711961694582
 20
-495.588917668238
 30
0.0
 10
302.2711961694582
 20
-502.4026831826812
 30
0.0
 10
305.4641889663392
 20
-507.933108935082
 30
0.0
 10
305.4641889663392
 20
-507.933108935082
 30
0.0
 10
318.0865073738492
 20
-529.7956057261993
 30
0.0
 10
318.0865073738492
 20
-529.7956057261993
 30
0.0
 10
321.27950017073
 20
-535.3260314786007
 30
0.0
 10
327.1803942016684
 20
-538.7329142358236
 30
0.0
 10
333.5663797954302
 20
-538.7329142358236
 30
0.0
 10
333.5663797954302
 20
-538.7329142358236
 30
0.0
 10
358.8110166104511
 20
-538.7329142358236
 30
0.0
 10
358.8110166104511
 20
-538.7329142358236
 30
0.0
 10
365.1970022042123
 20
-538.7329142358236
 30
0.0
 10
371.097896235151
 20
-535.3260314786007
 30
0.0
 10
374.2908890320321
 20
-529.7956057261993
 30
0.0
 10
374.2908890320321
 20
-529.7956057261993
 30
0.0
 10
386.9132074395421
 20
-507.933108935082
 30
0.0
 10
386.9132074395421
 20
-507.933108935082
 30
0.0
 10
390.1062002364229
 20
-502.4026831826812
 30
0.0
 10
390.1062002364229
 20
-495.588917668238
 30
0.0
 10
386.9132074395421
 20
-490.058491915841
 30
0.0
 10
386.9132074395421
 20
-490.058491915841
 30
0.0
 10
374.2908890320321
 20
-468.19599512472
 30
0.0
 10
374.2908890320321
 20
-468.19599512472
 30
0.0
 10
371.097896235151
 20
-462.6655693723224
 30
0.0
 10
365.1970022042123
 20
-459.2586866150995
 30
0.0
 10
358.8110166104511
 20
-459.2586866150995
 30
0.0
  0
HATCH
  5
6B
330
1F
100
AcDbEntity
  8
Calque 1
 62
     7
420
 16711679
100
AcDbHatch
 10
0.0
 20
0.0
 30
0.0
210
0.0
220
0.0
230
1.0
  2
SOLID
 70
     1
 71
     0
 91
        1
 92
        1
 93
        1
 72
     4
 94
        3
 73
     0
 74
     1
 95
       41
 96
       37
 40
0.0
 40
0.0
 40
0.0
 40
0.0
 40
1.0
 40
1.0
 40
1.0
 40
2.0
 40
2.0
 40
2.0
 40
3.0
 40
3.0
 40
3.0
 40
4.0
 40
4.0
 40
4.0
 40
5.0
 40
5.0
 40
5.0
 40
6.0
 40
6.0
 40
6.0
 40
7.0
 40
7.0
 40
7.0
 40
8.0
 40
8.0
 40
8.0
 40
9.0
 40
9.0
 40
9.0
 40
10.0
 40
10.0
 40
10.0
 40
11.0
 40
11.0
 40
11.0
 40
12.0
 40
12.0
 40
12.0
 40
12.0
 10
358.8110166104511
 20
-459.2586866150995
 10
358.8110166104511
 20
-459.2586866150995
 10
333.5663797954302
 20
-459.2586866150995
 10
333.5663797954302
 20
-459.2586866150995
 10
327.1803942016684
 20
-459.2586866150995
 10
321.2795001707306
 20
-462.6655693723224
 10
318.0865073738492
 20
-468.19599512472
 10
318.0865073738492
 20
-468.19599512472
 10
305.4641889663392
 20
-490.058491915841
 10
305.4641889663392
 20
-490.058491915841
 10
302.2711961694582
 20
-495.588917668238
 10
302.2711961694582
 20
-502.4026831826812
 10
305.4641889663392
 20
-507.933108935082
 10
305.4641889663392
 20
-507.933108935082
 10
318.0865073738492
 20
-529.7956057261993
 10
318.0865073738492
 20
-529.7956057261993
 10
321.27950017073
 20
-535.3260314786007
 10
327.1803942016684
 20
-538.7329142358236
 10
333.5663797954302
 20
-538.7329142358236
 10
333.5663797954302
 20
-538.7329142358236
 10
358.8110166104511
 20
-538.7329142358236
 10
358.8110166104511
 20
-538.7329142358236
 10
365.1970022042123
 20
-538.7329142358236
 10
371.097896235151
 20
-535.3260314786007
 10
374.2908890320321
 20
-529.7956057261993
 10
374.2908890320321
 20
-529.7956057261993
 10
386.9132074395421
 20
-507.933108935082
 10
386.9132074395421
 20
-507.933108935082
 10
390.1062002364229
 20
-502.4026831826812
 10
390.1062002364229
 20
-495.588917668238
 10
386.9132074395421
 20
-490.058491915841
 10
386.9132074395421
 20
-490.058491915841
 10
374.2908890320321
 20
-468.19599512472
 10
374.2908890320321
 20
-468.19599512472
 10
371.097896235151
 20
-462.6655693723224
 10
365.1970022042123
 20
-459.2586866150995
 10
358.8110166104511
 20
-459.2586866150995
 97
        0
 97
        0
 75
     2
 76
     1
 98
        0
  0
SPLINE
  5
6C
330
1F
100
AcDbEntity
  8
Calque 1
 62
   250
420
  2565157
370
    35
100
AcDbSpline
210
0.0
220
0.0
230
1.0
 70
    11
 71
     3
 72
    17
 73
    13
 74
     0
 42
0.0000000001
 43
0.0000000001
 12
1.0
 22
0.0
 32
0.0
 13
1.0
 23
0.0
 33
0.0
 40
0.0
 40
0.0
 40
0.0
 40
0.0
 40
1.0
 40
1.0
 40
1.0
 40
2.0
 40
2.0
 40
2.0
 40
3.0
 40
3.0
 40
3.0
 40
4.0
 40
4.0
 40
4.0
 40
4.0
 10
498.0584890158
 20
-401.5871259459601
 30
0.0
 10
498.0584890158
 20
-426.439939680747
 30
0.0
 10
477.9113027618369
 20
-446.5871259347101
 30
0.0
 10
453.0584890270499
 20
-446.5871259347101
 30
0.0
 10
428.2056752922633
 20
-446.5871259347101
 30
0.0
 10
408.0584890383003
 20
-426.439939680747
 30
0.0
 10
408.0584890383003
 20
-401.5871259459601
 30
0.0
 10
408.0584890383003
 20
-376.7343122111731
 30
0.0
 10
428.2056752922633
 20
-356.58712595721
 30
0.0
 10
453.0584890270499
 20
-356.58712595721
 30
0.0
 10
477.9113027618369
 20
-356.58712595721
 30
0.0
 10
498.0584890158
 20
-376.7343122111731
 30
0.0
 10
498.0584890158
 20
-401.5871259459601
 30
0.0
  0
HATCH
  5
6D
330
1F
100
AcDbEntity
  8
Calque 1
 62
     7
420
 16711679
100
AcDbHatch
 10
0.0
 20
0.0
 30
0.0
210
0.0
220
0.0
230
1.0
  2
SOLID
 70
     1
 71
     0
 91
        1
 92
        1
 93
        1
 72
     4
 94
        3
 73
     0
 74
     1
 95
       17
 96
       13
 40
0.0
 40
0.0
 40
0.0
 40
0.0
 40
1.0
 40
1.0
 40
1.0
 40
2.0
 40
2.0
 40
2.0
 40
3.0
 40
3.0
 40
3.0
 40
4.0
 40
4.0
 40
4.0
 40
4.0
 10
498.0584890158
 20
-401.5871259459601
 10
498.0584890158
 20
-426.439939680747
 10
477.9113027618369
 20
-446.5871259347101
 10
453.0584890270499
 20
-446.5871259347101
 10
428.2056752922633
 20
-446.5871259347101
 10
408.0584890383003
 20
-426.439939680747
 10
408.0584890383003
 20
-401.5871259459601
 10
408.0584890383003
 20
-376.7343122111731
 10
428.2056752922633
 20
-356.58712595721
 10
453.0584890270499
 20
-356.58712595721
 10
477.9113027618369
 20
-356.58712595721
 10
498.0584890158
 20
-376.7343122111731
 10
498.0584890158
 20
-401.5871259459601
 97
        0
 97
        0
 75
     2
 76
     1
 98
        0
  0
SPLINE
  5
6E
330
1F
100
AcDbEntity
  8
Calque 1
 62
   250
420
  2565157
370
    35
100
AcDbSpline
210
0.0
220
0.0
230
1.0
 70
    11
 71
     3
 72
    17
 73
    13
 74
     0
 42
0.0000000001
 43
0.0000000001
 12
1.0
 22
0.0
 32
0.0
 13
1.0
 23
0.0
 33
0.0
 40
0.0
 40
0.0
 40
0.0
 40
0.0
 40
1.0
 40
1.0
 40
1.0
 40
2.0
 40
2.0
 40
2.0
 40
3.0
 40
3.0
 40
3.0
 40
4.0
 40
4.0
 40
4.0
 40
4.0
 10
991.0897250667417
 20
-308.8457974178831
 30
0.0
 10
991.0897250667417
 20
-344.74430614591
 30
0.0
 10
961.988233811018
 20
-373.8457974016344
 30
0.0
 10
926.0897250829943
 20
-373.8457974016344
 30
0.0
 10
890.1912163549667
 20
-373.8457974016344
 30
0.0
 10
861.089725099243
 20
-344.74430614591
 30
0.0
 10
861.089725099243
 20
-308.8457974178831
 30
0.0
 10
861.089725099243
 20
-272.9472886898589
 30
0.0
 10
890.1912163549667
 20
-243.8457974341357
 30
0.0
 10
926.0897250829943
 20
-243.8457974341357
 30
0.0
 10
961.988233811018
 20
-243.8457974341357
 30
0.0
 10
991.0897250667417
 20
-272.9472886898589
 30
0.0
 10
991.0897250667417
 20
-308.8457974178831
 30
0.0
  0
HATCH
  5
6F
330
1F
100
AcDbEntity
  8
Calque 1
 62
     7
420
 16711679
100
AcDbHatch
 10
0.0
 20
0.0
 30
0.0
210
0.0
220
0.0
230
1.0
  2
SOLID
 70
     1
 71
     0
 91
        1
 92
        1
 93
        1
 72
     4
 94
        3
 73
     0
 74
     1
 95
       17
 96
       13
 40
0.0
 40
0.0
 40
0.0
 40
0.0
 40
1.0
 40
1.0
 40
1.0
 40
2.0
 40
2.0
 40
2.0
 40
3.0
 40
3.0
 40
3.0
 40
4.0
 40
4.0
 40
4.0
 40
4.0
 10
991.0897250667417
 20
-308.8457974178831
 10
991.0897250667417
 20
-344.74430614591
 10
961.988233811018
 20
-373.8457974016344
 10
926.0897250829943
 20
-373.8457974016344
 10
890.1912163549667
 20
-373.8457974016344
 10
861.089725099243
 20
-344.74430614591
 10
861.089725099243
 20
-308.8457974178831
 10
861.089725099243
 20
-272.9472886898589
 10
890.1912163549667
 20
-243.8457974341357
 10
926.0897250829943
 20
-243.8457974341357
 10
961.988233811018
 20
-243.8457974341357
 10
991.0897250667417
 20
-272.9472886898589
 10
991.0897250667417
 20
-308.8457974178831
 97
        0
 97
        0
 75
     2
 76
     1
 98
        0
  0
SPLINE
  5
70
330
1F
100
AcDbEntity
  8
Calque 1
 62
   250
420
  2565157
370
    35
100
AcDbSpline
210
0.0
220
0.0
230
1.0
 70
    11
 71
     3
 72
   101
 73
    97
 74
     0
 42
0.0000000001
 43
0.0000000001
 12
1.0
 22
0.0
 32
0.0
 13
1.0
 23
0.0
 33
0.0
 40
0.0
 40
0.0
 40
0.0
 40
0.0
 40
1.0
 40
1.0
 40
1.0
 40
2.0
 40
2.0
 40
2.0
 40
3.0
 40
3.0
 40
3.0
 40
4.0
 40
4.0
 40
4.0
 40
5.0
 40
5.0
 40
5.0
 40
6.0
 40
6.0
 40
6.0
 40
7.0
 40
7.0
 40
7.0
 40
8.0
 40
8.0
 40
8.0
 40
9.0
 40
9.0
 40
9.0
 40
10.0
 40
10.0
 40
10.0
 40
11.0
 40
11.0
 40
11.0
 40
12.0
 40
12.0
 40
12.0
 40
13.0
 40
13.0
 40
13.0
 40
14.0
 40
14.0
 40
14.0
 40
15.0
 40
15.0
 40
15.0
 40
16.0
 40
16.0
 40
16.0
 40
17.0
 40
17.0
 40
17.0
 40
18.0
 40
18.0
 40
18.0
 40
19.0
 40
19.0
 40
19.0
 40
20.0
 40
20.0
 40
20.0
 40
21.0
 40
21.0
 40
21.0
 40
22.0
 40
22.0
 40
22.0
 40
23.0
 40
23.0
 40
23.0
 40
24.0
 40
24.0
 40
24.0
 40
25.0
 40
25.0
 40
25.0
 40
26.0
 40
26.0
 40
26.0
 40
27.0
 40
27.0
 40
27.0
 40
28.0
 40
28.0
 40
28.0
 40
29.0
 40
29.0
 40
29.0
 40
30.0
 40
30.0
 40
30.0
 40
31.0
 40
31.0
 40
31.0
 40
32.0
 40
32.0
 40
32.0
 40
32.0
 10
740.5839664136789
 20
-490.4025034513857
 30
0.0
 10
740.5839664136789
 20
-481.0715251714724
 30
0.0
 10
733.0196689191637
 20
-473.5073006350739
 30
0.0
 10
723.6887635973671
 20
-473.5073006350739
 30
0.0
 10
723.0810224888676
 20
-473.5073006350739
 30
0.0
 10
722.4813067731568
 20
-473.5410072847872
 30
0.0
 10
721.8903460313963
 20
-473.6035688694877
 30
0.0
 10
722.3524627398281
 20
-473.2298409189112
 30
0.0
 10
722.8002796574747
 20
-472.8295562140152
 30
0.0
 10
723.2301488785156
 20
-472.3998693882643
 30
0.0
 10
729.8280431649646
 20
-465.8018656646387
 30
0.0
 10
729.8280431649646
 20
-455.1044183461139
 30
0.0
 10
723.2301488785156
 20
-448.5064511015482
 30
0.0
 10
716.6321086758333
 20
-441.908447377922
 30
0.0
 10
705.9346978363645
 20
-441.908447377922
 30
0.0
 10
699.3366576336822
 20
-448.5064511015482
 30
0.0
 10
698.9069343288714
 20
-448.936174406359
 30
0.0
 10
698.506686103036
 20
-449.3840642821191
 30
0.0
 10
698.1328487152861
 20
-449.8462904277237
 30
0.0
 10
698.1954467790433
 20
-449.255147290677
 30
0.0
 10
698.2291534287567
 20
-448.655431574963
 30
0.0
 10
698.2291534287567
 20
-448.0477269455233
 30
0.0
 10
698.2291534287567
 20
-438.71678514467
 30
0.0
 10
690.6650018504748
 20
-431.1525241292115
 30
0.0
 10
681.3340965286782
 20
-431.1525241292115
 30
0.0
 10
672.0030452906516
 20
-431.1525241292115
 30
0.0
 10
664.438747796133
 20
-438.71678514467
 30
0.0
 10
664.438747796133
 20
-448.0477269455233
 30
0.0
 10
664.438747796133
 20
-448.655431574963
 30
0.0
 10
664.4726003620798
 20
-449.255147290677
 30
0.0
 10
664.5350525096069
 20
-449.8462904277237
 30
0.0
 10
664.1613610380871
 20
-449.3840642821191
 30
0.0
 10
663.7611128122517
 20
-448.936174406359
 30
0.0
 10
663.3313895074409
 20
-448.5064511015482
 30
0.0
 10
656.7333493047579
 20
-441.908447377922
 30
0.0
 10
646.0359384652899
 20
-441.908447377922
 30
0.0
 10
639.4380441788409
 20
-448.5064511015482
 30
0.0
 10
632.8400039761585
 20
-455.1044183461139
 30
0.0
 10
632.8400039761585
 20
-465.8018656646387
 30
0.0
 10
639.4380441788409
 20
-472.3998693882643
 30
0.0
 10
639.8676215674183
 20
-472.8295562140152
 30
0.0
 10
640.315584401295
 20
-473.2298409189112
 30
0.0
 10
640.7778470259601
 20
-473.6035688694877
 30
0.0
 10
640.1865944517361
 20
-473.5410072847872
 30
0.0
 10
639.5868787360254
 20
-473.5073006350739
 30
0.0
 10
638.979283543756
 20
-473.5073006350739
 30
0.0
 10
629.6482323057293
 20
-473.5073006350739
 30
0.0
 10
622.0840807274442
 20
-481.0715251714724
 30
0.0
 10
622.0840807274442
 20
-490.4025034513857
 30
0.0
 10
622.0840807274442
 20
-499.7334452522383
 30
0.0
 10
629.6482323057293
 20
-507.2977062676974
 30
0.0
 10
638.979283543756
 20
-507.2977062676974
 30
0.0
 10
639.5868787360254
 20
-507.2977062676974
 30
0.0
 10
640.1865944517361
 20
-507.2639996179803
 30
0.0
 10
640.7778470259601
 20
-507.2014380332836
 30
0.0
 10
640.315584401295
 20
-507.5751659838601
 30
0.0
 10
639.8676215674183
 20
-507.9754142096955
 30
0.0
 10
639.4380441788409
 20
-508.4051375145063
 30
0.0
 10
632.8400039761585
 20
-515.003104759072
 30
0.0
 10
632.8400039761585
 20
-525.7005520775969
 30
0.0
 10
639.4380441788409
 20
-532.2985558012231
 30
0.0
 10
646.0359384652899
 20
-538.8965230457887
 30
0.0
 10
656.7333493047579
 20
-538.8965230457887
 30
0.0
 10
663.3313895074409
 20
-532.2985558012231
 30
0.0
 10
663.7611128122517
 20
-531.8688324964123
 30
0.0
 10
664.1613610380871
 20
-531.4209426206521
 30
0.0
 10
664.5350525096069
 20
-530.9587164750437
 30
0.0
 10
664.4726003620798
 20
-531.5498596120938
 30
0.0
 10
664.438747796133
 20
-532.1495753278084
 30
0.0
 10
664.438747796133
 20
-532.757279957248
 30
0.0
 10
664.438747796133
 20
-542.0882217581006
 30
0.0
 10
672.0030452906516
 20
-549.6524462945031
 30
0.0
 10
681.3340965286782
 20
-549.6524462945031
 30
0.0
 10
690.6650018504748
 20
-549.6524462945031
 30
0.0
 10
698.2291534287567
 20
-542.0882217581006
 30
0.0
 10
698.2291534287567
 20
-532.757279957248
 30
0.0
 10
698.2291534287567
 20
-532.1495753278084
 30
0.0
 10
698.1954467790433
 20
-531.5498596120938
 30
0.0
 10
698.1328487152861
 20
-530.9587164750437
 30
0.0
 10
698.506686103036
 20
-531.4209426206521
 30
0.0
 10
698.9069343288714
 20
-531.8688324964123
 30
0.0
 10
699.3366576336822
 20
-532.2985558012231
 30
0.0
 10
705.9346978363645
 20
-538.8965230457887
 30
0.0
 10
716.6321086758333
 20
-538.8965230457887
 30
0.0
 10
723.2301488785156
 20
-532.2985558012231
 30
0.0
 10
729.8280431649646
 20
-525.7005520775969
 30
0.0
 10
729.8280431649646
 20
-515.003104759072
 30
0.0
 10
723.2301488785156
 20
-508.4051375145063
 30
0.0
 10
722.8002796574747
 20
-507.9754142096955
 30
0.0
 10
722.3524627398281
 20
-507.5751659838601
 30
0.0
 10
721.8903460313963
 20
-507.2014380332836
 30
0.0
 10
722.4813067731568
 20
-507.2639996179803
 30
0.0
 10
723.0810224888676
 20
-507.2977062676974
 30
0.0
 10
723.6887635973671
 20
-507.2977062676974
 30
0.0
 10
733.0196689191637
 20
-507.2977062676974
 30
0.0
 10
740.5839664136789
 20
-499.7334452522383
 30
0.0
 10
740.5839664136789
 20
-490.4025034513857
 30
0.0
  0
HATCH
  5
71
330
1F
100
AcDbEntity
  8
Calque 1
 62
     7
420
 16711679
100
AcDbHatch
 10
0.0
 20
0.0
 30
0.0
210
0.0
220
0.0
230
1.0
  2
SOLID
 70
     1
 71
     0
 91
        1
 92
        1
 93
        1
 72
     4
 94
        3
 73
     0
 74
     1
 95
      101
 96
       97
 40
0.0
 40
0.0
 40
0.0
 40
0.0
 40
1.0
 40
1.0
 40
1.0
 40
2.0
 40
2.0
 40
2.0
 40
3.0
 40
3.0
 40
3.0
 40
4.0
 40
4.0
 40
4.0
 40
5.0
 40
5.0
 40
5.0
 40
6.0
 40
6.0
 40
6.0
 40
7.0
 40
7.0
 40
7.0
 40
8.0
 40
8.0
 40
8.0
 40
9.0
 40
9.0
 40
9.0
 40
10.0
 40
10.0
 40
10.0
 40
11.0
 40
11.0
 40
11.0
 40
12.0
 40
12.0
 40
12.0
 40
13.0
 40
13.0
 40
13.0
 40
14.0
 40
14.0
 40
14.0
 40
15.0
 40
15.0
 40
15.0
 40
16.0
 40
16.0
 40
16.0
 40
17.0
 40
17.0
 40
17.0
 40
18.0
 40
18.0
 40
18.0
 40
19.0
 40
19.0
 40
19.0
 40
20.0
 40
20.0
 40
20.0
 40
21.0
 40
21.0
 40
21.0
 40
22.0
 40
22.0
 40
22.0
 40
23.0
 40
23.0
 40
23.0
 40
24.0
 40
24.0
 40
24.0
 40
25.0
 40
25.0
 40
25.0
 40
26.0
 40
26.0
 40
26.0
 40
27.0
 40
27.0
 40
27.0
 40
28.0
 40
28.0
 40
28.0
 40
29.0
 40
29.0
 40
29.0
 40
30.0
 40
30.0
 40
30.0
 40
31.0
 40
31.0
 40
31.0
 40
32.0
 40
32.0
 40
32.0
 40
32.0
 10
740.5839664136789
 20
-490.4025034513857
 10
740.5839664136789
 20
-481.0715251714724
 10
733.0196689191637
 20
-473.5073006350739
 10
723.6887635973671
 20
-473.5073006350739
 10
723.0810224888676
 20
-473.5073006350739
 10
722.4813067731568
 20
-473.5410072847872
 10
721.8903460313963
 20
-473.6035688694877
 10
722.3524627398281
 20
-473.2298409189112
 10
722.8002796574747
 20
-472.8295562140152
 10
723.2301488785156
 20
-472.3998693882643
 10
729.8280431649646
 20
-465.8018656646387
 10
729.8280431649646
 20
-455.1044183461139
 10
723.2301488785156
 20
-448.5064511015482
 10
716.6321086758333
 20
-441.908447377922
 10
705.9346978363645
 20
-441.908447377922
 10
699.3366576336822
 20
-448.5064511015482
 10
698.9069343288714
 20
-448.936174406359
 10
698.506686103036
 20
-449.3840642821191
 10
698.1328487152861
 20
-449.8462904277237
 10
698.1954467790433
 20
-449.255147290677
 10
698.2291534287567
 20
-448.655431574963
 10
698.2291534287567
 20
-448.0477269455233
 10
698.2291534287567
 20
-438.71678514467
 10
690.6650018504748
 20
-431.1525241292115
 10
681.3340965286782
 20
-431.1525241292115
 10
672.0030452906516
 20
-431.1525241292115
 10
664.438747796133
 20
-438.71678514467
 10
664.438747796133
 20
-448.0477269455233
 10
664.438747796133
 20
-448.655431574963
 10
664.4726003620798
 20
-449.255147290677
 10
664.5350525096069
 20
-449.8462904277237
 10
664.1613610380871
 20
-449.3840642821191
 10
663.7611128122517
 20
-448.936174406359
 10
663.3313895074409
 20
-448.5064511015482
 10
656.7333493047579
 20
-441.908447377922
 10
646.0359384652899
 20
-441.908447377922
 10
639.4380441788409
 20
-448.5064511015482
 10
632.8400039761585
 20
-455.1044183461139
 10
632.8400039761585
 20
-465.8018656646387
 10
639.4380441788409
 20
-472.3998693882643
 10
639.8676215674183
 20
-472.8295562140152
 10
640.315584401295
 20
-473.2298409189112
 10
640.7778470259601
 20
-473.6035688694877
 10
640.1865944517361
 20
-473.5410072847872
 10
639.5868787360254
 20
-473.5073006350739
 10
638.979283543756
 20
-473.5073006350739
 10
629.6482323057293
 20
-473.5073006350739
 10
622.0840807274442
 20
-481.0715251714724
 10
622.0840807274442
 20
-490.4025034513857
 10
622.0840807274442
 20
-499.7334452522383
 10
629.6482323057293
 20
-507.2977062676974
 10
638.979283543756
 20
-507.2977062676974
 10
639.5868787360254
 20
-507.2977062676974
 10
640.1865944517361
 20
-507.2639996179803
 10
640.7778470259601
 20
-507.2014380332836
 10
640.315584401295
 20
-507.5751659838601
 10
639.8676215674183
 20
-507.9754142096955
 10
639.4380441788409
 20
-508.4051375145063
 10
632.8400039761585
 20
-515.003104759072
 10
632.8400039761585
 20
-525.7005520775969
 10
639.4380441788409
 20
-532.2985558012231
 10
646.0359384652899
 20
-538.8965230457887
 10
656.7333493047579
 20
-538.8965230457887
 10
663.3313895074409
 20
-532.2985558012231
 10
663.7611128122517
 20
-531.8688324964123
 10
664.1613610380871
 20
-531.4209426206521
 10
664.5350525096069
 20
-530.9587164750437
 10
664.4726003620798
 20
-531.5498596120938
 10
664.438747796133
 20
-532.1495753278084
 10
664.438747796133
 20
-532.757279957248
 10
664.438747796133
 20
-542.0882217581006
 10
672.0030452906516
 20
-549.6524462945031
 10
681.3340965286782
 20
-549.6524462945031
 10
690.6650018504748
 20
-549.6524462945031
 10
698.2291534287567
 20
-542.0882217581006
 10
698.2291534287567
 20
-532.757279957248
 10
698.2291534287567
 20
-532.1495753278084
 10
698.1954467790433
 20
-531.5498596120938
 10
698.1328487152861
 20
-530.9587164750437
 10
698.506686103036
 20
-531.4209426206521
 10
698.9069343288714
 20
-531.8688324964123
 10
699.3366576336822
 20
-532.2985558012231
 10
705.9346978363645
 20
-538.8965230457887
 10
716.6321086758333
 20
-538.8965230457887
 10
723.2301488785156
 20
-532.2985558012231
 10
729.8280431649646
 20
-525.7005520775969
 10
729.8280431649646
 20
-515.003104759072
 10
723.2301488785156
 20
-508.4051375145063
 10
722.8002796574747
 20
-507.9754142096955
 10
722.3524627398281
 20
-507.5751659838601
 10
721.8903460313963
 20
-507.2014380332836
 10
722.4813067731568
 20
-507.2639996179803
 10
723.0810224888676
 20
-507.2977062676974
 10
723.6887635973671
 20
-507.2977062676974
 10
733.0196689191637
 20
-507.2977062676974
 10
740.5839664136789
 20
-499.7334452522383
 10
740.5839664136789
 20
-490.4025034513857
 97
        0
 97
        0
 75
     2
 76
     1
 98
        0
  0
SPLINE
  5
72
330
1F
100
AcDbEntity
  8
Calque 1
 62
   250
420
  2565157
370
    35
100
AcDbSpline
210
0.0
220
0.0
230
1.0
 70
    11
 71
     3
 72
    17
 73
    13
 74
     0
 42
0.0000000001
 43
0.0000000001
 12
1.0
 22
0.0
 32
0.0
 13
1.0
 23
0.0
 33
0.0
 40
0.0
 40
0.0
 40
0.0
 40
0.0
 40
1.0
 40
1.0
 40
1.0
 40
2.0
 40
2.0
 40
2.0
 40
3.0
 40
3.0
 40
3.0
 40
4.0
 40
4.0
 40
4.0
 40
4.0
 10
583.078436305646
 20
-403.9958004492107
 30
0.0
 10
583.078436305646
 20
-426.0871904356918
 30
0.0
 10
565.1698263021212
 20
-443.9958004392132
 30
0.0
 10
543.0784363156437
 20
-443.9958004392132
 30
0.0
 10
520.9870463291661
 20
-443.9958004392132
 30
0.0
 10
503.078436325645
 20
-426.0871904356918
 30
0.0
 10
503.078436325645
 20
-403.9958004492107
 30
0.0
 10
503.078436325645
 20
-381.904410462737
 30
0.0
 10
520.9870463291661
 20
-363.9958004592121
 30
0.0
 10
543.0784363156437
 20
-363.9958004592121
 30
0.0
 10
565.1698263021212
 20
-363.9958004592121
 30
0.0
 10
583.078436305646
 20
-381.904410462737
 30
0.0
 10
583.078436305646
 20
-403.9958004492107
 30
0.0
  0
HATCH
  5
73
330
1F
100
AcDbEntity
  8
Calque 1
 62
     7
420
 16711679
100
AcDbHatch
 10
0.0
 20
0.0
 30
0.0
210
0.0
220
0.0
230
1.0
  2
SOLID
 70
     1
 71
     0
 91
        1
 92
        1
 93
        1
 72
     4
 94
        3
 73
     0
 74
     1
 95
       17
 96
       13
 40
0.0
 40
0.0
 40
0.0
 40
0.0
 40
1.0
 40
1.0
 40
1.0
 40
2.0
 40
2.0
 40
2.0
 40
3.0
 40
3.0
 40
3.0
 40
4.0
 40
4.0
 40
4.0
 40
4.0
 10
583.078436305646
 20
-403.9958004492107
 10
583.078436305646
 20
-426.0871904356918
 10
565.1698263021212
 20
-443.9958004392132
 10
543.0784363156437
 20
-443.9958004392132
 10
520.9870463291661
 20
-443.9958004392132
 10
503.078436325645
 20
-426.0871904356918
 10
503.078436325645
 20
-403.9958004492107
 10
503.078436325645
 20
-381.904410462737
 10
520.9870463291661
 20
-363.9958004592121
 10
543.0784363156437
 20
-363.9958004592121
 10
565.1698263021212
 20
-363.9958004592121
 10
583.078436305646
 20
-381.904410462737
 10
583.078436305646
 20
-403.9958004492107
 97
        0
 97
        0
 75
     2
 76
     1
 98
        0
  0
SPLINE
  5
74
330
1F
100
AcDbEntity
  8
Calque 1
 62
   250
420
  2565157
370
    35
100
AcDbSpline
210
0.0
220
0.0
230
1.0
 70
    11
 71
     3
 72
    17
 73
    13
 74
     0
 42
0.0000000001
 43
0.0000000001
 12
1.0
 22
0.0
 32
0.0
 13
1.0
 23
0.0
 33
0.0
 40
0.0
 40
0.0
 40
0.0
 40
0.0
 40
1.0
 40
1.0
 40
1.0
 40
2.0
 40
2.0
 40
2.0
 40
3.0
 40
3.0
 40
3.0
 40
4.0
 40
4.0
 40
4.0
 40
4.0
 10
682.084080712444
 20
-402.2802330469545
 30
0.0
 10
682.084080712444
 20
-418.8487755368131
 30
0.0
 10
668.6526232097998
 20
-432.2802330394541
 30
0.0
 10
652.0840807199438
 20
-432.2802330394541
 30
0.0
 10
635.5155382300852
 20
-432.2802330394541
 30
0.0
 10
622.0840807274442
 20
-418.8487755368131
 30
0.0
 10
622.0840807274442
 20
-402.2802330469545
 30
0.0
 10
622.0840807274442
 20
-385.7116905570988
 30
0.0
 10
635.5155382300852
 20
-372.2802330544542
 30
0.0
 10
652.0840807199438
 20
-372.2802330544542
 30
0.0
 10
668.6526232097998
 20
-372.2802330544542
 30
0.0
 10
682.084080712444
 20
-385.7116905570988
 30
0.0
 10
682.084080712444
 20
-402.2802330469545
 30
0.0
  0
HATCH
  5
75
330
1F
100
AcDbEntity
  8
Calque 1
 62
     7
420
 16711679
100
AcDbHatch
 10
0.0
 20
0.0
 30
0.0
210
0.0
220
0.0
230
1.0
  2
SOLID
 70
     1
 71
     0
 91
        1
 92
        1
 93
        1
 72
     4
 94
        3
 73
     0
 74
     1
 95
       17
 96
       13
 40
0.0
 40
0.0
 40
0.0
 40
0.0
 40
1.0
 40
1.0
 40
1.0
 40
2.0
 40
2.0
 40
2.0
 40
3.0
 40
3.0
 40
3.0
 40
4.0
 40
4.0
 40
4.0
 40
4.0
 10
682.084080712444
 20
-402.2802330469545
 10
682.084080712444
 20
-418.8487755368131
 10
668.6526232097998
 20
-432.2802330394541
 10
652.0840807199438
 20
-432.2802330394541
 10
635.5155382300852
 20
-432.2802330394541
 10
622.0840807274442
 20
-418.8487755368131
 10
622.0840807274442
 20
-402.2802330469545
 10
622.0840807274442
 20
-385.7116905570988
 10
635.5155382300852
 20
-372.2802330544542
 10
652.0840807199438
 20
-372.2802330544542
 10
668.6526232097998
 20
-372.2802330544542
 10
682.084080712444
 20
-385.7116905570988
 10
682.084080712444
 20
-402.2802330469545
 97
        0
 97
        0
 75
     2
 76
     1
 98
        0
  0
SPLINE
  5
76
330
1F
100
AcDbEntity
  8
Calque 1
 62
   250
420
  2565157
370
    35
100
AcDbSpline
210
0.0
220
0.0
230
1.0
 70
    11
 71
     3
 72
    17
 73
    13
 74
     0
 42
0.0000000001
 43
0.0000000001
 12
1.0
 22
0.0
 32
0.0
 13
1.0
 23
0.0
 33
0.0
 40
0.0
 40
0.0
 40
0.0
 40
0.0
 40
1.0
 40
1.0
 40
1.0
 40
2.0
 40
2.0
 40
2.0
 40
3.0
 40
3.0
 40
3.0
 40
4.0
 40
4.0
 40
4.0
 40
4.0
 10
516.0460030931133
 20
-350.0163742170571
 30
0.0
 10
516.0460030931133
 20
-361.0620692102974
 30
0.0
 10
507.0916980913491
 20
-370.0163742120581
 30
0.0
 10
496.0460030981121
 20
-370.0163742120581
 30
0.0
 10
485.0003081048716
 20
-370.0163742120581
 30
0.0
 10
476.0460031031109
 20
-361.0620692102974
 30
0.0
 10
476.0460031031109
 20
-350.0163742170571
 30
0.0
 10
476.0460031031109
 20
-338.9706792238198
 30
0.0
 10
485.0003081048716
 20
-330.0163742220562
 30
0.0
 10
496.0460030981121
 20
-330.0163742220562
 30
0.0
 10
507.0916980913491
 20
-330.0163742220562
 30
0.0
 10
516.0460030931133
 20
-338.9706792238198
 30
0.0
 10
516.0460030931133
 20
-350.0163742170571
 30
0.0
  0
HATCH
  5
77
330
1F
100
AcDbEntity
  8
Calque 1
 62
     7
420
 16711679
100
AcDbHatch
 10
0.0
 20
0.0
 30
0.0
210
0.0
220
0.0
230
1.0
  2
SOLID
 70
     1
 71
     0
 91
        1
 92
        1
 93
        1
 72
     4
 94
        3
 73
     0
 74
     1
 95
       17
 96
       13
 40
0.0
 40
0.0
 40
0.0
 40
0.0
 40
1.0
 40
1.0
 40
1.0
 40
2.0
 40
2.0
 40
2.0
 40
3.0
 40
3.0
 40
3.0
 40
4.0
 40
4.0
 40
4.0
 40
4.0
 10
516.0460030931133
 20
-350.0163742170571
 10
516.0460030931133
 20
-361.0620692102974
 10
507.0916980913491
 20
-370.0163742120581
 10
496.0460030981121
 20
-370.0163742120581
 10
485.0003081048716
 20
-370.0163742120581
 10
476.0460031031109
 20
-361.0620692102974
 10
476.0460031031109
 20
-350.0163742170571
 10
476.0460031031109
 20
-338.9706792238198
 10
485.0003081048716
 20
-330.0163742220562
 10
496.0460030981121
 20
-330.0163742220562
 10
507.0916980913491
 20
-330.0163742220562
 10
516.0460030931133
 20
-338.9706792238198
 10
516.0460030931133
 20
-350.0163742170571
 97
        0
 97
        0
 75
     2
 76
     1
 98
        0
  0
SPLINE
  5
78
330
1F
100
AcDbEntity
  8
Calque 1
 62
   250
420
  2565157
370
    35
100
AcDbSpline
210
0.0
220
0.0
230
1.0
 70
    11
 71
     3
 72
    17
 73
    13
 74
     0
 42
0.0000000001
 43
0.0000000001
 12
1.0
 22
0.0
 32
0.0
 13
1.0
 23
0.0
 33
0.0
 40
0.0
 40
0.0
 40
0.0
 40
0.0
 40
1.0
 40
1.0
 40
1.0
 40
2.0
 40
2.0
 40
2.0
 40
3.0
 40
3.0
 40
3.0
 40
4.0
 40
4.0
 40
4.0
 40
4.0
 10
505.1951029917826
 20
-272.2496464175128
 30
0.0
 10
505.1951029917826
 20
-283.2953414107534
 30
0.0
 10
496.2407979900219
 20
-292.2496464125141
 30
0.0
 10
485.1951029967813
 20
-292.2496464125141
 30
0.0
 10
474.1494080035443
 20
-292.2496464125141
 30
0.0
 10
465.1951030017836
 20
-283.2953414107534
 30
0.0
 10
465.1951030017836
 20
-272.2496464175128
 30
0.0
 10
465.1951030017836
 20
-261.2039514242758
 30
0.0
 10
474.1494080035443
 20
-252.2496464225158
 30
0.0
 10
485.1951029967813
 20
-252.2496464225158
 30
0.0
 10
496.2407979900219
 20
-252.2496464225158
 30
0.0
 10
505.1951029917826
 20
-261.2039514242758
 30
0.0
 10
505.1951029917826
 20
-272.2496464175128
 30
0.0
  0
HATCH
  5
79
330
1F
100
AcDbEntity
  8
Calque 1
 62
     7
420
 16711679
100
AcDbHatch
 10
0.0
 20
0.0
 30
0.0
210
0.0
220
0.0
230
1.0
  2
SOLID
 70
     1
 71
     0
 91
        1
 92
        1
 93
        1
 72
     4
 94
        3
 73
     0
 74
     1
 95
       17
 96
       13
 40
0.0
 40
0.0
 40
0.0
 40
0.0
 40
1.0
 40
1.0
 40
1.0
 40
2.0
 40
2.0
 40
2.0
 40
3.0
 40
3.0
 40
3.0
 40
4.0
 40
4.0
 40
4.0
 40
4.0
 10
505.1951029917826
 20
-272.2496464175128
 10
505.1951029917826
 20
-283.2953414107534
 10
496.2407979900219
 20
-292.2496464125141
 10
485.1951029967813
 20
-292.2496464125141
 10
474.1494080035443
 20
-292.2496464125141
 10
465.1951030017836
 20
-283.2953414107534
 10
465.1951030017836
 20
-272.2496464175128
 10
465.1951030017836
 20
-261.2039514242758
 10
474.1494080035443
 20
-252.2496464225158
 10
485.1951029967813
 20
-252.2496464225158
 10
496.2407979900219
 20
-252.2496464225158
 10
505.1951029917826
 20
-261.2039514242758
 10
505.1951029917826
 20
-272.2496464175128
 97
        0
 97
        0
 75
     2
 76
     1
 98
        0
  0
SPLINE
  5
7A
330
1F
100
AcDbEntity
  8
Calque 1
 62
   250
420
  2565157
370
    35
100
AcDbSpline
210
0.0
220
0.0
230
1.0
 70
    11
 71
     3
 72
    17
 73
    13
 74
     0
 42
0.0000000001
 43
0.0000000001
 12
1.0
 22
0.0
 32
0.0
 13
1.0
 23
0.0
 33
0.0
 40
0.0
 40
0.0
 40
0.0
 40
0.0
 40
1.0
 40
1.0
 40
1.0
 40
2.0
 40
2.0
 40
2.0
 40
3.0
 40
3.0
 40
3.0
 40
4.0
 40
4.0
 40
4.0
 40
4.0
 10
870.8327636044934
 20
-440.2524821692795
 30
0.0
 10
870.8327636044934
 20
-451.2981771625162
 30
0.0
 10
861.8784586027327
 20
-460.2524821642807
 30
0.0
 10
850.8327636094954
 20
-460.2524821642807
 30
0.0
 10
839.7870686162547
 20
-460.2524821642807
 30
0.0
 10
830.8327636144948
 20
-451.2981771625162
 30
0.0
 10
830.8327636144948
 20
-440.2524821692795
 30
0.0
 10
830.8327636144948
 20
-429.2067871760389
 30
0.0
 10
839.7870686162547
 20
-420.2524821742782
 30
0.0
 10
850.8327636094954
 20
-420.2524821742782
 30
0.0
 10
861.8784586027327
 20
-420.2524821742782
 30
0.0
 10
870.8327636044934
 20
-429.2067871760389
 30
0.0
 10
870.8327636044934
 20
-440.2524821692795
 30
0.0
  0
HATCH
  5
7B
330
1F
100
AcDbEntity
  8
Calque 1
 62
     7
420
 16711679
100
AcDbHatch
 10
0.0
 20
0.0
 30
0.0
210
0.0
220
0.0
230
1.0
  2
SOLID
 70
     1
 71
     0
 91
        1
 92
        1
 93
        1
 72
     4
 94
        3
 73
     0
 74
     1
 95
       17
 96
       13
 40
0.0
 40
0.0
 40
0.0
 40
0.0
 40
1.0
 40
1.0
 40
1.0
 40
2.0
 40
2.0
 40
2.0
 40
3.0
 40
3.0
 40
3.0
 40
4.0
 40
4.0
 40
4.0
 40
4.0
 10
870.8327636044934
 20
-440.2524821692795
 10
870.8327636044934
 20
-451.2981771625162
 10
861.8784586027327
 20
-460.2524821642807
 10
850.8327636094954
 20
-460.2524821642807
 10
839.7870686162547
 20
-460.2524821642807
 10
830.8327636144948
 20
-451.2981771625162
 10
830.8327636144948
 20
-440.2524821692795
 10
830.8327636144948
 20
-429.2067871760389
 10
839.7870686162547
 20
-420.2524821742782
 10
850.8327636094954
 20
-420.2524821742782
 10
861.8784586027327
 20
-420.2524821742782
 10
870.8327636044934
 20
-429.2067871760389
 10
870.8327636044934
 20
-440.2524821692795
 97
        0
 97
        0
 75
     2
 76
     1
 98
        0
  0
SPLINE
  5
7C
330
1F
100
AcDbEntity
  8
Calque 1
 62
   250
420
  2565157
370
    35
100
AcDbSpline
210
0.0
220
0.0
230
1.0
 70
    11
 71
     3
 72
    17
 73
    13
 74
     0
 42
0.0000000001
 43
0.0000000001
 12
1.0
 22
0.0
 32
0.0
 13
1.0
 23
0.0
 33
0.0
 40
0.0
 40
0.0
 40
0.0
 40
0.0
 40
1.0
 40
1.0
 40
1.0
 40
2.0
 40
2.0
 40
2.0
 40
3.0
 40
3.0
 40
3.0
 40
4.0
 40
4.0
 40
4.0
 40
4.0
 10
296.2150119860553
 20
-303.9958004742135
 30
0.0
 10
296.2150119860553
 20
-306.67437982278
 30
0.0
 10
294.043593023128
 20
-308.8457974178851
 30
0.0
 10
291.3650119872678
 20
-308.8457974178851
 30
0.0
 10
288.6864309514079
 20
-308.8457974178851
 30
0.0
 10
286.5150119884803
 20
-306.67437982278
 30
0.0
 10
286.5150119884803
 20
-303.9958004742135
 30
0.0
 10
286.5150119884803
 20
-301.3172211256473
 30
0.0
 10
288.6864309514079
 20
-299.1458035305423
 30
0.0
 10
291.3650119872678
 20
-299.1458035305423
 30
0.0
 10
294.043593023128
 20
-299.1458035305423
 30
0.0
 10
296.2150119860553
 20
-301.3172211256473
 30
0.0
 10
296.2150119860553
 20
-303.9958004742135
 30
0.0
  0
HATCH
  5
7D
330
1F
100
AcDbEntity
  8
Calque 1
 62
     7
420
 16711679
100
AcDbHatch
 10
0.0
 20
0.0
 30
0.0
210
0.0
220
0.0
230
1.0
  2
SOLID
 70
     1
 71
     0
 91
        1
 92
        1
 93
        1
 72
     4
 94
        3
 73
     0
 74
     1
 95
       17
 96
       13
 40
0.0
 40
0.0
 40
0.0
 40
0.0
 40
1.0
 40
1.0
 40
1.0
 40
2.0
 40
2.0
 40
2.0
 40
3.0
 40
3.0
 40
3.0
 40
4.0
 40
4.0
 40
4.0
 40
4.0
 10
296.2150119860553
 20
-303.9958004742135
 10
296.2150119860553
 20
-306.67437982278
 10
294.043593023128
 20
-308.8457974178851
 10
291.3650119872678
 20
-308.8457974178851
 10
288.6864309514079
 20
-308.8457974178851
 10
286.5150119884803
 20
-306.67437982278
 10
286.5150119884803
 20
-303.9958004742135
 10
286.5150119884803
 20
-301.3172211256473
 10
288.6864309514079
 20
-299.1458035305423
 10
291.3650119872678
 20
-299.1458035305423
 10
294.043593023128
 20
-299.1458035305423
 10
296.2150119860553
 20
-301.3172211256473
 10
296.2150119860553
 20
-303.9958004742135
 97
        0
 97
        0
 75
     2
 76
     1
 98
        0
  0
SPLINE
  5
7E
330
1F
100
AcDbEntity
  8
Calque 1
 62
   250
420
  2565157
370
    35
100
AcDbSpline
210
0.0
220
0.0
230
1.0
 70
    11
 71
     3
 72
    17
 73
    13
 74
     0
 42
0.0000000001
 43
0.0000000001
 12
1.0
 22
0.0
 32
0.0
 13
1.0
 23
0.0
 33
0.0
 40
0.0
 40
0.0
 40
0.0
 40
0.0
 40
1.0
 40
1.0
 40
1.0
 40
2.0
 40
2.0
 40
2.0
 40
3.0
 40
3.0
 40
3.0
 40
4.0
 40
4.0
 40
4.0
 40
4.0
 10
416.4895371540388
 20
-300.5468686326637
 30
0.0
 10
416.4895371540388
 20
-303.2254479812302
 30
0.0
 10
414.3181181911144
 20
-305.3968655763353
 30
0.0
 10
411.6395371552522
 20
-305.3968655763353
 30
0.0
 10
408.9609561193905
 20
-305.3968655763353
 30
0.0
 10
406.7895371564657
 20
-303.2254479812302
 30
0.0
 10
406.7895371564657
 20
-300.5468686326637
 30
0.0
 10
406.7895371564657
 20
-297.8682892840979
 30
0.0
 10
408.9609561193905
 20
-295.6968716889925
 30
0.0
 10
411.6395371552522
 20
-295.6968716889925
 30
0.0
 10
414.3181181911144
 20
-295.6968716889925
 30
0.0
 10
416.4895371540388
 20
-297.8682892840979
 30
0.0
 10
416.4895371540388
 20
-300.5468686326637
 30
0.0
  0
HATCH
  5
7F
330
1F
100
AcDbEntity
  8
Calque 1
 62
     7
420
 16711679
100
AcDbHatch
 10
0.0
 20
0.0
 30
0.0
210
0.0
220
0.0
230
1.0
  2
SOLID
 70
     1
 71
     0
 91
        1
 92
        1
 93
        1
 72
     4
 94
        3
 73
     0
 74
     1
 95
       17
 96
       13
 40
0.0
 40
0.0
 40
0.0
 40
0.0
 40
1.0
 40
1.0
 40
1.0
 40
2.0
 40
2.0
 40
2.0
 40
3.0
 40
3.0
 40
3.0
 40
4.0
 40
4.0
 40
4.0
 40
4.0
 10
416.4895371540388
 20
-300.5468686326637
 10
416.4895371540388
 20
-303.2254479812302
 10
414.3181181911144
 20
-305.3968655763353
 10
411.6395371552522
 20
-305.3968655763353
 10
408.9609561193905
 20
-305.3968655763353
 10
406.7895371564657
 20
-303.2254479812302
 10
406.7895371564657
 20
-300.5468686326637
 10
406.7895371564657
 20
-297.8682892840979
 10
408.9609561193905
 20
-295.6968716889925
 10
411.6395371552522
 20
-295.6968716889925
 10
414.3181181911144
 20
-295.6968716889925
 10
416.4895371540388
 20
-297.8682892840979
 10
416.4895371540388
 20
-300.5468686326637
 97
        0
 97
        0
 75
     2
 76
     1
 98
        0
  0
SPLINE
  5
80
330
1F
100
AcDbEntity
  8
Calque 1
 62
   250
420
  2565157
370
    35
100
AcDbSpline
210
0.0
220
0.0
230
1.0
 70
    11
 71
     3
 72
    17
 73
    13
 74
     0
 42
0.0000000001
 43
0.0000000001
 12
1.0
 22
0.0
 32
0.0
 13
1.0
 23
0.0
 33
0.0
 40
0.0
 40
0.0
 40
0.0
 40
0.0
 40
1.0
 40
1.0
 40
1.0
 40
2.0
 40
2.0
 40
2.0
 40
3.0
 40
3.0
 40
3.0
 40
4.0
 40
4.0
 40
4.0
 40
4.0
 10
490.7871114620683
 20
-276.715324522508
 30
0.0
 10
490.7871114620683
 20
-279.1816504374126
 30
0.0
 10
488.7877580125423
 20
-281.1810026275031
 30
0.0
 10
486.3214305440452
 20
-281.1810026275031
 30
0.0
 10
483.8551030755513
 20
-281.1810026275031
 30
0.0
 10
481.8557496260253
 20
-279.1816504374126
 30
0.0
 10
481.8557496260253
 20
-276.715324522508
 30
0.0
 10
481.8557496260253
 20
-274.2489986076034
 30
0.0
 10
483.8551030755513
 20
-272.2496464175128
 30
0.0
 10
486.3214305440452
 20
-272.2496464175128
 30
0.0
 10
488.7877580125423
 20
-272.2496464175128
 30
0.0
 10
490.7871114620683
 20
-274.2489986076034
 30
0.0
 10
490.7871114620683
 20
-276.715324522508
 30
0.0
  0
HATCH
  5
81
330
1F
100
AcDbEntity
  8
Calque 1
 62
     7
420
 16711679
100
AcDbHatch
 10
0.0
 20
0.0
 30
0.0
210
0.0
220
0.0
230
1.0
  2
SOLID
 70
     1
 71
     0
 91
        1
 92
        1
 93
        1
 72
     4
 94
        3
 73
     0
 74
     1
 95
       17
 96
       13
 40
0.0
 40
0.0
 40
0.0
 40
0.0
 40
1.0
 40
1.0
 40
1.0
 40
2.0
 40
2.0
 40
2.0
 40
3.0
 40
3.0
 40
3.0
 40
4.0
 40
4.0
 40
4.0
 40
4.0
 10
490.7871114620683
 20
-276.715324522508
 10
490.7871114620683
 20
-279.1816504374126
 10
488.7877580125423
 20
-281.1810026275031
 10
486.3214305440452
 20
-281.1810026275031
 10
483.8551030755513
 20
-281.1810026275031
 10
481.8557496260253
 20
-279.1816504374126
 10
481.8557496260253
 20
-276.715324522508
 10
481.8557496260253
 20
-274.2489986076034
 10
483.8551030755513
 20
-272.2496464175128
 10
486.3214305440452
 20
-272.2496464175128
 10
488.7877580125423
 20
-272.2496464175128
 10
490.7871114620683
 20
-274.2489986076034
 10
490.7871114620683
 20
-276.715324522508
 97
        0
 97
        0
 75
     2
 76
     1
 98
        0
  0
SPLINE
  5
82
330
1F
100
AcDbEntity
  8
Calque 1
 62
   250
420
  2565157
370
    35
100
AcDbSpline
210
0.0
220
0.0
230
1.0
 70
    11
 71
     3
 72
    17
 73
    13
 74
     0
 42
0.0000000001
 43
0.0000000001
 12
1.0
 22
0.0
 32
0.0
 13
1.0
 23
0.0
 33
0.0
 40
0.0
 40
0.0
 40
0.0
 40
0.0
 40
1.0
 40
1.0
 40
1.0
 40
2.0
 40
2.0
 40
2.0
 40
3.0
 40
3.0
 40
3.0
 40
4.0
 40
4.0
 40
4.0
 40
4.0
 10
554.3864626037653
 20
-303.9958004742135
 30
0.0
 10
554.3864626037653
 20
-306.67437982278
 30
0.0
 10
552.2150436408373
 20
-308.8457974178851
 30
0.0
 10
549.5364626049752
 20
-308.8457974178851
 30
0.0
 10
546.8578815691169
 20
-308.8457974178851
 30
0.0
 10
544.6864626061887
 20
-306.67437982278
 30
0.0
 10
544.6864626061887
 20
-303.9958004742135
 30
0.0
 10
544.6864626061887
 20
-301.3172211256473
 30
0.0
 10
546.8578815691169
 20
-299.1458035305423
 30
0.0
 10
549.5364626049752
 20
-299.1458035305423
 30
0.0
 10
552.2150436408373
 20
-299.1458035305423
 30
0.0
 10
554.3864626037653
 20
-301.3172211256473
 30
0.0
 10
554.3864626037653
 20
-303.9958004742135
 30
0.0
  0
HATCH
  5
83
330
1F
100
AcDbEntity
  8
Calque 1
 62
     7
420
 16711679
100
AcDbHatch
 10
0.0
 20
0.0
 30
0.0
210
0.0
220
0.0
230
1.0
  2
SOLID
 70
     1
 71
     0
 91
        1
 92
        1
 93
        1
 72
     4
 94
        3
 73
     0
 74
     1
 95
       17
 96
       13
 40
0.0
 40
0.0
 40
0.0
 40
0.0
 40
1.0
 40
1.0
 40
1.0
 40
2.0
 40
2.0
 40
2.0
 40
3.0
 40
3.0
 40
3.0
 40
4.0
 40
4.0
 40
4.0
 40
4.0
 10
554.3864626037653
 20
-303.9958004742135
 10
554.3864626037653
 20
-306.67437982278
 10
552.2150436408373
 20
-308.8457974178851
 10
549.5364626049752
 20
-308.8457974178851
 10
546.8578815691169
 20
-308.8457974178851
 10
544.6864626061887
 20
-306.67437982278
 10
544.6864626061887
 20
-303.9958004742135
 10
544.6864626061887
 20
-301.3172211256473
 10
546.8578815691169
 20
-299.1458035305423
 10
549.5364626049752
 20
-299.1458035305423
 10
552.2150436408373
 20
-299.1458035305423
 10
554.3864626037653
 20
-301.3172211256473
 10
554.3864626037653
 20
-303.9958004742135
 97
        0
 97
        0
 75
     2
 76
     1
 98
        0
  0
SPLINE
  5
84
330
1F
100
AcDbEntity
  8
Calque 1
 62
   250
420
  2565157
370
    35
100
AcDbSpline
210
0.0
220
0.0
230
1.0
 70
    11
 71
     3
 72
    17
 73
    13
 74
     0
 42
0.0000000001
 43
0.0000000001
 12
1.0
 22
0.0
 32
0.0
 13
1.0
 23
0.0
 33
0.0
 40
0.0
 40
0.0
 40
0.0
 40
0.0
 40
1.0
 40
1.0
 40
1.0
 40
2.0
 40
2.0
 40
2.0
 40
3.0
 40
3.0
 40
3.0
 40
4.0
 40
4.0
 40
4.0
 40
4.0
 10
457.90848902584
 20
-401.5871259459601
 30
0.0
 10
457.90848902584
 20
-404.2657052945243
 30
0.0
 10
455.7370700629121
 20
-406.4371228896306
 30
0.0
 10
453.0584890270499
 20
-406.4371228896306
 30
0.0
 10
450.3799079911917
 20
-406.4371228896306
 30
0.0
 10
448.2084890282637
 20
-404.2657052945243
 30
0.0
 10
448.2084890282637
 20
-401.5871259459601
 30
0.0
 10
448.2084890282637
 20
-398.9085465973955
 30
0.0
 10
450.3799079911917
 20
-396.7371290022891
 30
0.0
 10
453.0584890270499
 20
-396.7371290022891
 30
0.0
 10
455.7370700629121
 20
-396.7371290022891
 30
0.0
 10
457.90848902584
 20
-398.9085465973955
 30
0.0
 10
457.90848902584
 20
-401.5871259459601
 30
0.0
  0
HATCH
  5
85
330
1F
100
AcDbEntity
  8
Calque 1
 62
     7
420
 16711679
100
AcDbHatch
 10
0.0
 20
0.0
 30
0.0
210
0.0
220
0.0
230
1.0
  2
SOLID
 70
     1
 71
     0
 91
        1
 92
        1
 93
        1
 72
     4
 94
        3
 73
     0
 74
     1
 95
       17
 96
       13
 40
0.0
 40
0.0
 40
0.0
 40
0.0
 40
1.0
 40
1.0
 40
1.0
 40
2.0
 40
2.0
 40
2.0
 40
3.0
 40
3.0
 40
3.0
 40
4.0
 40
4.0
 40
4.0
 40
4.0
 10
457.90848902584
 20
-401.5871259459601
 10
457.90848902584
 20
-404.2657052945243
 10
455.7370700629121
 20
-406.4371228896306
 10
453.0584890270499
 20
-406.4371228896306
 10
450.3799079911917
 20
-406.4371228896306
 10
448.2084890282637
 20
-404.2657052945243
 10
448.2084890282637
 20
-401.5871259459601
 10
448.2084890282637
 20
-398.9085465973955
 10
450.3799079911917
 20
-396.7371290022891
 10
453.0584890270499
 20
-396.7371290022891
 10
455.7370700629121
 20
-396.7371290022891
 10
457.90848902584
 20
-398.9085465973955
 10
457.90848902584
 20
-401.5871259459601
 97
        0
 97
        0
 75
     2
 76
     1
 98
        0
  0
SPLINE
  5
86
330
1F
100
AcDbEntity
  8
Calque 1
 62
   250
420
  2565157
370
    35
100
AcDbSpline
210
0.0
220
0.0
230
1.0
 70
    11
 71
     3
 72
    17
 73
    13
 74
     0
 42
0.0000000001
 43
0.0000000001
 12
1.0
 22
0.0
 32
0.0
 13
1.0
 23
0.0
 33
0.0
 40
0.0
 40
0.0
 40
0.0
 40
0.0
 40
1.0
 40
1.0
 40
1.0
 40
2.0
 40
2.0
 40
2.0
 40
3.0
 40
3.0
 40
3.0
 40
4.0
 40
4.0
 40
4.0
 40
4.0
 10
547.9284363144337
 20
-403.9958004492145
 30
0.0
 10
547.9284363144337
 20
-406.6743797977788
 30
0.0
 10
545.7570173515054
 20
-408.8457973928857
 30
0.0
 10
543.0784363156437
 20
-408.8457973928857
 30
0.0
 10
540.3998552797854
 20
-408.8457973928857
 30
0.0
 10
538.2284363168574
 20
-406.6743797977788
 30
0.0
 10
538.2284363168574
 20
-403.9958004492145
 30
0.0
 10
538.2284363168574
 20
-401.3172211006465
 30
0.0
 10
540.3998552797854
 20
-399.1458035055437
 30
0.0
 10
543.0784363156437
 20
-399.1458035055437
 30
0.0
 10
545.7570173515054
 20
-399.1458035055437
 30
0.0
 10
547.9284363144337
 20
-401.3172211006465
 30
0.0
 10
547.9284363144337
 20
-403.9958004492145
 30
0.0
  0
HATCH
  5
87
330
1F
100
AcDbEntity
  8
Calque 1
 62
     7
420
 16711679
100
AcDbHatch
 10
0.0
 20
0.0
 30
0.0
210
0.0
220
0.0
230
1.0
  2
SOLID
 70
     1
 71
     0
 91
        1
 92
        1
 93
        1
 72
     4
 94
        3
 73
     0
 74
     1
 95
       17
 96
       13
 40
0.0
 40
0.0
 40
0.0
 40
0.0
 40
1.0
 40
1.0
 40
1.0
 40
2.0
 40
2.0
 40
2.0
 40
3.0
 40
3.0
 40
3.0
 40
4.0
 40
4.0
 40
4.0
 40
4.0
 10
547.9284363144337
 20
-403.9958004492145
 10
547.9284363144337
 20
-406.6743797977788
 10
545.7570173515054
 20
-408.8457973928857
 10
543.0784363156437
 20
-408.8457973928857
 10
540.3998552797854
 20
-408.8457973928857
 10
538.2284363168574
 20
-406.6743797977788
 10
538.2284363168574
 20
-403.9958004492145
 10
538.2284363168574
 20
-401.3172211006465
 10
540.3998552797854
 20
-399.1458035055437
 10
543.0784363156437
 20
-399.1458035055437
 10
545.7570173515054
 20
-399.1458035055437
 10
547.9284363144337
 20
-401.3172211006465
 10
547.9284363144337
 20
-403.9958004492145
 97
        0
 97
        0
 75
     2
 76
     1
 98
        0
  0
SPLINE
  5
88
330
1F
100
AcDbEntity
  8
Calque 1
 62
   250
420
  2565157
370
    35
100
AcDbSpline
210
0.0
220
0.0
230
1.0
 70
    11
 71
     3
 72
    17
 73
    13
 74
     0
 42
0.0000000001
 43
0.0000000001
 12
1.0
 22
0.0
 32
0.0
 13
1.0
 23
0.0
 33
0.0
 40
0.0
 40
0.0
 40
0.0
 40
0.0
 40
1.0
 40
1.0
 40
1.0
 40
2.0
 40
2.0
 40
2.0
 40
3.0
 40
3.0
 40
3.0
 40
4.0
 40
4.0
 40
4.0
 40
4.0
 10
585.5684626494731
 20
-501.4044749287122
 30
0.0
 10
585.5684626494731
 20
-523.4958649151934
 30
0.0
 10
567.6598526459483
 20
-541.4044749187146
 30
0.0
 10
545.5684626594706
 20
-541.4044749187146
 30
0.0
 10
523.477072672993
 20
-541.4044749187146
 30
0.0
 10
505.568462669472
 20
-523.4958649151934
 30
0.0
 10
505.568462669472
 20
-501.4044749287122
 30
0.0
 10
505.568462669472
 20
-479.3130849422388
 30
0.0
 10
523.477072672993
 20
-461.4044749387136
 30
0.0
 10
545.5684626594706
 20
-461.4044749387136
 30
0.0
 10
567.6598526459483
 20
-461.4044749387136
 30
0.0
 10
585.5684626494731
 20
-479.3130849422388
 30
0.0
 10
585.5684626494731
 20
-501.4044749287122
 30
0.0
  0
HATCH
  5
89
330
1F
100
AcDbEntity
  8
Calque 1
 62
     7
420
 16711679
100
AcDbHatch
 10
0.0
 20
0.0
 30
0.0
210
0.0
220
0.0
230
1.0
  2
SOLID
 70
     1
 71
     0
 91
        1
 92
        1
 93
        1
 72
     4
 94
        3
 73
     0
 74
     1
 95
       17
 96
       13
 40
0.0
 40
0.0
 40
0.0
 40
0.0
 40
1.0
 40
1.0
 40
1.0
 40
2.0
 40
2.0
 40
2.0
 40
3.0
 40
3.0
 40
3.0
 40
4.0
 40
4.0
 40
4.0
 40
4.0
 10
585.5684626494731
 20
-501.4044749287122
 10
585.5684626494731
 20
-523.4958649151934
 10
567.6598526459483
 20
-541.4044749187146
 10
545.5684626594706
 20
-541.4044749187146
 10
523.477072672993
 20
-541.4044749187146
 10
505.568462669472
 20
-523.4958649151934
 10
505.568462669472
 20
-501.4044749287122
 10
505.568462669472
 20
-479.3130849422388
 10
523.477072672993
 20
-461.4044749387136
 10
545.5684626594706
 20
-461.4044749387136
 10
567.6598526459483
 20
-461.4044749387136
 10
585.5684626494731
 20
-479.3130849422388
 10
585.5684626494731
 20
-501.4044749287122
 97
        0
 97
        0
 75
     2
 76
     1
 98
        0
  0
SPLINE
  5
8A
330
1F
100
AcDbEntity
  8
Calque 1
 62
   250
420
  2565157
370
    35
100
AcDbSpline
210
0.0
220
0.0
230
1.0
 70
    11
 71
     3
 72
    17
 73
    13
 74
     0
 42
0.0000000001
 43
0.0000000001
 12
1.0
 22
0.0
 32
0.0
 13
1.0
 23
0.0
 33
0.0
 40
0.0
 40
0.0
 40
0.0
 40
0.0
 40
1.0
 40
1.0
 40
1.0
 40
2.0
 40
2.0
 40
2.0
 40
3.0
 40
3.0
 40
3.0
 40
4.0
 40
4.0
 40
4.0
 40
4.0
 10
550.4184626582608
 20
-501.4044749287141
 30
0.0
 10
550.4184626582608
 20
-504.0830542772783
 30
0.0
 10
548.2470436953324
 20
-506.2544718723854
 30
0.0
 10
545.5684626594706
 20
-506.2544718723854
 30
0.0
 10
542.8898816236124
 20
-506.2544718723854
 30
0.0
 10
540.7184626606844
 20
-504.0830542772783
 30
0.0
 10
540.7184626606844
 20
-501.4044749287141
 30
0.0
 10
540.7184626606844
 20
-498.725895580146
 30
0.0
 10
542.8898816236124
 20
-496.5544779850435
 30
0.0
 10
545.5684626594706
 20
-496.5544779850435
 30
0.0
 10
548.2470436953324
 20
-496.5544779850435
 30
0.0
 10
550.4184626582608
 20
-498.725895580146
 30
0.0
 10
550.4184626582608
 20
-501.4044749287141
 30
0.0
  0
HATCH
  5
8B
330
1F
100
AcDbEntity
  8
Calque 1
 62
     7
420
 16711679
100
AcDbHatch
 10
0.0
 20
0.0
 30
0.0
210
0.0
220
0.0
230
1.0
  2
SOLID
 70
     1
 71
     0
 91
        1
 92
        1
 93
        1
 72
     4
 94
        3
 73
     0
 74
     1
 95
       17
 96
       13
 40
0.0
 40
0.0
 40
0.0
 40
0.0
 40
1.0
 40
1.0
 40
1.0
 40
2.0
 40
2.0
 40
2.0
 40
3.0
 40
3.0
 40
3.0
 40
4.0
 40
4.0
 40
4.0
 40
4.0
 10
550.4184626582608
 20
-501.4044749287141
 10
550.4184626582608
 20
-504.0830542772783
 10
548.2470436953324
 20
-506.2544718723854
 10
545.5684626594706
 20
-506.2544718723854
 10
542.8898816236124
 20
-506.2544718723854
 10
540.7184626606844
 20
-504.0830542772783
 10
540.7184626606844
 20
-501.4044749287141
 10
540.7184626606844
 20
-498.725895580146
 10
542.8898816236124
 20
-496.5544779850435
 10
545.5684626594706
 20
-496.5544779850435
 10
548.2470436953324
 20
-496.5544779850435
 10
550.4184626582608
 20
-498.725895580146
 10
550.4184626582608
 20
-501.4044749287141
 97
        0
 97
        0
 75
     2
 76
     1
 98
        0
  0
SPLINE
  5
8C
330
1F
100
AcDbEntity
  8
Calque 1
 62
   250
420
  2565157
370
    35
100
AcDbSpline
210
0.0
220
0.0
230
1.0
 70
    11
 71
     3
 72
    17
 73
    13
 74
     0
 42
0.0000000001
 43
0.0000000001
 12
1.0
 22
0.0
 32
0.0
 13
1.0
 23
0.0
 33
0.0
 40
0.0
 40
0.0
 40
0.0
 40
0.0
 40
1.0
 40
1.0
 40
1.0
 40
2.0
 40
2.0
 40
2.0
 40
3.0
 40
3.0
 40
3.0
 40
4.0
 40
4.0
 40
4.0
 40
4.0
 10
500.5485153596269
 20
-498.9958004254615
 30
0.0
 10
500.5485153596269
 20
-523.8486141602485
 30
0.0
 10
480.4013291056639
 20
-543.9958004142115
 30
0.0
 10
455.5485153708769
 20
-543.9958004142115
 30
0.0
 10
430.6957016360903
 20
-543.9958004142115
 30
0.0
 10
410.5485153821272
 20
-523.8486141602485
 30
0.0
 10
410.5485153821272
 20
-498.9958004254615
 30
0.0
 10
410.5485153821272
 20
-474.1429866906746
 30
0.0
 10
430.6957016360903
 20
-453.9958004367115
 30
0.0
 10
455.5485153708769
 20
-453.9958004367115
 30
0.0
 10
480.4013291056639
 20
-453.9958004367115
 30
0.0
 10
500.5485153596269
 20
-474.1429866906746
 30
0.0
 10
500.5485153596269
 20
-498.9958004254615
 30
0.0
  0
HATCH
  5
8D
330
1F
100
AcDbEntity
  8
Calque 1
 62
     7
420
 16711679
100
AcDbHatch
 10
0.0
 20
0.0
 30
0.0
210
0.0
220
0.0
230
1.0
  2
SOLID
 70
     1
 71
     0
 91
        1
 92
        1
 93
        1
 72
     4
 94
        3
 73
     0
 74
     1
 95
       17
 96
       13
 40
0.0
 40
0.0
 40
0.0
 40
0.0
 40
1.0
 40
1.0
 40
1.0
 40
2.0
 40
2.0
 40
2.0
 40
3.0
 40
3.0
 40
3.0
 40
4.0
 40
4.0
 40
4.0
 40
4.0
 10
500.5485153596269
 20
-498.9958004254615
 10
500.5485153596269
 20
-523.8486141602485
 10
480.4013291056639
 20
-543.9958004142115
 10
455.5485153708769
 20
-543.9958004142115
 10
430.6957016360903
 20
-543.9958004142115
 10
410.5485153821272
 20
-523.8486141602485
 10
410.5485153821272
 20
-498.9958004254615
 10
410.5485153821272
 20
-474.1429866906746
 10
430.6957016360903
 20
-453.9958004367115
 10
455.5485153708769
 20
-453.9958004367115
 10
480.4013291056639
 20
-453.9958004367115
 10
500.5485153596269
 20
-474.1429866906746
 10
500.5485153596269
 20
-498.9958004254615
 97
        0
 97
        0
 75
     2
 76
     1
 98
        0
  0
SPLINE
  5
8E
330
1F
100
AcDbEntity
  8
Calque 1
 62
   250
420
  2565157
370
    35
100
AcDbSpline
210
0.0
220
0.0
230
1.0
 70
    11
 71
     3
 72
    17
 73
    13
 74
     0
 42
0.0000000001
 43
0.0000000001
 12
1.0
 22
0.0
 32
0.0
 13
1.0
 23
0.0
 33
0.0
 40
0.0
 40
0.0
 40
0.0
 40
0.0
 40
1.0
 40
1.0
 40
1.0
 40
2.0
 40
2.0
 40
2.0
 40
3.0
 40
3.0
 40
3.0
 40
4.0
 40
4.0
 40
4.0
 40
4.0
 10
460.398515369667
 20
-498.9958004254615
 30
0.0
 10
460.398515369667
 20
-501.6743797740258
 30
0.0
 10
458.2270964067391
 20
-503.8457973691321
 30
0.0
 10
455.5485153708769
 20
-503.8457973691321
 30
0.0
 10
452.8699343350186
 20
-503.8457973691321
 30
0.0
 10
450.6985153720907
 20
-501.6743797740258
 30
0.0
 10
450.6985153720907
 20
-498.9958004254615
 30
0.0
 10
450.6985153720907
 20
-496.3172210768973
 30
0.0
 10
452.8699343350186
 20
-494.1458034817903
 30
0.0
 10
455.5485153708769
 20
-494.1458034817903
 30
0.0
 10
458.2270964067391
 20
-494.1458034817903
 30
0.0
 10
460.398515369667
 20
-496.3172210768973
 30
0.0
 10
460.398515369667
 20
-498.9958004254615
 30
0.0
  0
HATCH
  5
8F
330
1F
100
AcDbEntity
  8
Calque 1
 62
     7
420
 16711679
100
AcDbHatch
 10
0.0
 20
0.0
 30
0.0
210
0.0
220
0.0
230
1.0
  2
SOLID
 70
     1
 71
     0
 91
        1
 92
        1
 93
        1
 72
     4
 94
        3
 73
     0
 74
     1
 95
       17
 96
       13
 40
0.0
 40
0.0
 40
0.0
 40
0.0
 40
1.0
 40
1.0
 40
1.0
 40
2.0
 40
2.0
 40
2.0
 40
3.0
 40
3.0
 40
3.0
 40
4.0
 40
4.0
 40
4.0
 40
4.0
 10
460.398515369667
 20
-498.9958004254615
 10
460.398515369667
 20
-501.6743797740258
 10
458.2270964067391
 20
-503.8457973691321
 10
455.5485153708769
 20
-503.8457973691321
 10
452.8699343350186
 20
-503.8457973691321
 10
450.6985153720907
 20
-501.6743797740258
 10
450.6985153720907
 20
-498.9958004254615
 10
450.6985153720907
 20
-496.3172210768973
 10
452.8699343350186
 20
-494.1458034817903
 10
455.5485153708769
 20
-494.1458034817903
 10
458.2270964067391
 20
-494.1458034817903
 10
460.398515369667
 20
-496.3172210768973
 10
460.398515369667
 20
-498.9958004254615
 97
        0
 97
        0
 75
     2
 76
     1
 98
        0
  0
SPLINE
  5
90
330
1F
100
AcDbEntity
  8
Calque 1
 62
   250
420
  2565157
370
    35
100
AcDbSpline
210
0.0
220
0.0
230
1.0
 70
    11
 71
     3
 72
    17
 73
    13
 74
     0
 42
0.0000000001
 43
0.0000000001
 12
1.0
 22
0.0
 32
0.0
 13
1.0
 23
0.0
 33
0.0
 40
0.0
 40
0.0
 40
0.0
 40
0.0
 40
1.0
 40
1.0
 40
1.0
 40
2.0
 40
2.0
 40
2.0
 40
3.0
 40
3.0
 40
3.0
 40
4.0
 40
4.0
 40
4.0
 40
4.0
 10
274.3329355572533
 20
-406.663657577432
 30
0.0
 10
274.3329355572533
 20
-409.3422369259962
 30
0.0
 10
272.161516594326
 20
-411.5136545211026
 30
0.0
 10
269.4829355584658
 20
-411.5136545211026
 30
0.0
 10
266.8043545226056
 20
-411.5136545211026
 30
0.0
 10
264.6329355596783
 20
-409.3422369259962
 30
0.0
 10
264.6329355596783
 20
-406.663657577432
 30
0.0
 10
264.6329355596783
 20
-403.9850782288671
 30
0.0
 10
266.8043545226056
 20
-401.8136606337608
 30
0.0
 10
269.4829355584658
 20
-401.8136606337608
 30
0.0
 10
272.161516594326
 20
-401.8136606337608
 30
0.0
 10
274.3329355572533
 20
-403.9850782288671
 30
0.0
 10
274.3329355572533
 20
-406.663657577432
 30
0.0
  0
HATCH
  5
91
330
1F
100
AcDbEntity
  8
Calque 1
 62
     7
420
 16711679
100
AcDbHatch
 10
0.0
 20
0.0
 30
0.0
210
0.0
220
0.0
230
1.0
  2
SOLID
 70
     1
 71
     0
 91
        1
 92
        1
 93
        1
 72
     4
 94
        3
 73
     0
 74
     1
 95
       17
 96
       13
 40
0.0
 40
0.0
 40
0.0
 40
0.0
 40
1.0
 40
1.0
 40
1.0
 40
2.0
 40
2.0
 40
2.0
 40
3.0
 40
3.0
 40
3.0
 40
4.0
 40
4.0
 40
4.0
 40
4.0
 10
274.3329355572533
 20
-406.663657577432
 10
274.3329355572533
 20
-409.3422369259962
 10
272.161516594326
 20
-411.5136545211026
 10
269.4829355584658
 20
-411.5136545211026
 10
266.8043545226056
 20
-411.5136545211026
 10
264.6329355596783
 20
-409.3422369259962
 10
264.6329355596783
 20
-406.663657577432
 10
264.6329355596783
 20
-403.9850782288671
 10
266.8043545226056
 20
-401.8136606337608
 10
269.4829355584658
 20
-401.8136606337608
 10
272.161516594326
 20
-401.8136606337608
 10
274.3329355572533
 20
-403.9850782288671
 10
274.3329355572533
 20
-406.663657577432
 97
        0
 97
        0
 75
     2
 76
     1
 98
        0
  0
SPLINE
  5
92
330
1F
100
AcDbEntity
  8
Calque 1
 62
   250
420
  2565157
370
    35
100
AcDbSpline
210
0.0
220
0.0
230
1.0
 70
    11
 71
     3
 72
    17
 73
    13
 74
     0
 42
0.0000000001
 43
0.0000000001
 12
1.0
 22
0.0
 32
0.0
 13
1.0
 23
0.0
 33
0.0
 40
0.0
 40
0.0
 40
0.0
 40
0.0
 40
1.0
 40
1.0
 40
1.0
 40
2.0
 40
2.0
 40
2.0
 40
3.0
 40
3.0
 40
3.0
 40
4.0
 40
4.0
 40
4.0
 40
4.0
 10
362.6955355694632
 20
-390.0209569381136
 30
0.0
 10
362.6955355694632
 20
-392.6995362866781
 30
0.0
 10
360.5241166065353
 20
-394.8709538817845
 30
0.0
 10
357.8455355706767
 20
-394.8709538817845
 30
0.0
 10
355.1669545348149
 20
-394.8709538817845
 30
0.0
 10
352.9955355718869
 20
-392.6995362866781
 30
0.0
 10
352.9955355718869
 20
-390.0209569381136
 30
0.0
 10
352.9955355718869
 20
-387.3423775895455
 30
0.0
 10
355.1669545348149
 20
-385.1709599944426
 30
0.0
 10
357.8455355706767
 20
-385.1709599944426
 30
0.0
 10
360.5241166065353
 20
-385.1709599944426
 30
0.0
 10
362.6955355694632
 20
-387.3423775895455
 30
0.0
 10
362.6955355694632
 20
-390.0209569381136
 30
0.0
  0
HATCH
  5
93
330
1F
100
AcDbEntity
  8
Calque 1
 62
     7
420
 16711679
100
AcDbHatch
 10
0.0
 20
0.0
 30
0.0
210
0.0
220
0.0
230
1.0
  2
SOLID
 70
     1
 71
     0
 91
        1
 92
        1
 93
        1
 72
     4
 94
        3
 73
     0
 74
     1
 95
       17
 96
       13
 40
0.0
 40
0.0
 40
0.0
 40
0.0
 40
1.0
 40
1.0
 40
1.0
 40
2.0
 40
2.0
 40
2.0
 40
3.0
 40
3.0
 40
3.0
 40
4.0
 40
4.0
 40
4.0
 40
4.0
 10
362.6955355694632
 20
-390.0209569381136
 10
362.6955355694632
 20
-392.6995362866781
 10
360.5241166065353
 20
-394.8709538817845
 10
357.8455355706767
 20
-394.8709538817845
 10
355.1669545348149
 20
-394.8709538817845
 10
352.9955355718869
 20
-392.6995362866781
 10
352.9955355718869
 20
-390.0209569381136
 10
352.9955355718869
 20
-387.3423775895455
 10
355.1669545348149
 20
-385.1709599944426
 10
357.8455355706767
 20
-385.1709599944426
 10
360.5241166065353
 20
-385.1709599944426
 10
362.6955355694632
 20
-387.3423775895455
 10
362.6955355694632
 20
-390.0209569381136
 97
        0
 97
        0
 75
     2
 76
     1
 98
        0
  0
SPLINE
  5
94
330
1F
100
AcDbEntity
  8
Calque 1
 62
   250
420
  2565157
370
    35
100
AcDbSpline
210
0.0
220
0.0
230
1.0
 70
    11
 71
     3
 72
    17
 73
    13
 74
     0
 42
0.0000000001
 43
0.0000000001
 12
1.0
 22
0.0
 32
0.0
 13
1.0
 23
0.0
 33
0.0
 40
0.0
 40
0.0
 40
0.0
 40
0.0
 40
1.0
 40
1.0
 40
1.0
 40
2.0
 40
2.0
 40
2.0
 40
3.0
 40
3.0
 40
3.0
 40
4.0
 40
4.0
 40
4.0
 40
4.0
 10
500.8960030968984
 20
-350.0163742170571
 30
0.0
 10
500.8960030968984
 20
-352.6949535656227
 30
0.0
 10
498.724584133974
 20
-354.8663711607277
 30
0.0
 10
496.0460030981121
 20
-354.8663711607277
 30
0.0
 10
493.3674220622503
 20
-354.8663711607277
 30
0.0
 10
491.1960030993256
 20
-352.6949535656227
 30
0.0
 10
491.1960030993256
 20
-350.0163742170571
 30
0.0
 10
491.1960030993256
 20
-347.3377948684904
 30
0.0
 10
493.3674220622503
 20
-345.1663772733859
 30
0.0
 10
496.0460030981121
 20
-345.1663772733859
 30
0.0
 10
498.724584133974
 20
-345.1663772733859
 30
0.0
 10
500.8960030968984
 20
-347.3377948684904
 30
0.0
 10
500.8960030968984
 20
-350.0163742170571
 30
0.0
  0
HATCH
  5
95
330
1F
100
AcDbEntity
  8
Calque 1
 62
     7
420
 16711679
100
AcDbHatch
 10
0.0
 20
0.0
 30
0.0
210
0.0
220
0.0
230
1.0
  2
SOLID
 70
     1
 71
     0
 91
        1
 92
        1
 93
        1
 72
     4
 94
        3
 73
     0
 74
     1
 95
       17
 96
       13
 40
0.0
 40
0.0
 40
0.0
 40
0.0
 40
1.0
 40
1.0
 40
1.0
 40
2.0
 40
2.0
 40
2.0
 40
3.0
 40
3.0
 40
3.0
 40
4.0
 40
4.0
 40
4.0
 40
4.0
 10
500.8960030968984
 20
-350.0163742170571
 10
500.8960030968984
 20
-352.6949535656227
 10
498.724584133974
 20
-354.8663711607277
 10
496.0460030981121
 20
-354.8663711607277
 10
493.3674220622503
 20
-354.8663711607277
 10
491.1960030993256
 20
-352.6949535656227
 10
491.1960030993256
 20
-350.0163742170571
 10
491.1960030993256
 20
-347.3377948684904
 10
493.3674220622503
 20
-345.1663772733859
 10
496.0460030981121
 20
-345.1663772733859
 10
498.724584133974
 20
-345.1663772733859
 10
500.8960030968984
 20
-347.3377948684904
 10
500.8960030968984
 20
-350.0163742170571
 97
        0
 97
        0
 75
     2
 76
     1
 98
        0
  0
SPLINE
  5
96
330
1F
100
AcDbEntity
  8
Calque 1
 62
   250
420
  2565157
370
    35
100
AcDbSpline
210
0.0
220
0.0
230
1.0
 70
    11
 71
     3
 72
    17
 73
    13
 74
     0
 42
0.0000000001
 43
0.0000000001
 12
1.0
 22
0.0
 32
0.0
 13
1.0
 23
0.0
 33
0.0
 40
0.0
 40
0.0
 40
0.0
 40
0.0
 40
1.0
 40
1.0
 40
1.0
 40
2.0
 40
2.0
 40
2.0
 40
3.0
 40
3.0
 40
3.0
 40
4.0
 40
4.0
 40
4.0
 40
4.0
 10
499.4090436420507
 20
-314.7938788287595
 30
0.0
 10
499.4090436420507
 20
-322.4216957416318
 30
0.0
 10
493.2254762723846
 20
-328.6052631112979
 30
0.0
 10
485.5976593595126
 20
-328.6052631112979
 30
0.0
 10
477.9698424466403
 20
-328.6052631112979
 30
0.0
 10
471.7862750769745
 20
-322.4216957416318
 30
0.0
 10
471.7862750769745
 20
-314.7938788287595
 30
0.0
 10
471.7862750769745
 20
-307.1660619158875
 30
0.0
 10
477.9698424466403
 20
-300.9824945462213
 30
0.0
 10
485.5976593595126
 20
-300.9824945462213
 30
0.0
 10
493.2254762723846
 20
-300.9824945462213
 30
0.0
 10
499.4090436420507
 20
-307.1660619158875
 30
0.0
 10
499.4090436420507
 20
-314.7938788287595
 30
0.0
  0
HATCH
  5
97
330
1F
100
AcDbEntity
  8
Calque 1
 62
     7
420
 16711679
100
AcDbHatch
 10
0.0
 20
0.0
 30
0.0
210
0.0
220
0.0
230
1.0
  2
SOLID
 70
     1
 71
     0
 91
        1
 92
        1
 93
        1
 72
     4
 94
        3
 73
     0
 74
     1
 95
       17
 96
       13
 40
0.0
 40
0.0
 40
0.0
 40
0.0
 40
1.0
 40
1.0
 40
1.0
 40
2.0
 40
2.0
 40
2.0
 40
3.0
 40
3.0
 40
3.0
 40
4.0
 40
4.0
 40
4.0
 40
4.0
 10
499.4090436420507
 20
-314.7938788287595
 10
499.4090436420507
 20
-322.4216957416318
 10
493.2254762723846
 20
-328.6052631112979
 10
485.5976593595126
 20
-328.6052631112979
 10
477.9698424466403
 20
-328.6052631112979
 10
471.7862750769745
 20
-322.4216957416318
 10
471.7862750769745
 20
-314.7938788287595
 10
471.7862750769745
 20
-307.1660619158875
 10
477.9698424466403
 20
-300.9824945462213
 10
485.5976593595126
 20
-300.9824945462213
 10
493.2254762723846
 20
-300.9824945462213
 10
499.4090436420507
 20
-307.1660619158875
 10
499.4090436420507
 20
-314.7938788287595
 97
        0
 97
        0
 75
     2
 76
     1
 98
        0
  0
SPLINE
  5
98
330
1F
100
AcDbEntity
  8
Calque 1
 62
   250
420
  2565157
370
    35
100
AcDbSpline
210
0.0
220
0.0
230
1.0
 70
    11
 71
     3
 72
    17
 73
    13
 74
     0
 42
0.0000000001
 43
0.0000000001
 12
1.0
 22
0.0
 32
0.0
 13
1.0
 23
0.0
 33
0.0
 40
0.0
 40
0.0
 40
0.0
 40
0.0
 40
1.0
 40
1.0
 40
1.0
 40
2.0
 40
2.0
 40
2.0
 40
3.0
 40
3.0
 40
3.0
 40
4.0
 40
4.0
 40
4.0
 40
4.0
 10
284.6329355546779
 20
-483.2266665793201
 30
0.0
 10
284.6329355546779
 20
-494.2723615725607
 30
0.0
 10
275.6786305529173
 20
-503.2266665743214
 30
0.0
 10
264.6329355596767
 20
-503.2266665743214
 30
0.0
 10
253.5872405664397
 20
-503.2266665743214
 30
0.0
 10
244.632935564679
 20
-494.2723615725607
 30
0.0
 10
244.632935564679
 20
-483.2266665793201
 30
0.0
 10
244.632935564679
 20
-472.1809715860834
 30
0.0
 10
253.5872405664397
 20
-463.2266665843227
 30
0.0
 10
264.6329355596767
 20
-463.2266665843227
 30
0.0
 10
275.6786305529173
 20
-463.2266665843227
 30
0.0
 10
284.6329355546779
 20
-472.1809715860834
 30
0.0
 10
284.6329355546779
 20
-483.2266665793201
 30
0.0
  0
HATCH
  5
99
330
1F
100
AcDbEntity
  8
Calque 1
 62
     7
420
 16711679
100
AcDbHatch
 10
0.0
 20
0.0
 30
0.0
210
0.0
220
0.0
230
1.0
  2
SOLID
 70
     1
 71
     0
 91
        1
 92
        1
 93
        1
 72
     4
 94
        3
 73
     0
 74
     1
 95
       17
 96
       13
 40
0.0
 40
0.0
 40
0.0
 40
0.0
 40
1.0
 40
1.0
 40
1.0
 40
2.0
 40
2.0
 40
2.0
 40
3.0
 40
3.0
 40
3.0
 40
4.0
 40
4.0
 40
4.0
 40
4.0
 10
284.6329355546779
 20
-483.2266665793201
 10
284.6329355546779
 20
-494.2723615725607
 10
275.6786305529173
 20
-503.2266665743214
 10
264.6329355596767
 20
-503.2266665743214
 10
253.5872405664397
 20
-503.2266665743214
 10
244.632935564679
 20
-494.2723615725607
 10
244.632935564679
 20
-483.2266665793201
 10
244.632935564679
 20
-472.1809715860834
 10
253.5872405664397
 20
-463.2266665843227
 10
264.6329355596767
 20
-463.2266665843227
 10
275.6786305529173
 20
-463.2266665843227
 10
284.6329355546779
 20
-472.1809715860834
 10
284.6329355546779
 20
-483.2266665793201
 97
        0
 97
        0
 75
     2
 76
     1
 98
        0
  0
SPLINE
  5
9A
330
1F
100
AcDbEntity
  8
Calque 1
 62
   250
420
  2565157
370
    35
100
AcDbSpline
210
0.0
220
0.0
230
1.0
 70
    11
 71
     3
 72
    17
 73
    13
 74
     0
 42
0.0000000001
 43
0.0000000001
 12
1.0
 22
0.0
 32
0.0
 13
1.0
 23
0.0
 33
0.0
 40
0.0
 40
0.0
 40
0.0
 40
0.0
 40
1.0
 40
1.0
 40
1.0
 40
2.0
 40
2.0
 40
2.0
 40
3.0
 40
3.0
 40
3.0
 40
4.0
 40
4.0
 40
4.0
 40
4.0
 10
270.2249440249637
 20
-487.6923446843156
 30
0.0
 10
270.2249440249637
 20
-490.1586705992202
 30
0.0
 10
268.2255905754377
 20
-492.1580227893104
 30
0.0
 10
265.7592631069406
 20
-492.1580227893104
 30
0.0
 10
263.2929356384467
 20
-492.1580227893104
 30
0.0
 10
261.2935821889207
 20
-490.1586705992202
 30
0.0
 10
261.2935821889207
 20
-487.6923446843156
 30
0.0
 10
261.2935821889207
 20
-485.226018769411
 30
0.0
 10
263.2929356384467
 20
-483.2266665793201
 30
0.0
 10
265.7592631069406
 20
-483.2266665793201
 30
0.0
 10
268.2255905754377
 20
-483.2266665793201
 30
0.0
 10
270.2249440249637
 20
-485.226018769411
 30
0.0
 10
270.2249440249637
 20
-487.6923446843156
 30
0.0
  0
HATCH
  5
9B
330
1F
100
AcDbEntity
  8
Calque 1
 62
     7
420
 16711679
100
AcDbHatch
 10
0.0
 20
0.0
 30
0.0
210
0.0
220
0.0
230
1.0
  2
SOLID
 70
     1
 71
     0
 91
        1
 92
        1
 93
        1
 72
     4
 94
        3
 73
     0
 74
     1
 95
       17
 96
       13
 40
0.0
 40
0.0
 40
0.0
 40
0.0
 40
1.0
 40
1.0
 40
1.0
 40
2.0
 40
2.0
 40
2.0
 40
3.0
 40
3.0
 40
3.0
 40
4.0
 40
4.0
 40
4.0
 40
4.0
 10
270.2249440249637
 20
-487.6923446843156
 10
270.2249440249637
 20
-490.1586705992202
 10
268.2255905754377
 20
-492.1580227893104
 10
265.7592631069406
 20
-492.1580227893104
 10
263.2929356384467
 20
-492.1580227893104
 10
261.2935821889207
 20
-490.1586705992202
 10
261.2935821889207
 20
-487.6923446843156
 10
261.2935821889207
 20
-485.226018769411
 10
263.2929356384467
 20
-483.2266665793201
 10
265.7592631069406
 20
-483.2266665793201
 10
268.2255905754377
 20
-483.2266665793201
 10
270.2249440249637
 20
-485.226018769411
 10
270.2249440249637
 20
-487.6923446843156
 97
        0
 97
        0
 75
     2
 76
     1
 98
        0
  0
SPLINE
  5
9C
330
1F
100
AcDbEntity
  8
Calque 1
 62
   250
420
  2565157
370
    35
100
AcDbSpline
210
0.0
220
0.0
230
1.0
 70
    11
 71
     3
 72
    17
 73
    13
 74
     0
 42
0.0000000001
 43
0.0000000001
 12
1.0
 22
0.0
 32
0.0
 13
1.0
 23
0.0
 33
0.0
 40
0.0
 40
0.0
 40
0.0
 40
0.0
 40
1.0
 40
1.0
 40
1.0
 40
2.0
 40
2.0
 40
2.0
 40
3.0
 40
3.0
 40
3.0
 40
4.0
 40
4.0
 40
4.0
 40
4.0
 10
278.8468762049462
 20
-525.7708989905664
 30
0.0
 10
278.8468762049462
 20
-533.398715903439
 30
0.0
 10
272.66330883528
 20
-539.5822832731055
 30
0.0
 10
265.035491922408
 20
-539.5822832731055
 30
0.0
 10
257.4076750095358
 20
-539.5822832731055
 30
0.0
 10
251.2241076398699
 20
-533.398715903439
 30
0.0
 10
251.2241076398699
 20
-525.7708989905664
 30
0.0
 10
251.2241076398699
 20
-518.1430820776944
 30
0.0
 10
257.4076750095358
 20
-511.9595147080286
 30
0.0
 10
265.035491922408
 20
-511.9595147080286
 30
0.0
 10
272.66330883528
 20
-511.9595147080286
 30
0.0
 10
278.8468762049462
 20
-518.1430820776944
 30
0.0
 10
278.8468762049462
 20
-525.7708989905664
 30
0.0
  0
HATCH
  5
9D
330
1F
100
AcDbEntity
  8
Calque 1
 62
     7
420
 16711679
100
AcDbHatch
 10
0.0
 20
0.0
 30
0.0
210
0.0
220
0.0
230
1.0
  2
SOLID
 70
     1
 71
     0
 91
        1
 92
        1
 93
        1
 72
     4
 94
        3
 73
     0
 74
     1
 95
       17
 96
       13
 40
0.0
 40
0.0
 40
0.0
 40
0.0
 40
1.0
 40
1.0
 40
1.0
 40
2.0
 40
2.0
 40
2.0
 40
3.0
 40
3.0
 40
3.0
 40
4.0
 40
4.0
 40
4.0
 40
4.0
 10
278.8468762049462
 20
-525.7708989905664
 10
278.8468762049462
 20
-533.398715903439
 10
272.66330883528
 20
-539.5822832731055
 10
265.035491922408
 20
-539.5822832731055
 10
257.4076750095358
 20
-539.5822832731055
 10
251.2241076398699
 20
-533.398715903439
 10
251.2241076398699
 20
-525.7708989905664
 10
251.2241076398699
 20
-518.1430820776944
 10
257.4076750095358
 20
-511.9595147080286
 10
265.035491922408
 20
-511.9595147080286
 10
272.66330883528
 20
-511.9595147080286
 10
278.8468762049462
 20
-518.1430820776944
 10
278.8468762049462
 20
-525.7708989905664
 97
        0
 97
        0
 75
     2
 76
     1
 98
        0
  0
SPLINE
  5
9E
330
1F
100
AcDbEntity
  8
Calque 1
 62
   250
420
  2565157
370
    35
100
AcDbSpline
210
0.0
220
0.0
230
1.0
 70
    11
 71
     3
 72
    17
 73
    13
 74
     0
 42
0.0000000001
 43
0.0000000001
 12
1.0
 22
0.0
 32
0.0
 13
1.0
 23
0.0
 33
0.0
 40
0.0
 40
0.0
 40
0.0
 40
0.0
 40
1.0
 40
1.0
 40
1.0
 40
2.0
 40
2.0
 40
2.0
 40
3.0
 40
3.0
 40
3.0
 40
4.0
 40
4.0
 40
4.0
 40
4.0
 10
480.9795757579042
 20
-317.0347310029456
 30
0.0
 10
479.0855341365857
 20
-315.1406893816285
 30
0.0
 10
479.0855351037825
 20
-312.0698402018583
 30
0.0
 10
480.9795779181987
 20
-310.175797387444
 30
0.0
 10
482.8736207326118
 20
-308.2817545730293
 30
0.0
 10
485.9444699123826
 20
-308.2817536058336
 30
0.0
 10
487.8385115336971
 20
-310.1757952271507
 30
0.0
 10
489.7325531550155
 20
-312.0698368484681
 30
0.0
 10
489.7325521878191
 20
-315.1406860282373
 30
0.0
 10
487.8385093734061
 20
-317.034728842652
 30
0.0
 10
485.9444665589898
 20
-318.9287716570663
 30
0.0
 10
482.8736173792225
 20
-318.9287726242636
 30
0.0
 10
480.9795757579042
 20
-317.0347310029456
 30
0.0
  0
HATCH
  5
9F
330
1F
100
AcDbEntity
  8
Calque 1
 62
     7
420
 16711679
100
AcDbHatch
 10
0.0
 20
0.0
 30
0.0
210
0.0
220
0.0
230
1.0
  2
SOLID
 70
     1
 71
     0
 91
        1
 92
        1
 93
        1
 72
     4
 94
        3
 73
     0
 74
     1
 95
       17
 96
       13
 40
0.0
 40
0.0
 40
0.0
 40
0.0
 40
1.0
 40
1.0
 40
1.0
 40
2.0
 40
2.0
 40
2.0
 40
3.0
 40
3.0
 40
3.0
 40
4.0
 40
4.0
 40
4.0
 40
4.0
 10
480.9795757579042
 20
-317.0347310029456
 10
479.0855341365857
 20
-315.1406893816285
 10
479.0855351037825
 20
-312.0698402018583
 10
480.9795779181987
 20
-310.175797387444
 10
482.8736207326118
 20
-308.2817545730293
 10
485.9444699123826
 20
-308.2817536058336
 10
487.8385115336971
 20
-310.1757952271507
 10
489.7325531550155
 20
-312.0698368484681
 10
489.7325521878191
 20
-315.1406860282373
 10
487.8385093734061
 20
-317.034728842652
 10
485.9444665589898
 20
-318.9287716570663
 10
482.8736173792225
 20
-318.9287726242636
 10
480.9795757579042
 20
-317.0347310029456
 97
        0
 97
        0
 75
     2
 76
     1
 98
        0
  0
SPLINE
  5
A0
330
1F
100
AcDbEntity
  8
Calque 1
 62
   250
420
  2565157
370
    35
100
AcDbSpline
210
0.0
220
0.0
230
1.0
 70
    11
 71
     3
 72
    17
 73
    13
 74
     0
 42
0.0000000001
 43
0.0000000001
 12
1.0
 22
0.0
 32
0.0
 13
1.0
 23
0.0
 33
0.0
 40
0.0
 40
0.0
 40
0.0
 40
0.0
 40
1.0
 40
1.0
 40
1.0
 40
2.0
 40
2.0
 40
2.0
 40
3.0
 40
3.0
 40
3.0
 40
4.0
 40
4.0
 40
4.0
 40
4.0
 10
686.1840235693478
 20
-490.4024852118573
 30
0.0
 10
686.1840235693478
 20
-493.0810645604215
 30
0.0
 10
684.0126046064202
 20
-495.2524821555279
 30
0.0
 10
681.3340235705616
 20
-495.2524821555279
 30
0.0
 10
678.655442534703
 20
-495.2524821555279
 30
0.0
 10
676.4840235717753
 20
-493.0810645604215
 30
0.0
 10
676.4840235717753
 20
-490.4024852118573
 30
0.0
 10
676.4840235717753
 20
-487.7239058632892
 30
0.0
 10
678.655442534703
 20
-485.552488268186
 30
0.0
 10
681.3340235705616
 20
-485.552488268186
 30
0.0
 10
684.0126046064202
 20
-485.552488268186
 30
0.0
 10
686.1840235693478
 20
-487.7239058632892
 30
0.0
 10
686.1840235693478
 20
-490.4024852118573
 30
0.0
  0
HATCH
  5
A1
330
1F
100
AcDbEntity
  8
Calque 1
 62
     7
420
 16711679
100
AcDbHatch
 10
0.0
 20
0.0
 30
0.0
210
0.0
220
0.0
230
1.0
  2
SOLID
 70
     1
 71
     0
 91
        1
 92
        1
 93
        1
 72
     4
 94
        3
 73
     0
 74
     1
 95
       17
 96
       13
 40
0.0
 40
0.0
 40
0.0
 40
0.0
 40
1.0
 40
1.0
 40
1.0
 40
2.0
 40
2.0
 40
2.0
 40
3.0
 40
3.0
 40
3.0
 40
4.0
 40
4.0
 40
4.0
 40
4.0
 10
686.1840235693478
 20
-490.4024852118573
 10
686.1840235693478
 20
-493.0810645604215
 10
684.0126046064202
 20
-495.2524821555279
 10
681.3340235705616
 20
-495.2524821555279
 10
678.655442534703
 20
-495.2524821555279
 10
676.4840235717753
 20
-493.0810645604215
 10
676.4840235717753
 20
-490.4024852118573
 10
676.4840235717753
 20
-487.7239058632892
 10
678.655442534703
 20
-485.552488268186
 10
681.3340235705616
 20
-485.552488268186
 10
684.0126046064202
 20
-485.552488268186
 10
686.1840235693478
 20
-487.7239058632892
 10
686.1840235693478
 20
-490.4024852118573
 97
        0
 97
        0
 75
     2
 76
     1
 98
        0
  0
SPLINE
  5
A2
330
1F
100
AcDbEntity
  8
Calque 1
 62
   250
420
  2565157
370
    35
100
AcDbSpline
210
0.0
220
0.0
230
1.0
 70
    11
 71
     3
 72
    17
 73
    13
 74
     0
 42
0.0000000001
 43
0.0000000001
 12
1.0
 22
0.0
 32
0.0
 13
1.0
 23
0.0
 33
0.0
 40
0.0
 40
0.0
 40
0.0
 40
0.0
 40
1.0
 40
1.0
 40
1.0
 40
2.0
 40
2.0
 40
2.0
 40
3.0
 40
3.0
 40
3.0
 40
4.0
 40
4.0
 40
4.0
 40
4.0
 10
656.9340807187307
 20
-402.2802330469545
 30
0.0
 10
656.9340807187307
 20
-404.9588123955187
 30
0.0
 10
654.7626617558024
 20
-407.1302299906251
 30
0.0
 10
652.0840807199438
 20
-407.1302299906251
 30
0.0
 10
649.405499684082
 20
-407.1302299906251
 30
0.0
 10
647.2340807211575
 20
-404.9588123955187
 30
0.0
 10
647.2340807211575
 20
-402.2802330469545
 30
0.0
 10
647.2340807211575
 20
-399.6016536983896
 30
0.0
 10
649.405499684082
 20
-397.4302361032832
 30
0.0
 10
652.0840807199438
 20
-397.4302361032832
 30
0.0
 10
654.7626617558024
 20
-397.4302361032832
 30
0.0
 10
656.9340807187307
 20
-399.6016536983896
 30
0.0
 10
656.9340807187307
 20
-402.2802330469545
 30
0.0
  0
HATCH
  5
A3
330
1F
100
AcDbEntity
  8
Calque 1
 62
     7
420
 16711679
100
AcDbHatch
 10
0.0
 20
0.0
 30
0.0
210
0.0
220
0.0
230
1.0
  2
SOLID
 70
     1
 71
     0
 91
        1
 92
        1
 93
        1
 72
     4
 94
        3
 73
     0
 74
     1
 95
       17
 96
       13
 40
0.0
 40
0.0
 40
0.0
 40
0.0
 40
1.0
 40
1.0
 40
1.0
 40
2.0
 40
2.0
 40
2.0
 40
3.0
 40
3.0
 40
3.0
 40
4.0
 40
4.0
 40
4.0
 40
4.0
 10
656.9340807187307
 20
-402.2802330469545
 10
656.9340807187307
 20
-404.9588123955187
 10
654.7626617558024
 20
-407.1302299906251
 10
652.0840807199438
 20
-407.1302299906251
 10
649.405499684082
 20
-407.1302299906251
 10
647.2340807211575
 20
-404.9588123955187
 10
647.2340807211575
 20
-402.2802330469545
 10
647.2340807211575
 20
-399.6016536983896
 10
649.405499684082
 20
-397.4302361032832
 10
652.0840807199438
 20
-397.4302361032832
 10
654.7626617558024
 20
-397.4302361032832
 10
656.9340807187307
 20
-399.6016536983896
 10
656.9340807187307
 20
-402.2802330469545
 97
        0
 97
        0
 75
     2
 76
     1
 98
        0
  0
SPLINE
  5
A4
330
1F
100
AcDbEntity
  8
Calque 1
 62
   250
420
  2565157
370
    35
100
AcDbSpline
210
0.0
220
0.0
230
1.0
 70
    11
 71
     3
 72
    17
 73
    13
 74
     0
 42
0.0000000001
 43
0.0000000001
 12
1.0
 22
0.0
 32
0.0
 13
1.0
 23
0.0
 33
0.0
 40
0.0
 40
0.0
 40
0.0
 40
0.0
 40
1.0
 40
1.0
 40
1.0
 40
2.0
 40
2.0
 40
2.0
 40
3.0
 40
3.0
 40
3.0
 40
4.0
 40
4.0
 40
4.0
 40
4.0
 10
802.454751764008
 20
-499.6315207946922
 30
0.0
 10
802.454751764008
 20
-502.3101001432609
 30
0.0
 10
800.2833328010797
 20
-504.4815177383634
 30
0.0
 10
797.6047517652212
 20
-504.4815177383634
 30
0.0
 10
794.9261707293593
 20
-504.4815177383634
 30
0.0
 10
792.7547517664317
 20
-502.3101001432609
 30
0.0
 10
792.7547517664317
 20
-499.6315207946922
 30
0.0
 10
792.7547517664317
 20
-496.9529414461279
 30
0.0
 10
794.9261707293593
 20
-494.7815238510216
 30
0.0
 10
797.6047517652212
 20
-494.7815238510216
 30
0.0
 10
800.2833328010797
 20
-494.7815238510216
 30
0.0
 10
802.454751764008
 20
-496.9529414461279
 30
0.0
 10
802.454751764008
 20
-499.6315207946922
 30
0.0
  0
HATCH
  5
A5
330
1F
100
AcDbEntity
  8
Calque 1
 62
     7
420
 16711679
100
AcDbHatch
 10
0.0
 20
0.0
 30
0.0
210
0.0
220
0.0
230
1.0
  2
SOLID
 70
     1
 71
     0
 91
        1
 92
        1
 93
        1
 72
     4
 94
        3
 73
     0
 74
     1
 95
       17
 96
       13
 40
0.0
 40
0.0
 40
0.0
 40
0.0
 40
1.0
 40
1.0
 40
1.0
 40
2.0
 40
2.0
 40
2.0
 40
3.0
 40
3.0
 40
3.0
 40
4.0
 40
4.0
 40
4.0
 40
4.0
 10
802.454751764008
 20
-499.6315207946922
 10
802.454751764008
 20
-502.3101001432609
 10
800.2833328010797
 20
-504.4815177383634
 10
797.6047517652212
 20
-504.4815177383634
 10
794.9261707293593
 20
-504.4815177383634
 10
792.7547517664317
 20
-502.3101001432609
 10
792.7547517664317
 20
-499.6315207946922
 10
792.7547517664317
 20
-496.9529414461279
 10
794.9261707293593
 20
-494.7815238510216
 10
797.6047517652212
 20
-494.7815238510216
 10
800.2833328010797
 20
-494.7815238510216
 10
802.454751764008
 20
-496.9529414461279
 10
802.454751764008
 20
-499.6315207946922
 97
        0
 97
        0
 75
     2
 76
     1
 98
        0
  0
SPLINE
  5
A6
330
1F
100
AcDbEntity
  8
Calque 1
 62
   250
420
  2565157
370
    35
100
AcDbSpline
210
0.0
220
0.0
230
1.0
 70
    11
 71
     3
 72
    17
 73
    13
 74
     0
 42
0.0000000001
 43
0.0000000001
 12
1.0
 22
0.0
 32
0.0
 13
1.0
 23
0.0
 33
0.0
 40
0.0
 40
0.0
 40
0.0
 40
0.0
 40
1.0
 40
1.0
 40
1.0
 40
2.0
 40
2.0
 40
2.0
 40
3.0
 40
3.0
 40
3.0
 40
4.0
 40
4.0
 40
4.0
 40
4.0
 10
760.7540068362689
 20
-403.9958004492145
 30
0.0
 10
760.7540068362689
 20
-406.6743797977788
 30
0.0
 10
758.5825878733406
 20
-408.8457973928857
 30
0.0
 10
755.9040068374826
 20
-408.8457973928857
 30
0.0
 10
753.2254258016208
 20
-408.8457973928857
 30
0.0
 10
751.0540068386925
 20
-406.6743797977788
 30
0.0
 10
751.0540068386925
 20
-403.9958004492145
 30
0.0
 10
751.0540068386925
 20
-401.3172211006465
 30
0.0
 10
753.2254258016208
 20
-399.1458035055437
 30
0.0
 10
755.9040068374826
 20
-399.1458035055437
 30
0.0
 10
758.5825878733406
 20
-399.1458035055437
 30
0.0
 10
760.7540068362689
 20
-401.3172211006465
 30
0.0
 10
760.7540068362689
 20
-403.9958004492145
 30
0.0
  0
HATCH
  5
A7
330
1F
100
AcDbEntity
  8
Calque 1
 62
     7
420
 16711679
100
AcDbHatch
 10
0.0
 20
0.0
 30
0.0
210
0.0
220
0.0
230
1.0
  2
SOLID
 70
     1
 71
     0
 91
        1
 92
        1
 93
        1
 72
     4
 94
        3
 73
     0
 74
     1
 95
       17
 96
       13
 40
0.0
 40
0.0
 40
0.0
 40
0.0
 40
1.0
 40
1.0
 40
1.0
 40
2.0
 40
2.0
 40
2.0
 40
3.0
 40
3.0
 40
3.0
 40
4.0
 40
4.0
 40
4.0
 40
4.0
 10
760.7540068362689
 20
-403.9958004492145
 10
760.7540068362689
 20
-406.6743797977788
 10
758.5825878733406
 20
-408.8457973928857
 10
755.9040068374826
 20
-408.8457973928857
 10
753.2254258016208
 20
-408.8457973928857
 10
751.0540068386925
 20
-406.6743797977788
 10
751.0540068386925
 20
-403.9958004492145
 10
751.0540068386925
 20
-401.3172211006465
 10
753.2254258016208
 20
-399.1458035055437
 10
755.9040068374826
 20
-399.1458035055437
 10
758.5825878733406
 20
-399.1458035055437
 10
760.7540068362689
 20
-401.3172211006465
 10
760.7540068362689
 20
-403.9958004492145
 97
        0
 97
        0
 75
     2
 76
     1
 98
        0
  0
SPLINE
  5
A8
330
1F
100
AcDbEntity
  8
Calque 1
 62
   250
420
  2565157
370
    35
100
AcDbSpline
210
0.0
220
0.0
230
1.0
 70
    11
 71
     3
 72
    17
 73
    13
 74
     0
 42
0.0000000001
 43
0.0000000001
 12
1.0
 22
0.0
 32
0.0
 13
1.0
 23
0.0
 33
0.0
 40
0.0
 40
0.0
 40
0.0
 40
0.0
 40
1.0
 40
1.0
 40
1.0
 40
2.0
 40
2.0
 40
2.0
 40
3.0
 40
3.0
 40
3.0
 40
4.0
 40
4.0
 40
4.0
 40
4.0
 10
686.9340807112303
 20
-310.5704407753861
 30
0.0
 10
686.9340807112303
 20
-313.2490201239517
 30
0.0
 10
684.7626617483027
 20
-315.4204377190576
 30
0.0
 10
682.084080712444
 20
-315.4204377190576
 30
0.0
 10
679.4054996765822
 20
-315.4204377190576
 30
0.0
 10
677.2340807136578
 20
-313.2490201239517
 30
0.0
 10
677.2340807136578
 20
-310.5704407753861
 30
0.0
 10
677.2340807136578
 20
-307.8918614268193
 30
0.0
 10
679.4054996765822
 20
-305.7204438317149
 30
0.0
 10
682.084080712444
 20
-305.7204438317149
 30
0.0
 10
684.7626617483027
 20
-305.7204438317149
 30
0.0
 10
686.9340807112303
 20
-307.8918614268193
 30
0.0
 10
686.9340807112303
 20
-310.5704407753861
 30
0.0
  0
HATCH
  5
A9
330
1F
100
AcDbEntity
  8
Calque 1
 62
     7
420
 16711679
100
AcDbHatch
 10
0.0
 20
0.0
 30
0.0
210
0.0
220
0.0
230
1.0
  2
SOLID
 70
     1
 71
     0
 91
        1
 92
        1
 93
        1
 72
     4
 94
        3
 73
     0
 74
     1
 95
       17
 96
       13
 40
0.0
 40
0.0
 40
0.0
 40
0.0
 40
1.0
 40
1.0
 40
1.0
 40
2.0
 40
2.0
 40
2.0
 40
3.0
 40
3.0
 40
3.0
 40
4.0
 40
4.0
 40
4.0
 40
4.0
 10
686.9340807112303
 20
-310.5704407753861
 10
686.9340807112303
 20
-313.2490201239517
 10
684.7626617483027
 20
-315.4204377190576
 10
682.084080712444
 20
-315.4204377190576
 10
679.4054996765822
 20
-315.4204377190576
 10
677.2340807136578
 20
-313.2490201239517
 10
677.2340807136578
 20
-310.5704407753861
 10
677.2340807136578
 20
-307.8918614268193
 10
679.4054996765822
 20
-305.7204438317149
 10
682.084080712444
 20
-305.7204438317149
 10
684.7626617483027
 20
-305.7204438317149
 10
686.9340807112303
 20
-307.8918614268193
 10
686.9340807112303
 20
-310.5704407753861
 97
        0
 97
        0
 75
     2
 76
     1
 98
        0
  0
SPLINE
  5
AA
330
1F
100
AcDbEntity
  8
Calque 1
 62
   250
420
  2565157
370
    35
100
AcDbSpline
210
0.0
220
0.0
230
1.0
 70
    11
 71
     3
 72
    17
 73
    13
 74
     0
 42
0.0000000001
 43
0.0000000001
 12
1.0
 22
0.0
 32
0.0
 13
1.0
 23
0.0
 33
0.0
 40
0.0
 40
0.0
 40
0.0
 40
0.0
 40
1.0
 40
1.0
 40
1.0
 40
2.0
 40
2.0
 40
2.0
 40
3.0
 40
3.0
 40
3.0
 40
4.0
 40
4.0
 40
4.0
 40
4.0
 10
805.0991396186986
 20
-304.3093327209562
 30
0.0
 10
805.0991396186986
 20
-306.9879120695218
 30
0.0
 10
802.9277206557709
 20
-309.1593296646275
 30
0.0
 10
800.2491396199123
 20
-309.1593296646275
 30
0.0
 10
797.5705585840504
 20
-309.1593296646275
 30
0.0
 10
795.3991396211261
 20
-306.9879120695218
 30
0.0
 10
795.3991396211261
 20
-304.3093327209562
 30
0.0
 10
795.3991396211261
 20
-301.6307533723894
 30
0.0
 10
797.5705585840504
 20
-299.459335777285
 30
0.0
 10
800.2491396199123
 20
-299.459335777285
 30
0.0
 10
802.9277206557709
 20
-299.459335777285
 30
0.0
 10
805.0991396186986
 20
-301.6307533723894
 30
0.0
 10
805.0991396186986
 20
-304.3093327209562
 30
0.0
  0
HATCH
  5
AB
330
1F
100
AcDbEntity
  8
Calque 1
 62
     7
420
 16711679
100
AcDbHatch
 10
0.0
 20
0.0
 30
0.0
210
0.0
220
0.0
230
1.0
  2
SOLID
 70
     1
 71
     0
 91
        1
 92
        1
 93
        1
 72
     4
 94
        3
 73
     0
 74
     1
 95
       17
 96
       13
 40
0.0
 40
0.0
 40
0.0
 40
0.0
 40
1.0
 40
1.0
 40
1.0
 40
2.0
 40
2.0
 40
2.0
 40
3.0
 40
3.0
 40
3.0
 40
4.0
 40
4.0
 40
4.0
 40
4.0
 10
805.0991396186986
 20
-304.3093327209562
 10
805.0991396186986
 20
-306.9879120695218
 10
802.9277206557709
 20
-309.1593296646275
 10
800.2491396199123
 20
-309.1593296646275
 10
797.5705585840504
 20
-309.1593296646275
 10
795.3991396211261
 20
-306.9879120695218
 10
795.3991396211261
 20
-304.3093327209562
 10
795.3991396211261
 20
-301.6307533723894
 10
797.5705585840504
 20
-299.459335777285
 10
800.2491396199123
 20
-299.459335777285
 10
802.9277206557709
 20
-299.459335777285
 10
805.0991396186986
 20
-301.6307533723894
 10
805.0991396186986
 20
-304.3093327209562
 97
        0
 97
        0
 75
     2
 76
     1
 98
        0
  0
SPLINE
  5
AC
330
1F
100
AcDbEntity
  8
Calque 1
 62
   250
420
  2565157
370
    35
100
AcDbSpline
210
0.0
220
0.0
230
1.0
 70
    11
 71
     3
 72
    17
 73
    13
 74
     0
 42
0.0000000001
 43
0.0000000001
 12
1.0
 22
0.0
 32
0.0
 13
1.0
 23
0.0
 33
0.0
 40
0.0
 40
0.0
 40
0.0
 40
0.0
 40
1.0
 40
1.0
 40
1.0
 40
2.0
 40
2.0
 40
2.0
 40
3.0
 40
3.0
 40
3.0
 40
4.0
 40
4.0
 40
4.0
 40
4.0
 10
930.9397250817773
 20
-308.8457974178851
 30
0.0
 10
930.9397250817773
 20
-311.5243767664506
 30
0.0
 10
928.7683061188528
 20
-313.6957943615563
 30
0.0
 10
926.0897250829904
 20
-313.6957943615563
 30
0.0
 10
923.4111440471324
 20
-313.6957943615563
 30
0.0
 10
921.2397250842042
 20
-311.5243767664506
 30
0.0
 10
921.2397250842042
 20
-308.8457974178851
 30
0.0
 10
921.2397250842042
 20
-306.1672180693183
 30
0.0
 10
923.4111440471324
 20
-303.9958004742139
 30
0.0
 10
926.0897250829904
 20
-303.9958004742139
 30
0.0
 10
928.7683061188528
 20
-303.9958004742139
 30
0.0
 10
930.9397250817773
 20
-306.1672180693183
 30
0.0
 10
930.9397250817773
 20
-308.8457974178851
 30
0.0
  0
HATCH
  5
AD
330
1F
100
AcDbEntity
  8
Calque 1
 62
     7
420
 16711679
100
AcDbHatch
 10
0.0
 20
0.0
 30
0.0
210
0.0
220
0.0
230
1.0
  2
SOLID
 70
     1
 71
     0
 91
        1
 92
        1
 93
        1
 72
     4
 94
        3
 73
     0
 74
     1
 95
       17
 96
       13
 40
0.0
 40
0.0
 40
0.0
 40
0.0
 40
1.0
 40
1.0
 40
1.0
 40
2.0
 40
2.0
 40
2.0
 40
3.0
 40
3.0
 40
3.0
 40
4.0
 40
4.0
 40
4.0
 40
4.0
 10
930.9397250817773
 20
-308.8457974178851
 10
930.9397250817773
 20
-311.5243767664506
 10
928.7683061188528
 20
-313.6957943615563
 10
926.0897250829904
 20
-313.6957943615563
 10
923.4111440471324
 20
-313.6957943615563
 10
921.2397250842042
 20
-311.5243767664506
 10
921.2397250842042
 20
-308.8457974178851
 10
921.2397250842042
 20
-306.1672180693183
 10
923.4111440471324
 20
-303.9958004742139
 10
926.0897250829904
 20
-303.9958004742139
 10
928.7683061188528
 20
-303.9958004742139
 10
930.9397250817773
 20
-306.1672180693183
 10
930.9397250817773
 20
-308.8457974178851
 97
        0
 97
        0
 75
     2
 76
     1
 98
        0
  0
SPLINE
  5
AE
330
1F
100
AcDbEntity
  8
Calque 1
 62
   250
420
  2565157
370
    35
100
AcDbSpline
210
0.0
220
0.0
230
1.0
 70
    11
 71
     3
 72
    17
 73
    13
 74
     0
 42
0.0000000001
 43
0.0000000001
 12
1.0
 22
0.0
 32
0.0
 13
1.0
 23
0.0
 33
0.0
 40
0.0
 40
0.0
 40
0.0
 40
0.0
 40
1.0
 40
1.0
 40
1.0
 40
2.0
 40
2.0
 40
2.0
 40
3.0
 40
3.0
 40
3.0
 40
4.0
 40
4.0
 40
4.0
 40
4.0
 10
940.4282984484369
 20
-408.8457973928857
 30
0.0
 10
940.4282984484369
 20
-411.52437674145
 30
0.0
 10
938.2568794855092
 20
-413.6957943365563
 30
0.0
 10
935.5782984496474
 20
-413.6957943365563
 30
0.0
 10
932.8997174137888
 20
-413.6957943365563
 30
0.0
 10
930.7282984508605
 20
-411.52437674145
 30
0.0
 10
930.7282984508605
 20
-408.8457973928857
 30
0.0
 10
930.7282984508605
 20
-406.1672180443177
 30
0.0
 10
932.8997174137888
 20
-403.9958004492145
 30
0.0
 10
935.5782984496474
 20
-403.9958004492145
 30
0.0
 10
938.2568794855092
 20
-403.9958004492145
 30
0.0
 10
940.4282984484369
 20
-406.1672180443177
 30
0.0
 10
940.4282984484369
 20
-408.8457973928857
 30
0.0
  0
HATCH
  5
AF
330
1F
100
AcDbEntity
  8
Calque 1
 62
     7
420
 16711679
100
AcDbHatch
 10
0.0
 20
0.0
 30
0.0
210
0.0
220
0.0
230
1.0
  2
SOLID
 70
     1
 71
     0
 91
        1
 92
        1
 93
        1
 72
     4
 94
        3
 73
     0
 74
     1
 95
       17
 96
       13
 40
0.0
 40
0.0
 40
0.0
 40
0.0
 40
1.0
 40
1.0
 40
1.0
 40
2.0
 40
2.0
 40
2.0
 40
3.0
 40
3.0
 40
3.0
 40
4.0
 40
4.0
 40
4.0
 40
4.0
 10
940.4282984484369
 20
-408.8457973928857
 10
940.4282984484369
 20
-411.52437674145
 10
938.2568794855092
 20
-413.6957943365563
 10
935.5782984496474
 20
-413.6957943365563
 10
932.8997174137888
 20
-413.6957943365563
 10
930.7282984508605
 20
-411.52437674145
 10
930.7282984508605
 20
-408.8457973928857
 10
930.7282984508605
 20
-406.1672180443177
 10
932.8997174137888
 20
-403.9958004492145
 10
935.5782984496474
 20
-403.9958004492145
 10
938.2568794855092
 20
-403.9958004492145
 10
940.4282984484369
 20
-406.1672180443177
 10
940.4282984484369
 20
-408.8457973928857
 97
        0
 97
        0
 75
     2
 76
     1
 98
        0
  0
SPLINE
  5
B0
330
1F
100
AcDbEntity
  8
Calque 1
 62
   250
420
  2565157
370
    35
100
AcDbSpline
210
0.0
220
0.0
230
1.0
 70
    11
 71
     3
 72
    17
 73
    13
 74
     0
 42
0.0000000001
 43
0.0000000001
 12
1.0
 22
0.0
 32
0.0
 13
1.0
 23
0.0
 33
0.0
 40
0.0
 40
0.0
 40
0.0
 40
0.0
 40
1.0
 40
1.0
 40
1.0
 40
2.0
 40
2.0
 40
2.0
 40
3.0
 40
3.0
 40
3.0
 40
4.0
 40
4.0
 40
4.0
 40
4.0
 10
920.9397250842783
 20
-495.2524821555279
 30
0.0
 10
920.9397250842783
 20
-497.9310615040927
 30
0.0
 10
918.7683061213538
 20
-500.1024790991991
 30
0.0
 10
916.0897250854921
 20
-500.1024790991991
 30
0.0
 10
913.4111440496303
 20
-500.1024790991991
 30
0.0
 10
911.2397250867051
 20
-497.9310615040927
 30
0.0
 10
911.2397250867051
 20
-495.2524821555279
 30
0.0
 10
911.2397250867051
 20
-492.5739028069598
 30
0.0
 10
913.4111440496303
 20
-490.4024852118573
 30
0.0
 10
916.0897250854921
 20
-490.4024852118573
 30
0.0
 10
918.7683061213538
 20
-490.4024852118573
 30
0.0
 10
920.9397250842783
 20
-492.5739028069598
 30
0.0
 10
920.9397250842783
 20
-495.2524821555279
 30
0.0
  0
HATCH
  5
B1
330
1F
100
AcDbEntity
  8
Calque 1
 62
     7
420
 16711679
100
AcDbHatch
 10
0.0
 20
0.0
 30
0.0
210
0.0
220
0.0
230
1.0
  2
SOLID
 70
     1
 71
     0
 91
        1
 92
        1
 93
        1
 72
     4
 94
        3
 73
     0
 74
     1
 95
       17
 96
       13
 40
0.0
 40
0.0
 40
0.0
 40
0.0
 40
1.0
 40
1.0
 40
1.0
 40
2.0
 40
2.0
 40
2.0
 40
3.0
 40
3.0
 40
3.0
 40
4.0
 40
4.0
 40
4.0
 40
4.0
 10
920.9397250842783
 20
-495.2524821555279
 10
920.9397250842783
 20
-497.9310615040927
 10
918.7683061213538
 20
-500.1024790991991
 10
916.0897250854921
 20
-500.1024790991991
 10
913.4111440496303
 20
-500.1024790991991
 10
911.2397250867051
 20
-497.9310615040927
 10
911.2397250867051
 20
-495.2524821555279
 10
911.2397250867051
 20
-492.5739028069598
 10
913.4111440496303
 20
-490.4024852118573
 10
916.0897250854921
 20
-490.4024852118573
 10
918.7683061213538
 20
-490.4024852118573
 10
920.9397250842783
 20
-492.5739028069598
 10
920.9397250842783
 20
-495.2524821555279
 97
        0
 97
        0
 75
     2
 76
     1
 98
        0
  0
SPLINE
  5
B2
330
1F
100
AcDbEntity
  8
Calque 1
 62
   250
420
  2565157
370
    35
100
AcDbSpline
210
0.0
220
0.0
230
1.0
 70
    11
 71
     3
 72
    17
 73
    13
 74
     0
 42
0.0000000001
 43
0.0000000001
 12
1.0
 22
0.0
 32
0.0
 13
1.0
 23
0.0
 33
0.0
 40
0.0
 40
0.0
 40
0.0
 40
0.0
 40
1.0
 40
1.0
 40
1.0
 40
2.0
 40
2.0
 40
2.0
 40
3.0
 40
3.0
 40
3.0
 40
4.0
 40
4.0
 40
4.0
 40
4.0
 10
855.6827636082822
 20
-440.2524821692795
 30
0.0
 10
855.6827636082822
 20
-442.9310615178437
 30
0.0
 10
853.5113446453539
 20
-445.10247911295
 30
0.0
 10
850.8327636094921
 20
-445.10247911295
 30
0.0
 10
848.1541825736335
 20
-445.10247911295
 30
0.0
 10
845.9827636107052
 20
-442.9310615178437
 30
0.0
 10
845.9827636107052
 20
-440.2524821692795
 30
0.0
 10
845.9827636107052
 20
-437.5739028207114
 30
0.0
 10
848.1541825736335
 20
-435.4024852256082
 30
0.0
 10
850.8327636094921
 20
-435.4024852256082
 30
0.0
 10
853.5113446453539
 20
-435.4024852256082
 30
0.0
 10
855.6827636082822
 20
-437.5739028207114
 30
0.0
 10
855.6827636082822
 20
-440.2524821692795
 30
0.0
  0
HATCH
  5
B3
330
1F
100
AcDbEntity
  8
Calque 1
 62
     7
420
 16711679
100
AcDbHatch
 10
0.0
 20
0.0
 30
0.0
210
0.0
220
0.0
230
1.0
  2
SOLID
 70
     1
 71
     0
 91
        1
 92
        1
 93
        1
 72
     4
 94
        3
 73
     0
 74
     1
 95
       17
 96
       13
 40
0.0
 40
0.0
 40
0.0
 40
0.0
 40
1.0
 40
1.0
 40
1.0
 40
2.0
 40
2.0
 40
2.0
 40
3.0
 40
3.0
 40
3.0
 40
4.0
 40
4.0
 40
4.0
 40
4.0
 10
855.6827636082822
 20
-440.2524821692795
 10
855.6827636082822
 20
-442.9310615178437
 10
853.5113446453539
 20
-445.10247911295
 10
850.8327636094921
 20
-445.10247911295
 10
848.1541825736335
 20
-445.10247911295
 10
845.9827636107052
 20
-442.9310615178437
 10
845.9827636107052
 20
-440.2524821692795
 10
845.9827636107052
 20
-437.5739028207114
 10
848.1541825736335
 20
-435.4024852256082
 10
850.8327636094921
 20
-435.4024852256082
 10
853.5113446453539
 20
-435.4024852256082
 10
855.6827636082822
 20
-437.5739028207114
 10
855.6827636082822
 20
-440.2524821692795
 97
        0
 97
        0
 75
     2
 76
     1
 98
        0
  0
SPLINE
  5
B4
330
1F
100
AcDbEntity
  8
Calque 1
 62
   250
420
  2565157
370
    35
100
AcDbSpline
210
0.0
220
0.0
230
1.0
 70
    11
 71
     3
 72
    17
 73
    13
 74
     0
 42
0.0000000001
 43
0.0000000001
 12
1.0
 22
0.0
 32
0.0
 13
1.0
 23
0.0
 33
0.0
 40
0.0
 40
0.0
 40
0.0
 40
0.0
 40
1.0
 40
1.0
 40
1.0
 40
2.0
 40
2.0
 40
2.0
 40
3.0
 40
3.0
 40
3.0
 40
4.0
 40
4.0
 40
4.0
 40
4.0
 10
855.6827636082822
 20
-383.3221645906135
 30
0.0
 10
855.6827636082822
 20
-386.0007439391816
 30
0.0
 10
853.5113446453539
 20
-388.1721615342844
 30
0.0
 10
850.8327636094921
 20
-388.1721615342844
 30
0.0
 10
848.1541825736335
 20
-388.1721615342844
 30
0.0
 10
845.9827636107052
 20
-386.0007439391816
 30
0.0
 10
845.9827636107052
 20
-383.3221645906135
 30
0.0
 10
845.9827636107052
 20
-380.6435852420489
 30
0.0
 10
848.1541825736335
 20
-378.4721676469426
 30
0.0
 10
850.8327636094921
 20
-378.4721676469426
 30
0.0
 10
853.5113446453539
 20
-378.4721676469426
 30
0.0
 10
855.6827636082822
 20
-380.6435852420489
 30
0.0
 10
855.6827636082822
 20
-383.3221645906135
 30
0.0
  0
HATCH
  5
B5
330
1F
100
AcDbEntity
  8
Calque 1
 62
     7
420
 16711679
100
AcDbHatch
 10
0.0
 20
0.0
 30
0.0
210
0.0
220
0.0
230
1.0
  2
SOLID
 70
     1
 71
     0
 91
        1
 92
        1
 93
        1
 72
     4
 94
        3
 73
     0
 74
     1
 95
       17
 96
       13
 40
0.0
 40
0.0
 40
0.0
 40
0.0
 40
1.0
 40
1.0
 40
1.0
 40
2.0
 40
2.0
 40
2.0
 40
3.0
 40
3.0
 40
3.0
 40
4.0
 40
4.0
 40
4.0
 40
4.0
 10
855.6827636082822
 20
-383.3221645906135
 10
855.6827636082822
 20
-386.0007439391816
 10
853.5113446453539
 20
-388.1721615342844
 10
850.8327636094921
 20
-388.1721615342844
 10
848.1541825736335
 20
-388.1721615342844
 10
845.9827636107052
 20
-386.0007439391816
 10
845.9827636107052
 20
-383.3221645906135
 10
845.9827636107052
 20
-380.6435852420489
 10
848.1541825736335
 20
-378.4721676469426
 10
850.8327636094921
 20
-378.4721676469426
 10
853.5113446453539
 20
-378.4721676469426
 10
855.6827636082822
 20
-380.6435852420489
 10
855.6827636082822
 20
-383.3221645906135
 97
        0
 97
        0
 75
     2
 76
     1
 98
        0
  0
ENDSEC
  0
SECTION
  2
OBJECTS
  0
DICTIONARY
  5
C
330
0
100
AcDbDictionary
281
     1
  3
ACAD_GROUP
350
D
  3
ACAD_LAYOUT
350
1A
  3
ACAD_MATERIAL
350
3B
  3
ACAD_MLEADERSTYLE
350
B7
  3
ACAD_MLINESTYLE
350
17
  3
ACAD_PLOTSETTINGS
350
19
  3
ACAD_PLOTSTYLENAME
350
E
  3
ACAD_TABLESTYLE
350
B6
  3
ACAD_VISUALSTYLE
350
2A
  0
SUN
  5
3F
330
29
100
AcDbSun
 90
        1
290
     0
 63
     7
421
 16777215
 40
1.0
291
     1
 91
  2455826
 92
 54000000
292
     0
 70
     2
 71
   256
280
     1
  0
DICTIONARY
  5
D
102
{ACAD_REACTORS
330
C
102
}
330
C
100
AcDbDictionary
281
     1
  0
DICTIONARY
  5
1A
102
{ACAD_REACTORS
330
C
102
}
330
C
100
AcDbDictionary
281
     1
  3
Layout1
350
1E
  3
Layout2
350
26
  3
Model
350
22
  0
DICTIONARY
  5
3B
102
{ACAD_REACTORS
330
C
102
}
330
C
100
AcDbDictionary
281
     1
  3
ByBlock
350
3D
  3
ByLayer
350
3C
  3
Global
350
3E
  0
DICTIONARY
  5
B7
102
{ACAD_REACTORS
330
C
102
}
330
C
100
AcDbDictionary
281
     1
  0
DICTIONARY
  5
17
102
{ACAD_REACTORS
330
C
102
}
330
C
100
AcDbDictionary
281
     1
  3
Standard
350
18
  0
DICTIONARY
  5
19
102
{ACAD_REACTORS
330
C
102
}
330
C
100
AcDbDictionary
281
     1
  0
ACDBDICTIONARYWDFLT
  5
E
102
{ACAD_REACTORS
330
C
102
}
330
C
100
AcDbDictionary
281
     1
  3
Normal
350
F
100
AcDbDictionaryWithDefault
340
F
  0
DICTIONARY
  5
B6
102
{ACAD_REACTORS
330
C
102
}
330
C
100
AcDbDictionary
281
     1
  0
DICTIONARY
  5
2A
102
{ACAD_REACTORS
330
C
102
}
330
C
100
AcDbDictionary
281
     1
  3
2dWireframe
350
2F
  3
3D Hidden
350
31
  3
3dWireframe
350
30
  3
Basic
350
32
  3
Brighten
350
36
  3
ColorChange
350
3A
  3
Conceptual
350
34
  3
Dim
350
35
  3
Facepattern
350
39
  3
Flat
350
2B
  3
FlatWithEdges
350
2C
  3
Gouraud
350
2D
  3
GouraudWithEdges
350
2E
  3
Linepattern
350
38
  3
Realistic
350
33
  3
Thicken
350
37
  0
LAYOUT
  5
1E
102
{ACAD_REACTORS
330
1A
102
}
330
1A
100
AcDbPlotSettings
  1

  2
none_device
  4

  6

 40
0.0
 41
0.0
 42
0.0
 43
0.0
 44
0.0
 45
0.0
 46
0.0
 47
0.0
 48
0.0
 49
0.0
140
0.0
141
0.0
142
1.0
143
1.0
 70
   688
 72
     0
 73
     0
 74
     5
  7

 75
    16
 76
     0
 77
     2
 78
   300
147
1.0
148
0.0
149
0.0
100
AcDbLayout
  1
Layout1
 70
     1
 71
     1
 10
0.0
 20
0.0
 11
12.0
 21
9.0
 12
0.0
 22
0.0
 32
0.0
 14
1.000000000000000E+20
 24
1.000000000000000E+20
 34
1.000000000000000E+20
 15
-1.000000000000000E+20
 25
-1.000000000000000E+20
 35
-1.000000000000000E+20
146
0.0
 13
0.0
 23
0.0
 33
0.0
 16
1.0
 26
0.0
 36
0.0
 17
0.0
 27
1.0
 37
0.0
 76
     0
330
1B
  0
LAYOUT
  5
26
102
{ACAD_REACTORS
330
1A
102
}
330
1A
100
AcDbPlotSettings
  1

  2
none_device
  4

  6

 40
0.0
 41
0.0
 42
0.0
 43
0.0
 44
0.0
 45
0.0
 46
0.0
 47
0.0
 48
0.0
 49
0.0
140
0.0
141
0.0
142
1.0
143
1.0
 70
   688
 72
     0
 73
     0
 74
     5
  7

 75
    16
 76
     0
 77
     2
 78
   300
147
1.0
148
0.0
149
0.0
100
AcDbLayout
  1
Layout2
 70
     1
 71
     2
 10
0.0
 20
0.0
 11
0.0
 21
0.0
 12
0.0
 22
0.0
 32
0.0
 14
0.0
 24
0.0
 34
0.0
 15
0.0
 25
0.0
 35
0.0
146
0.0
 13
0.0
 23
0.0
 33
0.0
 16
1.0
 26
0.0
 36
0.0
 17
0.0
 27
1.0
 37
0.0
 76
     0
330
23
  0
LAYOUT
  5
22
102
{ACAD_REACTORS
330
1A
102
}
330
1A
100
AcDbPlotSettings
  1

  2
none_device
  4

  6

 40
0.0
 41
0.0
 42
0.0
 43
0.0
 44
0.0
 45
0.0
 46
0.0
 47
0.0
 48
0.0
 49
0.0
140
0.0
141
0.0
142
1.0
143
1.0
 70
  1712
 72
     0
 73
     0
 74
     0
  7

 75
     0
 76
     0
 77
     2
 78
   300
147
1.0
148
0.0
149
0.0
100
AcDbLayout
  1
Model
 70
     1
 71
     0
 10
0.0
 20
0.0
 11
12.0
 21
9.0
 12
0.0
 22
0.0
 32
0.0
 14
1.000000000000000E+20
 24
1.000000000000000E+20
 34
1.000000000000000E+20
 15
-1.000000000000000E+20
 25
-1.000000000000000E+20
 35
-1.000000000000000E+20
146
0.0
 13
0.0
 23
0.0
 33
0.0
 16
1.0
 26
0.0
 36
0.0
 17
0.0
 27
1.0
 37
0.0
 76
     0
330
1F
331
29
  0
MATERIAL
  5
3D
102
{ACAD_REACTORS
330
3B
102
}
330
3B
100
AcDbMaterial
  1
ByBlock
 72
     1
 94
      127
  0
MATERIAL
  5
3C
102
{ACAD_REACTORS
330
3B
102
}
330
3B
100
AcDbMaterial
  1
ByLayer
 72
     1
 94
      127
  0
MATERIAL
  5
3E
102
{ACAD_REACTORS
330
3B
102
}
330
3B
100
AcDbMaterial
  1
Global
 72
     1
 94
      127
  0
MLINESTYLE
  5
18
102
{ACAD_REACTORS
330
17
102
}
330
17
100
AcDbMlineStyle
  2
Standard
 70
     0
  3

 62
   256
 51
90.0
 52
90.0
 71
     2
 49
0.5
 62
   256
  6
BYLAYER
 49
-0.5
 62
   256
  6
BYLAYER
  0
ACDBPLACEHOLDER
  5
F
102
{ACAD_REACTORS
330
E
102
}
330
E
  0
VISUALSTYLE
  5
2F
102
{ACAD_REACTORS
330
2A
102
}
330
2A
100
AcDbVisualStyle
  2
2dWireframe
 70
     4
177
     2
291
     0
 71
     0
176
     1
 72
     2
176
     1
 73
     0
176
     1
 90
        0
176
     1
 40
-0.6
176
     1
 41
-30.0
176
     1
 62
     5
 63
     7
421
 16777215
176
     1
 74
     1
176
     1
 91
        4
176
     1
 64
     7
176
     1
 65
   257
176
     1
 75
     1
176
     1
175
     1
176
     1
 42
1.0
176
     1
 92
        0
176
     1
 66
   257
176
     1
 43
1.0
176
     1
 76
     1
176
     1
 77
     6
176
     1
 78
     2
176
     1
 67
     7
176
     1
 79
     5
176
     1
170
     0
176
     1
171
     0
176
     1
290
     0
176
     1
 93
        1
176
     1
 44
0.0
176
     1
173
     0
176
     1
  0
VISUALSTYLE
  5
31
102
{ACAD_REACTORS
330
2A
102
}
330
2A
100
AcDbVisualStyle
  2
3D Hidden
 70
     6
177
     2
291
     0
 71
     1
176
     1
 72
     2
176
     1
 73
     2
176
     1
 90
        0
176
     1
 40
-0.6
176
     1
 41
-30.0
176
     1
 62
     5
 63
     7
421
 16777215
176
     1
 74
     2
176
     1
 91
        2
176
     1
 64
     7
176
     1
 65
   257
176
     1
 75
     2
176
     1
175
     1
176
     1
 42
40.0
176
     1
 92
        0
176
     1
 66
   257
176
     1
 43
1.0
176
     1
 76
     1
176
     1
 77
     6
176
     1
 78
     2
176
     1
 67
     7
176
     1
 79
     3
176
     1
170
     0
176
     1
171
     0
176
     1
290
     0
176
     1
 93
        1
176
     1
 44
0.0
176
     1
173
     0
176
     1
  0
VISUALSTYLE
  5
30
102
{ACAD_REACTORS
330
2A
102
}
330
2A
100
AcDbVisualStyle
  2
3dWireframe
 70
     5
177
     2
291
     0
 71
     0
176
     1
 72
     2
176
     1
 73
     0
176
     1
 90
        0
176
     1
 40
-0.6
176
     1
 41
-30.0
176
     1
 62
     5
 63
     7
421
 16777215
176
     1
 74
     1
176
     1
 91
        4
176
     1
 64
     7
176
     1
 65
   257
176
     1
 75
     1
176
     1
175
     1
176
     1
 42
1.0
176
     1
 92
        0
176
     1
 66
   257
176
     1
 43
1.0
176
     1
 76
     1
176
     1
 77
     6
176
     1
 78
     2
176
     1
 67
     7
176
     1
 79
     5
176
     1
170
     0
176
     1
171
     0
176
     1
290
     0
176
     1
 93
        1
176
     1
 44
0.0
176
     1
173
     0
176
     1
  0
VISUALSTYLE
  5
32
102
{ACAD_REACTORS
330
2A
102
}
330
2A
100
AcDbVisualStyle
  2
Basic
 70
     7
177
     2
291
     1
 71
     1
176
     1
 72
     0
176
     1
 73
     1
176
     1
 90
        0
176
     1
 40
-0.6
176
     1
 41
-30.0
176
     1
 62
     5
 63
     7
421
 16777215
176
     1
 74
     0
176
     1
 91
        4
176
     1
 64
     7
176
     1
 65
   257
176
     1
 75
     1
176
     1
175
     1
176
     1
 42
1.0
176
     1
 92
        8
176
     1
 66
     7
176
     1
 43
1.0
176
     1
 76
     1
176
     1
 77
     6
176
     1
 78
     2
176
     1
 67
     7
176
     1
 79
     5
176
     1
170
     0
176
     1
171
     0
176
     1
290
     0
176
     1
 93
        1
176
     1
 44
0.0
176
     1
173
     0
176
     1
  0
VISUALSTYLE
  5
36
102
{ACAD_REACTORS
330
2A
102
}
330
2A
100
AcDbVisualStyle
  2
Brighten
 70
    12
177
     2
291
     1
 71
     2
176
     1
 72
     2
176
     1
 73
     0
176
     1
 90
        0
176
     1
 40
-0.6
176
     1
 41
-30.0
176
     1
 62
     5
 63
     7
421
 16777215
176
     1
 74
     1
176
     1
 91
        4
176
     1
 64
     7
176
     1
 65
   257
176
     1
 75
     1
176
     1
175
     1
176
     1
 42
1.0
176
     1
 92
        8
176
     1
 66
     7
176
     1
 43
1.0
176
     1
 76
     1
176
     1
 77
     6
176
     1
 78
     2
176
     1
 67
     7
176
     1
 79
     5
176
     1
170
     0
176
     1
171
     0
176
     1
290
     0
176
     1
 93
        1
176
     1
 44
50.0
176
     1
173
     0
176
     1
  0
VISUALSTYLE
  5
3A
102
{ACAD_REACTORS
330
2A
102
}
330
2A
100
AcDbVisualStyle
  2
ColorChange
 70
    16
177
     2
291
     1
 71
     2
176
     1
 72
     2
176
     1
 73
     3
176
     1
 90
        0
176
     1
 40
-0.6
176
     1
 41
-30.0
176
     1
 62
     5
 63
     8
421
  8421504
176
     1
 74
     1
176
     1
 91
        4
176
     1
 64
     7
176
     1
 65
   257
176
     1
 75
     1
176
     1
175
     1
176
     1
 42
1.0
176
     1
 92
        8
176
     1
 66
     8
424
  8421504
176
     1
 43
1.0
176
     1
 76
     1
176
     1
 77
     6
176
     1
 78
     2
176
     1
 67
     7
176
     1
 79
     5
176
     1
170
     0
176
     1
171
     0
176
     1
290
     0
176
     1
 93
        1
176
     1
 44
0.0
176
     1
173
     0
176
     1
  0
VISUALSTYLE
  5
34
102
{ACAD_REACTORS
330
2A
102
}
330
2A
100
AcDbVisualStyle
  2
Conceptual
 70
     9
177
     2
291
     0
 71
     3
176
     1
 72
     2
176
     1
 73
     0
176
     1
 90
        0
176
     1
 40
-0.6
176
     1
 41
-30.0
176
     1
 62
     5
 63
     7
421
 16777215
176
     1
 74
     2
176
     1
 91
        2
176
     1
 64
     7
176
     1
 65
   257
176
     1
 75
     1
176
     1
175
     1
176
     1
 42
40.0
176
     1
 92
        8
176
     1
 66
     7
176
     1
 43
1.0
176
     1
 76
     1
176
     1
 77
     6
176
     1
 78
     2
176
     1
 67
     7
176
     1
 79
     3
176
     1
170
     0
176
     1
171
     0
176
     1
290
     0
176
     1
 93
        1
176
     1
 44
0.0
176
     1
173
     0
176
     1
  0
VISUALSTYLE
  5
35
102
{ACAD_REACTORS
330
2A
102
}
330
2A
100
AcDbVisualStyle
  2
Dim
 70
    11
177
     2
291
     1
 71
     2
176
     1
 72
     2
176
     1
 73
     0
176
     1
 90
        0
176
     1
 40
-0.6
176
     1
 41
-30.0
176
     1
 62
     5
 63
     7
421
 16777215
176
     1
 74
     1
176
     1
 91
        4
176
     1
 64
     7
176
     1
 65
   257
176
     1
 75
     1
176
     1
175
     1
176
     1
 42
1.0
176
     1
 92
        8
176
     1
 66
     7
176
     1
 43
1.0
176
     1
 76
     1
176
     1
 77
     6
176
     1
 78
     2
176
     1
 67
     7
176
     1
 79
     5
176
     1
170
     0
176
     1
171
     0
176
     1
290
     0
176
     1
 93
        1
176
     1
 44
-50.0
176
     1
173
     0
176
     1
  0
VISUALSTYLE
  5
39
102
{ACAD_REACTORS
330
2A
102
}
330
2A
100
AcDbVisualStyle
  2
Facepattern
 70
    15
177
     2
291
     1
 71
     2
176
     1
 72
     2
176
     1
 73
     0
176
     1
 90
        0
176
     1
 40
-0.6
176
     1
 41
-30.0
176
     1
 62
     5
 63
     7
421
 16777215
176
     1
 74
     1
176
     1
 91
        4
176
     1
 64
     7
176
     1
 65
   257
176
     1
 75
     1
176
     1
175
     1
176
     1
 42
1.0
176
     1
 92
        8
176
     1
 66
     7
176
     1
 43
1.0
176
     1
 76
     1
176
     1
 77
     6
176
     1
 78
     2
176
     1
 67
     7
176
     1
 79
     5
176
     1
170
     0
176
     1
171
     0
176
     1
290
     0
176
     1
 93
        1
176
     1
 44
0.0
176
     1
173
     0
176
     1
  0
VISUALSTYLE
  5
2B
102
{ACAD_REACTORS
330
2A
102
}
330
2A
100
AcDbVisualStyle
  2
Flat
 70
     0
177
     2
291
     1
 71
     2
176
     1
 72
     1
176
     1
 73
     1
176
     1
 90
        2
176
     1
 40
-0.6
176
     1
 41
30.0
176
     1
 62
     5
 63
     7
421
 16777215
176
     1
 74
     0
176
     1
 91
        4
176
     1
 64
     7
176
     1
 65
   257
176
     1
 75
     1
176
     1
175
     1
176
     1
 42
1.0
176
     1
 92
        8
176
     1
 66
     7
176
     1
 43
1.0
176
     1
 76
     1
176
     1
 77
     6
176
     1
 78
     2
176
     1
 67
     7
176
     1
 79
     5
176
     1
170
     0
176
     1
171
     0
176
     1
290
     0
176
     1
 93
       13
176
     1
 44
0.0
176
     1
173
     0
176
     1
  0
VISUALSTYLE
  5
2C
102
{ACAD_REACTORS
330
2A
102
}
330
2A
100
AcDbVisualStyle
  2
FlatWithEdges
 70
     1
177
     2
291
     1
 71
     2
176
     1
 72
     1
176
     1
 73
     1
176
     1
 90
        2
176
     1
 40
-0.6
176
     1
 41
30.0
176
     1
 62
     5
 63
     7
421
 16777215
176
     1
 74
     1
176
     1
 91
        4
176
     1
 64
     7
176
     1
 65
   257
176
     1
 75
     1
176
     1
175
     1
176
     1
 42
1.0
176
     1
 92
        0
176
     1
 66
   257
176
     1
 43
1.0
176
     1
 76
     1
176
     1
 77
     6
176
     1
 78
     2
176
     1
 67
     7
176
     1
 79
     5
176
     1
170
     0
176
     1
171
     0
176
     1
290
     0
176
     1
 93
       13
176
     1
 44
0.0
176
     1
173
     0
176
     1
  0
VISUALSTYLE
  5
2D
102
{ACAD_REACTORS
330
2A
102
}
330
2A
100
AcDbVisualStyle
  2
Gouraud
 70
     2
177
     2
291
     1
 71
     2
176
     1
 72
     2
176
     1
 73
     1
176
     1
 90
        2
176
     1
 40
-0.6
176
     1
 41
30.0
176
     1
 62
     5
 63
     7
421
 16777215
176
     1
 74
     0
176
     1
 91
        4
176
     1
 64
     7
176
     1
 65
   257
176
     1
 75
     1
176
     1
175
     1
176
     1
 42
1.0
176
     1
 92
        0
176
     1
 66
     7
176
     1
 43
1.0
176
     1
 76
     1
176
     1
 77
     6
176
     1
 78
     2
176
     1
 67
     7
176
     1
 79
     5
176
     1
170
     0
176
     1
171
     0
176
     1
290
     0
176
     1
 93
       13
176
     1
 44
0.0
176
     1
173
     0
176
     1
  0
VISUALSTYLE
  5
2E
102
{ACAD_REACTORS
330
2A
102
}
330
2A
100
AcDbVisualStyle
  2
GouraudWithEdges
 70
     3
177
     2
291
     1
 71
     2
176
     1
 72
     2
176
     1
 73
     1
176
     1
 90
        2
176
     1
 40
-0.6
176
     1
 41
30.0
176
     1
 62
     5
 63
     7
421
 16777215
176
     1
 74
     1
176
     1
 91
        4
176
     1
 64
     7
176
     1
 65
   257
176
     1
 75
     1
176
     1
175
     1
176
     1
 42
1.0
176
     1
 92
        0
176
     1
 66
   257
176
     1
 43
1.0
176
     1
 76
     1
176
     1
 77
     6
176
     1
 78
     2
176
     1
 67
     7
176
     1
 79
     5
176
     1
170
     0
176
     1
171
     0
176
     1
290
     0
176
     1
 93
       13
176
     1
 44
0.0
176
     1
173
     0
176
     1
  0
VISUALSTYLE
  5
38
102
{ACAD_REACTORS
330
2A
102
}
330
2A
100
AcDbVisualStyle
  2
Linepattern
 70
    14
177
     2
291
     1
 71
     2
176
     1
 72
     2
176
     1
 73
     0
176
     1
 90
        0
176
     1
 40
-0.6
176
     1
 41
-30.0
176
     1
 62
     5
 63
     7
421
 16777215
176
     1
 74
     1
176
     1
 91
        4
176
     1
 64
     7
176
     1
 65
   257
176
     1
 75
     7
176
     1
175
     7
176
     1
 42
1.0
176
     1
 92
        8
176
     1
 66
     7
176
     1
 43
1.0
176
     1
 76
     1
176
     1
 77
     6
176
     1
 78
     2
176
     1
 67
     7
176
     1
 79
     5
176
     1
170
     0
176
     1
171
     0
176
     1
290
     0
176
     1
 93
        1
176
     1
 44
0.0
176
     1
173
     0
176
     1
  0
VISUALSTYLE
  5
33
102
{ACAD_REACTORS
330
2A
102
}
330
2A
100
AcDbVisualStyle
  2
Realistic
 70
     8
177
     2
291
     0
 71
     2
176
     1
 72
     2
176
     1
 73
     0
176
     1
 90
        0
176
     1
 40
-0.6
176
     1
 41
-30.0
176
     1
 62
     5
 63
     7
421
 16777215
176
     1
 74
     1
176
     1
 91
        0
176
     1
 64
     7
176
     1
 65
   257
176
     1
 75
     1
176
     1
175
     1
176
     1
 42
1.0
176
     1
 92
        8
176
     1
 66
     8
424
  7895160
176
     1
 43
1.0
176
     1
 76
     1
176
     1
 77
     6
176
     1
 78
     2
176
     1
 67
     7
176
     1
 79
     5
176
     1
170
     0
176
     1
171
     0
176
     1
290
     0
176
     1
 93
       13
176
     1
 44
0.0
176
     1
173
     0
176
     1
  0
VISUALSTYLE
  5
37
102
{ACAD_REACTORS
330
2A
102
}
330
2A
100
AcDbVisualStyle
  2
Thicken
 70
    13
177
     2
291
     1
 71
     2
176
     1
 72
     2
176
     1
 73
     0
176
     1
 90
        0
176
     1
 40
-0.6
176
     1
 41
-30.0
176
     1
 62
     5
 63
     7
421
 16777215
176
     1
 74
     1
176
     1
 91
        4
176
     1
 64
     7
176
     1
 65
   257
176
     1
 75
     1
176
     1
175
     1
176
     1
 42
1.0
176
     1
 92
       12
176
     1
 66
     7
176
     1
 43
1.0
176
     1
 76
     1
176
     1
 77
     6
176
     1
 78
     2
176
     1
 67
     7
176
     1
 79
     5
176
     1
170
     0
176
     1
171
     0
176
     1
290
     0
176
     1
 93
        1
176
     1
 44
0.0
176
     1
173
     0
176
     1
  0
ENDSEC
  0
EOF
