  0
SECTION
  2
HEADER
  9
$ACADVER
  1
AC1015
  9
$ACADMAINTVER
 70
    20
  9
$DWGCODEPAGE
  3
ANSI_1252
  9
$INSBASE
 10
0.0
 20
0.0
 30
0.0
  9
$EXTMIN
 10
199.9146217037867
 20
-169.192444783543
 30
0.0
  9
$EXTMAX
 10
518.9475244225389
 20
50.08537829621431
 30
0.0
  9
$LIMMIN
 10
0.0
 20
0.0
  9
$LIMMAX
 10
420.0
 20
297.0
  9
$ORTHOMODE
 70
     1
  9
$REGENMODE
 70
     1
  9
$FILLMODE
 70
     1
  9
$QTEXTMODE
 70
     0
  9
$MIRRTEXT
 70
     0
  9
$LTSCALE
 40
1.0
  9
$ATTMODE
 70
     1
  9
$TEXTSIZE
 40
2.5
  9
$TRACEWID
 40
1.0
  9
$TEXTSTYLE
  7
Standard
  9
$CLAYER
  8
0
  9
$CELTYPE
  6
ByLayer
  9
$CECOLOR
 62
   256
  9
$CELTSCALE
 40
1.0
  9
$DISPSILH
 70
     0
  9
$DIMSCALE
 40
1.0
  9
$DIMASZ
 40
2.5
  9
$DIMEXO
 40
0.625
  9
$DIMDLI
 40
3.75
  9
$DIMRND
 40
0.0
  9
$DIMDLE
 40
0.0
  9
$DIMEXE
 40
1.25
  9
$DIMTP
 40
0.0
  9
$DIMTM
 40
0.0
  9
$DIMTXT
 40
2.5
  9
$DIMCEN
 40
2.5
  9
$DIMTSZ
 40
0.0
  9
$DIMTOL
 70
     0
  9
$DIMLIM
 70
     0
  9
$DIMTIH
 70
     0
  9
$DIMTOH
 70
     0
  9
$DIMSE1
 70
     0
  9
$DIMSE2
 70
     0
  9
$DIMTAD
 70
     1
  9
$DIMZIN
 70
     8
  9
$DIMBLK
  1

  9
$DIMASO
 70
     1
  9
$DIMSHO
 70
     1
  9
$DIMPOST
  1

  9
$DIMAPOST
  1

  9
$DIMALT
 70
     0
  9
$DIMALTD
 70
     3
  9
$DIMALTF
 40
0.03937007874016
  9
$DIMLFAC
 40
1.0
  9
$DIMTOFL
 70
     1
  9
$DIMTVP
 40
0.0
  9
$DIMTIX
 70
     0
  9
$DIMSOXD
 70
     0
  9
$DIMSAH
 70
     0
  9
$DIMBLK1
  1

  9
$DIMBLK2
  1

  9
$DIMSTYLE
  2
ISO-25
  9
$DIMCLRD
 70
     0
  9
$DIMCLRE
 70
     0
  9
$DIMCLRT
 70
     0
  9
$DIMTFAC
 40
1.0
  9
$DIMGAP
 40
0.625
  9
$DIMJUST
 70
     0
  9
$DIMSD1
 70
     0
  9
$DIMSD2
 70
     0
  9
$DIMTOLJ
 70
     0
  9
$DIMTZIN
 70
     8
  9
$DIMALTZ
 70
     0
  9
$DIMALTTZ
 70
     0
  9
$DIMUPT
 70
     0
  9
$DIMDEC
 70
     2
  9
$DIMTDEC
 70
     2
  9
$DIMALTU
 70
     2
  9
$DIMALTTD
 70
     3
  9
$DIMTXSTY
  7
Standard
  9
$DIMAUNIT
 70
     0
  9
$DIMADEC
 70
     0
  9
$DIMALTRND
 40
0.0
  9
$DIMAZIN
 70
     0
  9
$DIMDSEP
 70
    44
  9
$DIMATFIT
 70
     3
  9
$DIMFRAC
 70
     0
  9
$DIMLDRBLK
  1

  9
$DIMLUNIT
 70
     2
  9
$DIMLWD
 70
    -2
  9
$DIMLWE
 70
    -2
  9
$DIMTMOVE
 70
     0
  9
$LUNITS
 70
     2
  9
$LUPREC
 70
     4
  9
$SKETCHINC
 40
1.0
  9
$FILLETRAD
 40
1.0
  9
$AUNITS
 70
     0
  9
$AUPREC
 70
     0
  9
$MENU
  1
.
  9
$ELEVATION
 40
0.0
  9
$PELEVATION
 40
0.0
  9
$THICKNESS
 40
0.0
  9
$LIMCHECK
 70
     0
  9
$CHAMFERA
 40
0.0
  9
$CHAMFERB
 40
0.0
  9
$CHAMFERC
 40
0.0
  9
$CHAMFERD
 40
0.0
  9
$SKPOLY
 70
     0
  9
$TDCREATE
 40
2456331.675600220
  9
$TDUCREATE
 40
2456331.592266887
  9
$TDUPDATE
 40
2456393.492548820
  9
$TDUUPDATE
 40
2456393.409215486
  9
$TDINDWG
 40
0.0361402199
  9
$TDUSRTIMER
 40
0.0360666204
  9
$USRTIMER
 70
     1
  9
$ANGBASE
 50
0.0
  9
$ANGDIR
 70
     0
  9
$PDMODE
 70
     0
  9
$PDSIZE
 40
0.0
  9
$PLINEWID
 40
0.0
  9
$SPLFRAME
 70
     0
  9
$SPLINETYPE
 70
     6
  9
$SPLINESEGS
 70
     8
  9
$HANDSEED
  5
122B
  9
$SURFTAB1
 70
     6
  9
$SURFTAB2
 70
     6
  9
$SURFTYPE
 70
     6
  9
$SURFU
 70
     6
  9
$SURFV
 70
     6
  9
$UCSBASE
  2

  9
$UCSNAME
  2

  9
$UCSORG
 10
0.0
 20
0.0
 30
0.0
  9
$UCSXDIR
 10
1.0
 20
0.0
 30
0.0
  9
$UCSYDIR
 10
0.0
 20
1.0
 30
0.0
  9
$UCSORTHOREF
  2

  9
$UCSORTHOVIEW
 70
     0
  9
$UCSORGTOP
 10
0.0
 20
0.0
 30
0.0
  9
$UCSORGBOTTOM
 10
0.0
 20
0.0
 30
0.0
  9
$UCSORGLEFT
 10
0.0
 20
0.0
 30
0.0
  9
$UCSORGRIGHT
 10
0.0
 20
0.0
 30
0.0
  9
$UCSORGFRONT
 10
0.0
 20
0.0
 30
0.0
  9
$UCSORGBACK
 10
0.0
 20
0.0
 30
0.0
  9
$PUCSBASE
  2

  9
$PUCSNAME
  2

  9
$PUCSORG
 10
0.0
 20
0.0
 30
0.0
  9
$PUCSXDIR
 10
1.0
 20
0.0
 30
0.0
  9
$PUCSYDIR
 10
0.0
 20
1.0
 30
0.0
  9
$PUCSORTHOREF
  2

  9
$PUCSORTHOVIEW
 70
     0
  9
$PUCSORGTOP
 10
0.0
 20
0.0
 30
0.0
  9
$PUCSORGBOTTOM
 10
0.0
 20
0.0
 30
0.0
  9
$PUCSORGLEFT
 10
0.0
 20
0.0
 30
0.0
  9
$PUCSORGRIGHT
 10
0.0
 20
0.0
 30
0.0
  9
$PUCSORGFRONT
 10
0.0
 20
0.0
 30
0.0
  9
$PUCSORGBACK
 10
0.0
 20
0.0
 30
0.0
  9
$USERI1
 70
     0
  9
$USERI2
 70
     0
  9
$USERI3
 70
     0
  9
$USERI4
 70
     0
  9
$USERI5
 70
     0
  9
$USERR1
 40
0.0
  9
$USERR2
 40
0.0
  9
$USERR3
 40
0.0
  9
$USERR4
 40
0.0
  9
$USERR5
 40
0.0
  9
$WORLDVIEW
 70
     1
  9
$SHADEDGE
 70
     3
  9
$SHADEDIF
 70
    70
  9
$TILEMODE
 70
     1
  9
$MAXACTVP
 70
    64
  9
$PINSBASE
 10
0.0
 20
0.0
 30
0.0
  9
$PLIMCHECK
 70
     0
  9
$PEXTMIN
 10
1.000000000000000E+20
 20
1.000000000000000E+20
 30
1.000000000000000E+20
  9
$PEXTMAX
 10
-1.000000000000000E+20
 20
-1.000000000000000E+20
 30
-1.000000000000000E+20
  9
$PLIMMIN
 10
0.0
 20
0.0
  9
$PLIMMAX
 10
420.0
 20
297.0
  9
$UNITMODE
 70
     0
  9
$VISRETAIN
 70
     1
  9
$PLINEGEN
 70
     0
  9
$PSLTSCALE
 70
     1
  9
$TREEDEPTH
 70
  3020
  9
$CMLSTYLE
  2
Standard
  9
$CMLJUST
 70
     0
  9
$CMLSCALE
 40
20.0
  9
$PROXYGRAPHICS
 70
     1
  9
$MEASUREMENT
 70
     1
  9
$CELWEIGHT
370
    -1
  9
$ENDCAPS
280
     0
  9
$JOINSTYLE
280
     0
  9
$LWDISPLAY
290
     0
  9
$INSUNITS
 70
     4
  9
$HYPERLINKBASE
  1

  9
$STYLESHEET
  1

  9
$XEDIT
290
     1
  9
$CEPSNTYPE
380
     0
  9
$PSTYLEMODE
290
     1
  9
$FINGERPRINTGUID
  2
{C49C7A1D-9B7F-41CA-A0AF-ACAC71D83474}
  9
$VERSIONGUID
  2
{3608FF31-7846-4507-8E21-ED4ECB098910}
  9
$EXTNAMES
290
     1
  9
$PSVPSCALE
 40
0.0
  9
$OLESTARTUP
290
     0
  0
ENDSEC
  0
SECTION
  2
CLASSES
  0
CLASS
  1
ACDBDICTIONARYWDFLT
  2
AcDbDictionaryWithDefault
  3
ObjectDBX Classes
 90
        0
280
     0
281
     0
  0
CLASS
  1
TABLESTYLE
  2
AcDbTableStyle
  3
ObjectDBX Classes
 90
     2047
280
     0
281
     0
  0
CLASS
  1
SORTENTSTABLE
  2
AcDbSortentsTable
  3
ObjectDBX Classes
 90
        0
280
     0
281
     0
  0
CLASS
  1
DICTIONARYVAR
  2
AcDbDictionaryVar
  3
ObjectDBX Classes
 90
        0
280
     0
281
     0
  0
CLASS
  1
ACDBPLACEHOLDER
  2
AcDbPlaceHolder
  3
ObjectDBX Classes
 90
        0
280
     0
281
     0
  0
CLASS
  1
LAYOUT
  2
AcDbLayout
  3
ObjectDBX Classes
 90
        0
280
     0
281
     0
  0
ENDSEC
  0
SECTION
  2
TABLES
  0
TABLE
  2
VPORT
  5
8
330
0
100
AcDbSymbolTable
 70
     2
  0
VPORT
  5
1223
330
8
100
AcDbSymbolTableRecord
100
AcDbViewportTableRecord
  2
*Active
 70
     0
 10
0.0
 20
0.0
 11
1.0
 21
1.0
 12
359.4346630170881
 22
-59.56356641239199
 13
0.0
 23
0.0
 14
10.0
 24
10.0
 15
10.0
 25
10.0
 16
0.0
 26
0.0
 36
1.0
 17
0.0
 27
0.0
 37
0.0
 40
221.0377738493136
 41
1.64558629776021
 42
50.0
 43
0.0
 44
0.0
 50
0.0
 51
0.0
 71
     0
 72
  1000
 73
     1
 74
     3
 75
     0
 76
     0
 77
     0
 78
     0
281
     0
 65
     1
110
0.0
120
0.0
130
0.0
111
1.0
121
0.0
131
0.0
112
0.0
122
1.0
132
0.0
 79
     0
146
0.0
  0
ENDTAB
  0
TABLE
  2
LTYPE
  5
5
330
0
100
AcDbSymbolTable
 70
     1
  0
LTYPE
  5
14
330
5
100
AcDbSymbolTableRecord
100
AcDbLinetypeTableRecord
  2
ByBlock
 70
     0
  3

 72
    65
 73
     0
 40
0.0
  0
LTYPE
  5
15
330
5
100
AcDbSymbolTableRecord
100
AcDbLinetypeTableRecord
  2
ByLayer
 70
     0
  3

 72
    65
 73
     0
 40
0.0
  0
LTYPE
  5
16
330
5
100
AcDbSymbolTableRecord
100
AcDbLinetypeTableRecord
  2
Continuous
 70
     0
  3
Solid line
 72
    65
 73
     0
 40
0.0
  0
ENDTAB
  0
TABLE
  2
LAYER
  5
2
330
0
100
AcDbSymbolTable
 70
     1
  0
LAYER
  5
10
330
2
100
AcDbSymbolTableRecord
100
AcDbLayerTableRecord
  2
0
 70
     0
 62
     7
  6
Continuous
370
    -3
390
F
  0
ENDTAB
  0
TABLE
  2
STYLE
  5
3
330
0
100
AcDbSymbolTable
 70
     1
  0
STYLE
  5
11
330
3
100
AcDbSymbolTableRecord
100
AcDbTextStyleTableRecord
  2
Standard
 70
     0
 40
0.0
 41
1.0
 50
0.0
 71
     0
 42
2.5
  3
txt
  4

  0
ENDTAB
  0
TABLE
  2
VIEW
  5
6
330
0
100
AcDbSymbolTable
 70
     0
  0
ENDTAB
  0
TABLE
  2
UCS
  5
7
330
0
100
AcDbSymbolTable
 70
     0
  0
ENDTAB
  0
TABLE
  2
APPID
  5
9
330
0
100
AcDbSymbolTable
 70
     2
  0
APPID
  5
12
330
9
100
AcDbSymbolTableRecord
100
AcDbRegAppTableRecord
  2
ACAD
 70
     0
  0
APPID
  5
433
330
9
100
AcDbSymbolTableRecord
100
AcDbRegAppTableRecord
  2
ACAD_PSEXT
 70
     0
  0
ENDTAB
  0
TABLE
  2
DIMSTYLE
  5
A
330
0
100
AcDbSymbolTable
 70
     1
100
AcDbDimStyleTable
 71
     1
340
2B
  0
DIMSTYLE
105
2B
330
A
100
AcDbSymbolTableRecord
100
AcDbDimStyleTableRecord
  2
ISO-25
 70
     0
 41
2.5
 42
0.625
 43
3.75
 44
1.25
 73
     0
 74
     0
 77
     1
 78
     8
140
2.5
141
2.5
143
0.03937007874016
147
0.625
171
     3
172
     1
271
     2
272
     2
274
     3
278
    44
283
     0
284
     8
340
11
  0
ENDTAB
  0
TABLE
  2
BLOCK_RECORD
  5
1
330
0
100
AcDbSymbolTable
 70
     1
  0
BLOCK_RECORD
  5
23
102
{ACAD_XDICTIONARY
360
3C
102
}
330
1
100
AcDbSymbolTableRecord
100
AcDbBlockTableRecord
  2
*Model_Space
340
26
  0
BLOCK_RECORD
  5
1F
330
1
100
AcDbSymbolTableRecord
100
AcDbBlockTableRecord
  2
*Paper_Space
340
22
  0
BLOCK_RECORD
  5
27
330
1
100
AcDbSymbolTableRecord
100
AcDbBlockTableRecord
  2
*Paper_Space0
340
2A
  0
ENDTAB
  0
ENDSEC
  0
SECTION
  2
BLOCKS
  0
BLOCK
  5
24
330
23
100
AcDbEntity
  8
0
100
AcDbBlockBegin
  2
*Model_Space
 70
     0
 10
0.0
 20
0.0
 30
0.0
  3
*Model_Space
  1

  0
ENDBLK
  5
25
330
23
100
AcDbEntity
  8
0
100
AcDbBlockEnd
  0
BLOCK
  5
20
330
1F
100
AcDbEntity
 67
     1
  8
0
100
AcDbBlockBegin
  2
*Paper_Space
 70
     0
 10
0.0
 20
0.0
 30
0.0
  3
*Paper_Space
  1

  0
ENDBLK
  5
21
330
1F
100
AcDbEntity
 67
     1
  8
0
100
AcDbBlockEnd
  0
BLOCK
  5
28
330
27
100
AcDbEntity
  8
0
100
AcDbBlockBegin
  2
*Paper_Space0
 70
     0
 10
0.0
 20
0.0
 30
0.0
  3
*Paper_Space0
  1

  0
ENDBLK
  5
29
330
27
100
AcDbEntity
  8
0
100
AcDbBlockEnd
  0
ENDSEC
  0
SECTION
  2
ENTITIES
  0
LINE
  5
121
330
23
100
AcDbEntity
  8
0
100
AcDbLine
 10
247.9685656831891
 20
44.93006260226411
 30
0.0
 11
247.6526460369672
 21
48.94420230733967
 31
0.0
  0
LINE
  5
12D
330
23
100
AcDbEntity
  8
0
100
AcDbLine
 10
244.97781368199
 20
44.69468531507458
 30
0.0
 11
244.6618940357677
 21
48.70882502015594
 31
0.0
  0
LINE
  5
12E
330
23
100
AcDbEntity
  8
0
100
AcDbLine
 10
245.580352273773
 20
49.78420144961693
 30
0.0
 11
246.5772696075062
 21
49.86266054534478
 31
0.0
  0
ARC
  5
12F
330
23
100
AcDbEntity
  8
0
100
AcDbCircle
 10
245.6588113695009
 20
48.78728411588379
 30
0.0
 40
1.0
100
AcDbArc
 50
94.50000000000009
 51
184.5000000000001
  0
LINE
  5
130
330
23
100
AcDbEntity
  8
0
100
AcDbLine
 10
240.9649657031918
 20
44.05911263385102
 30
0.0
 11
240.0249857546932
 21
47.97441089722172
 31
0.0
  0
ARC
  5
131
330
23
100
AcDbEntity
  8
0
100
AcDbCircle
 10
242.9398035462084
 20
44.57632605403034
 30
0.0
 40
2.041444152609609
100
AcDbArc
 50
192.3237701703164
 51
5.676229829826144
  0
ARC
  5
132
330
23
100
AcDbEntity
  8
0
100
AcDbCircle
 10
246.655728703234
 20
48.86574321161164
 30
0.0
 40
1.0
100
AcDbArc
 50
4.500000000000143
 51
94.49999999999993
  0
LINE
  5
133
330
23
100
AcDbEntity
  8
0
100
AcDbLine
 10
238.047855942
 20
43.35877654227743
 30
0.0
 11
237.1078759935001
 21
47.27407480565379
 31
0.0
  0
LINE
  5
134
330
23
100
AcDbEntity
  8
0
100
AcDbLine
 10
237.8468005500419
 20
48.4798900899074
 30
0.0
 11
238.8191704704396
 21
48.71333545376332
 31
0.0
  0
ARC
  5
135
330
23
100
AcDbEntity
  8
0
100
AcDbCircle
 10
238.0802459138978
 20
47.50752016950971
 30
0.0
 40
1.0
100
AcDbArc
 50
103.5000000000001
 51
193.5000000000001
  0
LINE
  5
136
330
23
100
AcDbEntity
  8
0
100
AcDbLine
 10
234.1838382531416
 20
42.10328108858106
 30
0.0
 11
232.642943428313
 21
45.82333027287278
 31
0.0
  0
ARC
  5
137
330
23
100
AcDbEntity
  8
0
100
AcDbCircle
 10
236.0534525605577
 20
42.923059454805
 30
0.0
 40
2.041444152609609
100
AcDbArc
 50
201.3237701703164
 51
14.67622982982619
  0
ARC
  5
138
330
23
100
AcDbEntity
  8
0
100
AcDbCircle
 10
239.0526158342955
 20
47.74096553336563
 30
0.0
 40
1.0
100
AcDbArc
 50
13.50000000000011
 51
103.4999999999999
  0
LINE
  5
139
330
23
100
AcDbEntity
  8
0
100
AcDbLine
 10
231.4121996556099
 20
40.95523079148017
 30
0.0
 11
229.8713048307791
 21
44.6752799757773
 31
0.0
  0
LINE
  5
13A
330
23
100
AcDbEntity
  8
0
100
AcDbLine
 10
230.4125009309253
 20
45.9818429406537
 30
0.0
 11
231.3363804634366
 21
46.3645263730188
 31
0.0
  0
ARC
  5
13B
330
23
100
AcDbEntity
  8
0
100
AcDbCircle
 10
230.7951843632904
 20
45.0579634081424
 30
0.0
 40
1.0
100
AcDbArc
 50
112.5000000000001
 51
202.5000000000001
  0
LINE
  5
13C
330
23
100
AcDbEntity
  8
0
100
AcDbLine
 10
227.7921571961305
 20
39.11072703013153
 30
0.0
 11
225.6882894394959
 21
42.54392717829157
 31
0.0
  0
ARC
  5
13D
330
23
100
AcDbEntity
  8
0
100
AcDbCircle
 10
229.5105118588034
 20
40.21288467833526
 30
0.0
 40
2.041444152609609
100
AcDbArc
 50
210.3237701703164
 51
23.67622982982616
  0
ARC
  5
13E
330
23
100
AcDbEntity
  8
0
100
AcDbCircle
 10
231.7190638958017
 20
45.44064684050751
 30
0.0
 40
1.0
100
AcDbArc
 50
22.50000000000016
 51
112.4999999999999
  0
LINE
  5
13F
330
23
100
AcDbEntity
  8
0
100
AcDbLine
 10
225.2342367030712
 20
37.5432313359785
 30
0.0
 11
223.1303689464336
 21
40.97643148414351
 31
0.0
  0
LINE
  5
140
330
23
100
AcDbEntity
  8
0
100
AcDbLine
 10
223.4605105460717
 20
42.35157021321356
 30
0.0
 11
224.3131507104259
 21
42.87406877792958
 31
0.0
  0
ARC
  5
141
330
23
100
AcDbEntity
  8
0
100
AcDbCircle
 10
223.9830091107877
 20
41.49893004885946
 30
0.0
 40
1.0
100
AcDbArc
 50
121.5000000000001
 51
211.5000000000001
  0
LINE
  5
142
330
23
100
AcDbEntity
  8
0
100
AcDbLine
 10
221.9473069325553
 20
35.15513707113894
 30
0.0
 11
219.3322704506198
 21
38.21695140138161
 31
0.0
  0
ARC
  5
143
330
23
100
AcDbEntity
  8
0
100
AcDbCircle
 10
223.472090355798
 20
36.51253522217215
 30
0.0
 40
2.041444152609609
100
AcDbArc
 50
219.3237701703164
 51
32.67622982982621
  0
ARC
  5
144
330
23
100
AcDbEntity
  8
0
100
AcDbCircle
 10
224.8356492751418
 20
42.02142861357545
 30
0.0
 40
1.0
100
AcDbArc
 50
31.50000000000013
 51
121.4999999999999
  0
LINE
  5
145
330
23
100
AcDbEntity
  8
0
100
AcDbLine
 10
219.6660890357591
 20
33.20679292614372
 30
0.0
 11
217.0510525538198
 21
36.26860725639085
 31
0.0
  0
LINE
  5
146
330
23
100
AcDbEntity
  8
0
100
AcDbLine
 10
217.1620104710896
 20
37.67846127032107
 30
0.0
 11
217.9224164366897
 21
38.32790931865128
 31
0.0
  0
ARC
  5
147
330
23
100
AcDbEntity
  8
0
100
AcDbCircle
 10
217.8114585194198
 20
36.91805530472102
 30
0.0
 40
1.0
100
AcDbArc
 50
130.5000000000001
 51
220.5000000000001
  0
LINE
  5
148
330
23
100
AcDbEntity
  8
0
100
AcDbLine
 10
216.7932070738512
 20
30.33391096424413
 30
0.0
 11
213.7313927436086
 21
32.94894744617963
 31
0.0
  0
ARC
  5
149
330
23
100
AcDbEntity
  8
0
100
AcDbCircle
 10
218.0868740293173
 20
31.91312597068221
 30
0.0
 40
2.041444152609609
100
AcDbArc
 50
228.3237701703164
 51
41.67622982982617
  0
ARC
  5
14A
330
23
100
AcDbEntity
  8
0
100
AcDbCircle
 10
218.5718644850198
 20
37.56750335305124
 30
0.0
 40
1.0
100
AcDbArc
 50
40.50000000000009
 51
130.4999999999999
  0
LINE
  5
14B
330
23
100
AcDbEntity
  8
0
100
AcDbLine
 10
214.8448629288652
 20
28.05269306744006
 30
0.0
 11
211.7830485986182
 21
30.66772954937937
 31
0.0
  0
LINE
  5
14C
330
23
100
AcDbEntity
  8
0
100
AcDbLine
 10
211.6720906813483
 20
32.07758356330959
 30
0.0
 11
212.3215387296785
 21
32.83798952890967
 31
0.0
  0
ARC
  5
14D
330
23
100
AcDbEntity
  8
0
100
AcDbCircle
 10
212.4324966469483
 20
31.4281355149794
 30
0.0
 40
1.0
100
AcDbArc
 50
139.5000000000001
 51
229.5000000000001
  0
LINE
  5
14E
330
23
100
AcDbEntity
  8
0
100
AcDbLine
 10
212.4567686640163
 20
24.76576329693094
 30
0.0
 11
209.0235685158562
 21
26.86963105356557
 31
0.0
  0
ARC
  5
14F
330
23
100
AcDbEntity
  8
0
100
AcDbCircle
 10
213.4874647778277
 20
26.52790964420127
 30
0.0
 40
2.041444152609609
100
AcDbArc
 50
237.3237701703164
 51
50.67622982982615
  0
ARC
  5
150
330
23
100
AcDbEntity
  8
0
100
AcDbCircle
 10
213.0819446952785
 20
32.18854148057949
 30
0.0
 40
1.0
100
AcDbArc
 50
49.50000000000015
 51
139.4999999999999
  0
LINE
  5
151
330
23
100
AcDbEntity
  8
0
100
AcDbLine
 10
210.8892729698735
 20
22.20784280386545
 30
0.0
 11
207.4560728217085
 21
24.31171056050315
 31
0.0
  0
LINE
  5
152
330
23
100
AcDbEntity
  8
0
100
AcDbLine
 10
207.1259312220703
 20
25.68684928957316
 30
0.0
 11
207.6484297867863
 21
26.53948945392733
 31
0.0
  0
ARC
  5
153
330
23
100
AcDbEntity
  8
0
100
AcDbCircle
 10
207.9785713864244
 20
25.1643507248572
 30
0.0
 40
1.0
100
AcDbArc
 50
148.5000000000001
 51
238.5000000000001
  0
LINE
  5
154
330
23
100
AcDbEntity
  8
0
100
AcDbLine
 10
209.0447692085145
 20
18.58780034439127
 30
0.0
 11
205.3247200242228
 21
20.12869516921987
 31
0.0
  0
ARC
  5
155
330
23
100
AcDbEntity
  8
0
100
AcDbCircle
 10
209.7871153216649
 20
20.48948814119556
 30
0.0
 40
2.041444152609609
100
AcDbArc
 50
246.3237701703163
 51
59.6762298298262
  0
ARC
  5
156
330
23
100
AcDbEntity
  8
0
100
AcDbCircle
 10
208.5010699511404
 20
26.01699088921133
 30
0.0
 40
1.0
100
AcDbArc
 50
58.50000000000012
 51
148.4999999999999
  0
LINE
  5
157
330
23
100
AcDbEntity
  8
0
100
AcDbLine
 10
207.8967189114247
 20
15.81616174685499
 30
0.0
 11
204.1766697271277
 21
17.35705657168583
 31
0.0
  0
LINE
  5
158
330
23
100
AcDbEntity
  8
0
100
AcDbLine
 10
203.6354736269815
 20
18.66361953656223
 30
0.0
 11
204.0181570593465
 21
19.58749906907354
 31
0.0
  0
ARC
  5
159
330
23
100
AcDbEntity
  8
0
100
AcDbCircle
 10
204.5593531594928
 20
18.28093610419714
 30
0.0
 40
1.0
100
AcDbArc
 50
157.5000000000001
 51
247.5000000000001
  0
LINE
  5
15A
330
23
100
AcDbEntity
  8
0
100
AcDbLine
 10
206.6412234577174
 20
11.95214405800013
 30
0.0
 11
202.7259251943466
 21
12.8921240064987
 31
0.0
  0
ARC
  5
15B
330
23
100
AcDbEntity
  8
0
100
AcDbCircle
 10
207.0769405451954
 20
13.94654743944119
 30
0.0
 40
2.041444152609609
100
AcDbArc
 50
255.3237701703164
 51
68.67622982982616
  0
ARC
  5
15C
330
23
100
AcDbEntity
  8
0
100
AcDbCircle
 10
204.9420365918579
 20
19.20481563670847
 30
0.0
 40
1.0
100
AcDbArc
 50
67.50000000000017
 51
157.4999999999999
  0
LINE
  5
15D
330
23
100
AcDbEntity
  8
0
100
AcDbLine
 10
205.9408873661555
 20
9.035034296805577
 30
0.0
 11
202.0255891027791
 21
9.975014245305573
 31
0.0
  0
LINE
  5
15E
330
23
100
AcDbEntity
  8
0
100
AcDbLine
 10
201.2866645462373
 20
11.18082952955913
 30
0.0
 11
201.5201099100932
 21
12.15319944995687
 31
0.0
  0
ARC
  5
15F
330
23
100
AcDbEntity
  8
0
100
AcDbCircle
 10
202.2590344666351
 20
10.94738416570324
 30
0.0
 40
1.0
100
AcDbArc
 50
166.5000000000001
 51
256.5000000000001
  0
LINE
  5
160
330
23
100
AcDbEntity
  8
0
100
AcDbLine
 10
205.3053146849205
 20
5.022186318009119
 30
0.0
 11
201.2911749798449
 21
5.338105964231033
 31
0.0
  0
ARC
  5
161
330
23
100
AcDbEntity
  8
0
100
AcDbCircle
 10
205.4236739459705
 20
7.060196453790492
 30
0.0
 40
2.041444152609609
100
AcDbArc
 50
264.3237701703164
 51
77.67622982982621
  0
ARC
  5
162
330
23
100
AcDbEntity
  8
0
100
AcDbCircle
 10
202.4924798304909
 20
11.91975408610096
 30
0.0
 40
1.0
100
AcDbArc
 50
76.50000000000012
 51
166.4999999999999
  0
LINE
  5
163
330
23
100
AcDbEntity
  8
0
100
AcDbLine
 10
205.0699373977429
 20
2.031434316809111
 30
0.0
 11
201.0557976926615
 21
2.347353963031508
 31
0.0
  0
LINE
  5
164
330
23
100
AcDbEntity
  8
0
100
AcDbLine
 10
200.1373394546563
 20
3.422730392492496
 30
0.0
 11
200.2157985503841
 21
4.419647726225662
 31
0.0
  0
ARC
  5
165
330
23
100
AcDbEntity
  8
0
100
AcDbCircle
 10
201.1342567883894
 20
3.344271296764645
 30
0.0
 40
1.0
100
AcDbArc
 50
175.5
 51
265.5000000000001
  0
LINE
  5
166
330
23
100
AcDbEntity
  8
0
100
AcDbLine
 10
205.0699373977372
 20
-2.031434316812124
 30
0.0
 11
201.0557976926615
 21
-2.347353963034038
 31
0.0
  0
ARC
  5
167
330
23
100
AcDbEntity
  8
0
100
AcDbCircle
 10
204.8680244345402
 20
-0.0000000000012233
 30
0.0
 40
2.041444152609609
100
AcDbArc
 50
273.3237701703164
 51
86.67622982982617
  0
ARC
  5
168
330
23
100
AcDbEntity
  8
0
100
AcDbCircle
 10
201.2127158841172
 20
4.341188630497811
 30
0.0
 40
1.0
100
AcDbArc
 50
85.50000000000009
 51
175.4999999999999
  0
LINE
  5
169
330
23
100
AcDbEntity
  8
0
100
AcDbLine
 10
205.3053146849267
 20
-5.022186318011137
 30
0.0
 11
201.2911749798453
 21
-5.338105964233477
 31
0.0
  0
LINE
  5
16A
330
23
100
AcDbEntity
  8
0
100
AcDbLine
 10
200.2157985503843
 20
-4.419647726228191
 30
0.0
 11
200.1373394546564
 21
-3.422730392495026
 31
0.0
  0
ARC
  5
16B
330
23
100
AcDbEntity
  8
0
100
AcDbCircle
 10
201.2127158841175
 20
-4.341188630500361
 30
0.0
 40
1.0
100
AcDbArc
 50
184.5
 51
274.5000000000001
  0
LINE
  5
16C
330
23
100
AcDbEntity
  8
0
100
AcDbLine
 10
205.9408873661502
 20
-9.035034296809413
 30
0.0
 11
202.0255891027795
 21
-9.975014245308017
 31
0.0
  0
ARC
  5
16D
330
23
100
AcDbEntity
  8
0
100
AcDbCircle
 10
205.4236739459709
 20
-7.060196453792876
 30
0.0
 40
2.041444152609609
100
AcDbArc
 50
282.3237701703164
 51
95.67622982982614
  0
ARC
  5
16E
330
23
100
AcDbEntity
  8
0
100
AcDbCircle
 10
201.1342567883896
 20
-3.344271296767203
 30
0.0
 40
1.0
100
AcDbArc
 50
94.50000000000015
 51
184.4999999999999
  0
LINE
  5
16F
330
23
100
AcDbEntity
  8
0
100
AcDbLine
 10
206.6412234577238
 20
-11.95214405800118
 30
0.0
 11
202.7259251943474
 21
-12.89212400650109
 31
0.0
  0
LINE
  5
170
330
23
100
AcDbEntity
  8
0
100
AcDbLine
 10
201.5201099100938
 20
-12.15319944995931
 30
0.0
 11
201.2866645462379
 21
-11.1808295295616
 31
0.0
  0
ARC
  5
171
330
23
100
AcDbEntity
  8
0
100
AcDbCircle
 10
202.4924798304915
 20
-11.91975408610334
 30
0.0
 40
1.0
100
AcDbArc
 50
193.5000000000001
 51
283.5
  0
LINE
  5
172
330
23
100
AcDbEntity
  8
0
100
AcDbLine
 10
207.8967189114202
 20
-15.81616174685962
 30
0.0
 11
204.1766697271285
 21
-17.35705657168822
 31
0.0
  0
ARC
  5
173
330
23
100
AcDbEntity
  8
0
100
AcDbCircle
 10
207.0769405451962
 20
-13.94654743944342
 30
0.0
 40
2.041444152609609
100
AcDbArc
 50
291.3237701703164
 51
104.6762298298262
  0
ARC
  5
174
330
23
100
AcDbEntity
  8
0
100
AcDbCircle
 10
202.2590344666356
 20
-10.94738416570563
 30
0.0
 40
1.0
100
AcDbArc
 50
103.5000000000001
 51
193.4999999999999
  0
LINE
  5
175
330
23
100
AcDbEntity
  8
0
100
AcDbLine
 10
209.044769208521
 20
-18.5878003443913
 30
0.0
 11
205.3247200242239
 21
-20.12869516922208
 31
0.0
  0
LINE
  5
176
330
23
100
AcDbEntity
  8
0
100
AcDbLine
 10
204.0181570593475
 20
-19.5874990690759
 30
0.0
 11
203.6354736269824
 21
-18.66361953656457
 31
0.0
  0
ARC
  5
177
330
23
100
AcDbEntity
  8
0
100
AcDbCircle
 10
204.9420365918588
 20
-19.20481563671079
 30
0.0
 40
1.0
100
AcDbArc
 50
202.5000000000001
 51
292.5000000000001
  0
LINE
  5
178
330
23
100
AcDbEntity
  8
0
100
AcDbLine
 10
210.8892729698697
 20
-22.20784280387073
 30
0.0
 11
207.4560728217096
 21
-24.31171056050533
 31
0.0
  0
ARC
  5
179
330
23
100
AcDbEntity
  8
0
100
AcDbCircle
 10
209.7871153216659
 20
-20.48948814119775
 30
0.0
 40
2.041444152609609
100
AcDbArc
 50
300.3237701703164
 51
113.6762298298261
  0
ARC
  5
17A
330
23
100
AcDbEntity
  8
0
100
AcDbCircle
 10
204.5593531594937
 20
-18.28093610419948
 30
0.0
 40
1.0
100
AcDbArc
 50
112.5000000000001
 51
202.4999999999999
  0
LINE
  5
17B
330
23
100
AcDbEntity
  8
0
100
AcDbLine
 10
212.4567686640227
 20
-24.76576329692998
 30
0.0
 11
209.0235685158577
 21
-26.86963105356759
 31
0.0
  0
LINE
  5
17C
330
23
100
AcDbEntity
  8
0
100
AcDbLine
 10
207.6484297867876
 20
-26.53948945392946
 30
0.0
 11
207.1259312220716
 21
-25.68684928957532
 31
0.0
  0
ARC
  5
17D
330
23
100
AcDbEntity
  8
0
100
AcDbCircle
 10
208.5010699511417
 20
-26.01699088921349
 30
0.0
 40
1.0
100
AcDbArc
 50
211.5000000000001
 51
301.5000000000001
  0
LINE
  5
17E
330
23
100
AcDbEntity
  8
0
100
AcDbLine
 10
214.8448629288623
 20
-28.05269306744589
 30
0.0
 11
211.7830485986196
 21
-30.66772954938139
 31
0.0
  0
ARC
  5
17F
330
23
100
AcDbEntity
  8
0
100
AcDbCircle
 10
213.4874647778291
 20
-26.52790964420322
 30
0.0
 40
2.041444152609609
100
AcDbArc
 50
309.3237701703164
 51
122.6762298298262
  0
ARC
  5
180
330
23
100
AcDbEntity
  8
0
100
AcDbCircle
 10
207.9785713864258
 20
-25.16435072485939
 30
0.0
 40
1.0
100
AcDbArc
 50
121.5
 51
211.4999999999999
  0
LINE
  5
181
330
23
100
AcDbEntity
  8
0
100
AcDbLine
 10
216.7932070738575
 20
-30.33391096424217
 30
0.0
 11
213.7313927436104
 21
-32.94894744618145
 31
0.0
  0
LINE
  5
182
330
23
100
AcDbEntity
  8
0
100
AcDbLine
 10
212.3215387296802
 20
-32.83798952891161
 30
0.0
 11
211.6720906813499
 21
-32.07758356331155
 31
0.0
  0
ARC
  5
183
330
23
100
AcDbEntity
  8
0
100
AcDbCircle
 10
213.0819446952802
 20
-32.18854148058139
 30
0.0
 40
1.0
100
AcDbArc
 50
220.5000000000001
 51
310.5000000000001
  0
LINE
  5
184
330
23
100
AcDbEntity
  8
0
100
AcDbLine
 10
219.6660890357571
 20
-33.20679292614997
 30
0.0
 11
217.0510525538216
 21
-36.26860725639261
 31
0.0
  0
ARC
  5
185
330
23
100
AcDbEntity
  8
0
100
AcDbCircle
 10
218.086874029319
 20
-31.91312597068392
 30
0.0
 40
2.041444152609609
100
AcDbArc
 50
318.3237701703164
 51
131.6762298298261
  0
ARC
  5
186
330
23
100
AcDbEntity
  8
0
100
AcDbCircle
 10
212.43249664695
 20
-31.42813551498135
 30
0.0
 40
1.0
100
AcDbArc
 50
130.5000000000001
 51
220.4999999999999
  0
LINE
  5
187
330
23
100
AcDbEntity
  8
0
100
AcDbLine
 10
221.9473069325612
 20
-35.15513707113601
 30
0.0
 11
219.3322704506218
 21
-38.21695140138309
 31
0.0
  0
LINE
  5
188
330
23
100
AcDbEntity
  8
0
100
AcDbLine
 10
217.9224164366917
 20
-38.32790931865293
 30
0.0
 11
217.1620104710915
 21
-37.67846127032271
 31
0.0
  0
ARC
  5
189
330
23
100
AcDbEntity
  8
0
100
AcDbCircle
 10
218.5718644850218
 20
-37.56750335305291
 30
0.0
 40
1.0
100
AcDbArc
 50
229.5000000000001
 51
319.5000000000001
  0
LINE
  5
18A
330
23
100
AcDbEntity
  8
0
100
AcDbLine
 10
225.2342367030703
 20
-37.54323133598493
 30
0.0
 11
223.1303689464357
 21
-40.97643148414498
 31
0.0
  0
ARC
  5
18B
330
23
100
AcDbEntity
  8
0
100
AcDbCircle
 10
223.4720903557999
 20
-36.5125352221736
 30
0.0
 40
2.041444152609609
100
AcDbArc
 50
327.3237701703164
 51
140.6762298298261
  0
ARC
  5
18C
330
23
100
AcDbEntity
  8
0
100
AcDbCircle
 10
217.8114585194218
 20
-36.91805530472273
 30
0.0
 40
1.0
100
AcDbArc
 50
139.5000000000001
 51
229.4999999999999
  0
LINE
  5
18D
330
23
100
AcDbEntity
  8
0
100
AcDbLine
 10
227.7921571961357
 20
-39.1107270301277
 30
0.0
 11
225.688289439498
 21
-42.54392717829271
 31
0.0
  0
LINE
  5
18E
330
23
100
AcDbEntity
  8
0
100
AcDbLine
 10
224.313150710428
 20
-42.87406877793086
 30
0.0
 11
223.4605105460738
 21
-42.35157021321491
 31
0.0
  0
ARC
  5
18F
330
23
100
AcDbEntity
  8
0
100
AcDbCircle
 10
224.8356492751439
 20
-42.02142861357674
 30
0.0
 40
1.0
100
AcDbArc
 50
238.5000000000001
 51
328.5000000000001
  0
LINE
  5
190
330
23
100
AcDbEntity
  8
0
100
AcDbLine
 10
231.4121996556099
 20
-40.95523079148671
 30
0.0
 11
229.8713048307813
 21
-44.67527997577842
 31
0.0
  0
ARC
  5
191
330
23
100
AcDbEntity
  8
0
100
AcDbCircle
 10
229.5105118588056
 20
-40.21288467833633
 30
0.0
 40
2.041444152609609
100
AcDbArc
 50
336.3237701703164
 51
149.6762298298261
  0
ARC
  5
192
330
23
100
AcDbEntity
  8
0
100
AcDbCircle
 10
223.9830091107898
 20
-41.49893004886078
 30
0.0
 40
1.0
100
AcDbArc
 50
148.5000000000001
 51
238.4999999999999
  0
LINE
  5
193
330
23
100
AcDbEntity
  8
0
100
AcDbLine
 10
234.1838382531462
 20
-42.10328108857646
 30
0.0
 11
232.6429434283153
 21
-45.82333027287356
 31
0.0
  0
LINE
  5
194
330
23
100
AcDbEntity
  8
0
100
AcDbLine
 10
231.336380463439
 20
-46.36452637301974
 30
0.0
 11
230.4125009309276
 21
-45.98184294065466
 31
0.0
  0
ARC
  5
195
330
23
100
AcDbEntity
  8
0
100
AcDbCircle
 10
231.7190638958041
 20
-45.44064684050847
 30
0.0
 40
1.0
100
AcDbArc
 50
247.5000000000001
 51
337.5
  0
LINE
  5
196
330
23
100
AcDbEntity
  8
0
100
AcDbLine
 10
238.0478559420011
 20
-43.35877654228386
 30
0.0
 11
237.1078759935025
 21
-47.27407480565456
 31
0.0
  0
ARC
  5
197
330
23
100
AcDbEntity
  8
0
100
AcDbCircle
 10
236.05345256056
 20
-42.92305945480577
 30
0.0
 40
2.041444152609609
100
AcDbArc
 50
345.3237701703164
 51
158.6762298298261
  0
ARC
  5
198
330
23
100
AcDbEntity
  8
0
100
AcDbCircle
 10
230.7951843632928
 20
-45.05796340814338
 30
0.0
 40
1.0
100
AcDbArc
 50
157.5000000000001
 51
247.4999999999999
  0
LINE
  5
199
330
23
100
AcDbEntity
  8
0
100
AcDbLine
 10
240.9649657031956
 20
-44.05911263384576
 30
0.0
 11
240.0249857546957
 21
-47.97441089722213
 31
0.0
  0
LINE
  5
19A
330
23
100
AcDbEntity
  8
0
100
AcDbLine
 10
238.819170470442
 20
-48.71333545376391
 30
0.0
 11
237.8468005500443
 21
-48.47989008990801
 31
0.0
  0
ARC
  5
19B
330
23
100
AcDbEntity
  8
0
100
AcDbCircle
 10
239.0526158342979
 20
-47.74096553336621
 30
0.0
 40
1.0
100
AcDbArc
 50
256.5000000000001
 51
346.5000000000001
  0
LINE
  5
19C
330
23
100
AcDbEntity
  8
0
100
AcDbLine
 10
244.9778136819921
 20
-44.69468531508076
 30
0.0
 11
244.6618940357702
 21
-48.70882502015632
 31
0.0
  0
ARC
  5
19D
330
23
100
AcDbEntity
  8
0
100
AcDbCircle
 10
242.9398035462107
 20
-44.57632605403072
 30
0.0
 40
2.041444152609609
100
AcDbArc
 50
354.3237701703164
 51
167.6762298298261
  0
ARC
  5
19E
330
23
100
AcDbEntity
  8
0
100
AcDbCircle
 10
238.0802459139003
 20
-47.50752016951031
 30
0.0
 40
1.0
100
AcDbArc
 50
166.5000000000001
 51
256.4999999999999
  0
LINE
  5
19F
330
23
100
AcDbEntity
  8
0
100
AcDbLine
 10
247.9685656831921
 20
-44.93006260225831
 30
0.0
 11
247.6526460369697
 21
-48.94420230733968
 31
0.0
  0
LINE
  5
1A0
330
23
100
AcDbEntity
  8
0
100
AcDbLine
 10
246.5772696075087
 20
-49.86266054534496
 30
0.0
 11
245.5803522737755
 21
-49.78420144961713
 31
0.0
  0
ARC
  5
1A1
330
23
100
AcDbEntity
  8
0
100
AcDbCircle
 10
246.6557287032365
 20
-48.86574321161184
 30
0.0
 40
1.0
100
AcDbArc
 50
265.5000000000001
 51
355.5000000000001
  0
ARC
  5
1A4
330
23
100
AcDbEntity
  8
0
100
AcDbCircle
 10
245.6588113695034
 20
-48.787284115884
 30
0.0
 40
1.0
100
AcDbArc
 50
175.5000000000001
 51
265.4999999999999
  0
LINE
  5
224
330
23
100
AcDbEntity
  8
0
100
AcDbLine
 10
250.0000000000006
 20
-23.97915761656353
 30
0.0
 11
250.0000000000025
 21
-42.25962765243981
 31
0.0
  0
ARC
  5
228
330
23
100
AcDbEntity
  8
0
100
AcDbCircle
 10
249.0000000000006
 20
-23.97915761656363
 30
0.0
 40
1.0
100
AcDbArc
 50
0.000000000005496
 51
87.6119845367334
  0
ARC
  5
229
330
23
100
AcDbEntity
  8
0
100
AcDbCircle
 10
250.0
 20
0.0
 30
0.0
 40
23.0
100
AcDbArc
 50
92.38801546326419
 51
267.6119845367327
  0
ARC
  5
22B
330
23
100
AcDbEntity
  8
0
100
AcDbCircle
 10
250.0000000000047
 20
45.13197556546105
 30
0.0
 40
2.041444152609609
100
AcDbArc
 50
183.3237701701738
 51
250.8045787766378
  0
ARC
  5
22C
330
23
100
AcDbEntity
  8
0
100
AcDbCircle
 10
249.0000000000022
 20
42.25962765243981
 30
0.0
 40
1.0
100
AcDbArc
 50
0.0000000000016355
 51
70.80457877663744
  0
ARC
  5
22F
330
23
100
AcDbEntity
  8
0
100
AcDbCircle
 10
250.0000000000047
 20
-45.13197556546105
 30
0.0
 40
2.041444152609609
100
AcDbArc
 50
109.1954212233622
 51
176.6762298298261
  0
ARC
  5
230
330
23
100
AcDbEntity
  8
0
100
AcDbCircle
 10
249.0000000000022
 20
-42.25962765243981
 30
0.0
 40
1.0
100
AcDbArc
 50
289.1954212233626
 51
359.9999999999984
  0
ARC
  5
267
330
23
100
AcDbEntity
  8
0
100
AcDbCircle
 10
249.0000000000006
 20
23.97915761656363
 30
0.0
 40
1.0
100
AcDbArc
 50
272.3880154632666
 51
359.9999999999945
  0
LINE
  5
269
330
23
100
AcDbEntity
  8
0
100
AcDbLine
 10
250.0000000000006
 20
23.97915761656354
 30
0.0
 11
250.0000000000025
 21
42.25962765243983
 31
0.0
  0
CIRCLE
  5
28A
330
23
100
AcDbEntity
  8
0
100
AcDbCircle
 10
240.0000000000012
 20
29.72995187480004
 30
0.0
 40
2.0
  0
ARC
  5
366
330
23
100
AcDbEntity
  8
0
100
AcDbCircle
 10
284.8135334482305
 20
-96.02084238343643
 30
0.0
 40
1.0
100
AcDbArc
 50
179.9999999999943
 51
267.6119845367302
  0
LINE
  5
367
330
23
100
AcDbEntity
  8
0
100
AcDbLine
 10
283.8135334482306
 20
-96.02084238343644
 30
0.0
 11
283.8135334482299
 21
-75.40943122073873
 31
0.0
  0
LINE
  5
368
330
23
100
AcDbEntity
  8
0
100
AcDbLine
 10
284.9555044917125
 20
-74.32574116425937
 30
0.0
 11
285.0788844730963
 21
-71.97151087494749
 31
0.0
  0
ARC
  5
369
330
23
100
AcDbEntity
  8
0
100
AcDbCircle
 10
286.0775140078509
 20
-72.02384683119049
 30
0.0
 40
1.0
100
AcDbArc
 50
86.99999999999766
 51
176.9999999999968
  0
ARC
  5
36D
330
23
100
AcDbEntity
  8
0
100
AcDbCircle
 10
283.8135334482299
 20
-74.26589299786485
 30
0.0
 40
1.14353822287388
100
AcDbArc
 50
270.0
 51
356.9999999999968
  0
LINE
  5
371
330
23
100
AcDbEntity
  8
0
100
AcDbLine
 10
284.9555044917074
 20
-165.674258835741
 30
0.0
 11
285.078884473091
 21
-168.0284891250526
 31
0.0
  0
ARC
  5
372
330
23
100
AcDbEntity
  8
0
100
AcDbCircle
 10
286.0775140078456
 20
-167.9761531688098
 30
0.0
 40
1.0
100
AcDbArc
 50
182.9999999999967
 51
272.9999999999958
  0
LINE
  5
373
330
23
100
AcDbEntity
  8
0
100
AcDbLine
 10
286.6291647314708
 20
-168.9486147254426
 30
0.0
 11
286.1298499640885
 21
-168.9747827035643
 31
0.0
  0
ARC
  5
374
330
23
100
AcDbEntity
  8
0
100
AcDbCircle
 10
283.8135334482299
 20
-165.7341070021351
 30
0.0
 40
1.14353822287388
100
AcDbArc
 50
2.999999999996649
 51
90.0
  0
LINE
  5
375
330
23
100
AcDbEntity
  8
0
100
AcDbLine
 10
287.4520783285989
 20
-165.5434189451333
 30
0.0
 11
287.5754583099825
 21
-167.8976492344451
 31
0.0
  0
ARC
  5
376
330
23
100
AcDbEntity
  8
0
100
AcDbCircle
 10
286.5768287752279
 20
-167.949985190688
 30
0.0
 40
1.0
100
AcDbArc
 50
272.9999999999958
 51
2.999999999996649
  0
LINE
  5
377
330
23
100
AcDbEntity
  8
0
100
AcDbLine
 10
289.7235087418338
 20
-165.3046819885913
 30
0.0
 11
290.0922969090899
 21
-167.633118838199
 31
0.0
  0
ARC
  5
378
330
23
100
AcDbEntity
  8
0
100
AcDbCircle
 10
291.0799852496851
 20
-167.4766843731588
 30
0.0
 40
1.0
100
AcDbArc
 50
188.9999999999971
 51
278.9999999999953
  0
LINE
  5
379
330
23
100
AcDbEntity
  8
0
100
AcDbLine
 10
291.7302638850278
 20
-168.3861554812331
 30
0.0
 11
291.2364197147253
 21
-168.4643727137539
 31
0.0
  0
ARC
  5
37A
330
23
100
AcDbEntity
  8
0
100
AcDbCircle
 10
288.5940493720815
 20
-165.4835707787388
 30
0.0
 40
1.14353822287388
100
AcDbArc
 50
8.99999999999669
 51
182.999999999997
  0
LINE
  5
37B
330
23
100
AcDbEntity
  8
0
100
AcDbLine
 10
292.1927295933268
 20
-164.9135958259899
 30
0.0
 11
292.5615177605829
 21
-167.2420326755977
 31
0.0
  0
ARC
  5
37C
330
23
100
AcDbEntity
  8
0
100
AcDbCircle
 10
291.5738294199876
 20
-167.3984671406379
 30
0.0
 40
1.0
100
AcDbArc
 50
278.9999999999953
 51
8.999999999997092
  0
LINE
  5
37D
330
23
100
AcDbEntity
  8
0
100
AcDbLine
 10
294.4267620659019
 20
-164.4387375649605
 30
0.0
 11
295.036917898696
 21
-166.715870133483
 31
0.0
  0
ARC
  5
37E
330
23
100
AcDbEntity
  8
0
100
AcDbCircle
 10
296.0028437249849
 20
-166.4570510883806
 30
0.0
 40
1.0
100
AcDbArc
 50
194.9999999999964
 51
284.9999999999978
  0
LINE
  5
37F
330
23
100
AcDbEntity
  8
0
100
AcDbLine
 10
296.744625683237
 20
-167.2935673921171
 30
0.0
 11
296.2616627700876
 21
-167.4229769146696
 31
0.0
  0
ARC
  5
380
330
23
100
AcDbEntity
  8
0
100
AcDbCircle
 10
293.3221889630841
 20
-164.7347070358416
 30
0.0
 40
1.14353822287388
100
AcDbArc
 50
14.99999999999642
 51
188.9999999999971
  0
LINE
  5
381
330
23
100
AcDbEntity
  8
0
100
AcDbLine
 10
296.8415766316294
 20
-163.7916899522028
 30
0.0
 11
297.4517324644235
 21
-166.0688225207256
 31
0.0
  0
ARC
  5
382
330
23
100
AcDbEntity
  8
0
100
AcDbCircle
 10
296.4858066381345
 20
-166.3276415658281
 30
0.0
 40
1.0
100
AcDbArc
 50
284.9999999999978
 51
14.99999999999642
  0
LINE
  5
383
330
23
100
AcDbEntity
  8
0
100
AcDbLine
 10
299.0137346362737
 20
-163.0859130331643
 30
0.0
 11
299.8585731396184
 21
-165.2867925796604
 31
0.0
  0
ARC
  5
384
330
23
100
AcDbEntity
  8
0
100
AcDbCircle
 10
300.7921535661156
 20
-164.9284246301151
 30
0.0
 40
1.0
100
AcDbArc
 50
200.9999999999976
 51
290.9999999999971
  0
LINE
  5
385
330
23
100
AcDbEntity
  8
0
100
AcDbLine
 10
301.6173117289143
 20
-165.6828210818379
 30
0.0
 11
301.1505215156609
 21
-165.8620050566123
 31
0.0
  0
ARC
  5
386
330
23
100
AcDbEntity
  8
0
100
AcDbCircle
 10
297.9461497344519
 20
-163.4957204813205
 30
0.0
 40
1.14353822287388
100
AcDbArc
 50
20.99999999999756
 51
194.9999999999964
  0
LINE
  5
387
330
23
100
AcDbEntity
  8
0
100
AcDbLine
 10
301.3476857025214
 20
-162.1899931592991
 30
0.0
 11
302.1925242058663
 21
-164.3908727057954
 31
0.0
  0
ARC
  5
388
330
23
100
AcDbEntity
  8
0
100
AcDbCircle
 10
301.2589437793691
 20
-164.7492406553407
 30
0.0
 40
1.0
100
AcDbArc
 50
290.9999999999971
 51
20.99999999999756
  0
LINE
  5
389
330
23
100
AcDbEntity
  8
0
100
AcDbLine
 10
303.4341706215828
 20
-161.2610302218698
 30
0.0
 11
304.5044355680417
 21
-163.3615434494644
 31
0.0
  0
ARC
  5
38A
330
23
100
AcDbEntity
  8
0
100
AcDbCircle
 10
305.3954420922301
 20
-162.9075529497249
 30
0.0
 40
1.0
100
AcDbArc
 50
206.999999999996
 51
296.9999999999981
  0
LINE
  5
38B
330
23
100
AcDbEntity
  8
0
100
AcDbLine
 10
306.2949358540684
 20
-163.5715642240412
 30
0.0
 11
305.8494325919697
 21
-163.7985594739132
 31
0.0
  0
ARC
  5
38C
330
23
100
AcDbEntity
  8
0
100
AcDbCircle
 10
302.415270604348
 20
-161.7801857111412
 30
0.0
 40
1.14353822287388
100
AcDbArc
 50
26.99999999999557
 51
200.9999999999976
  0
LINE
  5
38D
330
23
100
AcDbEntity
  8
0
100
AcDbLine
 10
305.6616869320581
 20
-160.1260539725185
 30
0.0
 11
306.7319518785172
 21
-162.2265672001133
 31
0.0
  0
ARC
  5
38E
330
23
100
AcDbEntity
  8
0
100
AcDbCircle
 10
305.8409453543289
 20
-162.6805576998527
 30
0.0
 40
1.0
100
AcDbArc
 50
296.9999999999981
 51
26.99999999999592
  0
LINE
  5
38F
330
23
100
AcDbEntity
  8
0
100
AcDbLine
 10
307.6396388001382
 20
-158.9840829290388
 30
0.0
 11
308.9236041429906
 21
-160.9612161752497
 31
0.0
  0
ARC
  5
390
330
23
100
AcDbEntity
  8
0
100
AcDbCircle
 10
309.7622747109363
 20
-160.4165771402346
 30
0.0
 40
1.0
100
AcDbArc
 50
212.9999999999983
 51
302.9999999999977
  0
LINE
  5
391
330
23
100
AcDbEntity
  8
0
100
AcDbLine
 10
310.7262490299281
 20
-160.9829281906699
 30
0.0
 11
310.3069137459511
 21
-161.2552477081801
 31
0.0
  0
ARC
  5
392
330
23
100
AcDbEntity
  8
0
100
AcDbCircle
 10
306.6805869492977
 20
-159.6068984832448
 30
0.0
 40
1.14353822287388
100
AcDbArc
 50
32.99999999999522
 51
206.999999999996
  0
LINE
  5
393
330
23
100
AcDbEntity
  8
0
100
AcDbLine
 10
309.736315220006
 20
-157.6224853414983
 30
0.0
 11
311.0202805628586
 21
-159.5996185877094
 31
0.0
  0
ARC
  5
394
330
23
100
AcDbEntity
  8
0
100
AcDbCircle
 10
310.1816099949131
 20
-160.1442576227243
 30
0.0
 40
1.0
100
AcDbArc
 50
302.9999999999977
 51
32.99999999999835
  0
LINE
  5
395
330
23
100
AcDbEntity
  8
0
100
AcDbLine
 10
311.5840631825252
 20
-156.2800178656934
 30
0.0
 11
313.0676615287877
 21
-158.1121092449333
 31
0.0
  0
ARC
  5
396
330
23
100
AcDbEntity
  8
0
100
AcDbCircle
 10
313.8448074902448
 20
-157.4827888538835
 30
0.0
 40
1.0
100
AcDbArc
 50
218.9999999999976
 51
308.9999999999982
  0
LINE
  5
397
330
23
100
AcDbEntity
  8
0
100
AcDbLine
 10
314.862700862027
 20
-157.9452746198125
 30
0.0
 11
314.4741278812946
 21
-158.2599348153405
 31
0.0
  0
ARC
  5
398
330
23
100
AcDbEntity
  8
0
100
AcDbCircle
 10
310.6953670708509
 20
-156.9996697872896
 30
0.0
 40
1.14353822287388
100
AcDbArc
 50
38.99999999999725
 51
212.9999999999983
  0
LINE
  5
399
330
23
100
AcDbEntity
  8
0
100
AcDbLine
 10
313.5269280861713
 20
-154.7067168880655
 30
0.0
 11
315.0105264324341
 21
-156.5388082673057
 31
0.0
  0
ARC
  5
39A
330
23
100
AcDbEntity
  8
0
100
AcDbCircle
 10
314.2333804709772
 20
-157.1681286583554
 30
0.0
 40
1.0
100
AcDbArc
 50
308.9999999999982
 51
38.99999999999757
  0
LINE
  5
39B
330
23
100
AcDbEntity
  8
0
100
AcDbLine
 10
315.224227829786
 20
-153.1784613345297
 30
0.0
 11
316.8912045655142
 21
-154.8454380702581
 31
0.0
  0
ARC
  5
39C
330
23
100
AcDbEntity
  8
0
100
AcDbCircle
 10
317.598311346701
 20
-154.1383312890714
 30
0.0
 40
1.0
100
AcDbArc
 50
224.9999999999954
 51
314.9999999999959
  0
LINE
  5
39D
330
23
100
AcDbEntity
  8
0
100
AcDbLine
 10
318.6589715184843
 20
-154.4918846796612
 30
0.0
 11
318.3054181278874
 21
-154.8454380702581
 31
0.0
  0
ARC
  5
39E
330
23
100
AcDbEntity
  8
0
100
AcDbCircle
 10
314.4156241978496
 20
-153.987064966466
 30
0.0
 40
1.14353822287388
100
AcDbArc
 50
44.99999999999539
 51
218.9999999999976
  0
LINE
  5
39F
330
23
100
AcDbEntity
  8
0
100
AcDbLine
 10
316.991994782756
 20
-151.4106943815597
 30
0.0
 11
318.6589715184843
 21
-153.0776711172882
 31
0.0
  0
ARC
  5
3A0
330
23
100
AcDbEntity
  8
0
100
AcDbCircle
 10
317.9518647372978
 20
-153.7847778984746
 30
0.0
 40
1.0
100
AcDbArc
 50
314.9999999999959
 51
44.99999999999539
  0
LINE
  5
3A1
330
23
100
AcDbEntity
  8
0
100
AcDbLine
 10
318.5202503362924
 20
-149.7133946379454
 30
0.0
 11
320.3523417155322
 21
-151.1969929842082
 31
0.0
  0
ARC
  5
3A2
330
23
100
AcDbEntity
  8
0
100
AcDbCircle
 10
320.9816621065821
 20
-150.4198470227513
 30
0.0
 40
1.0
100
AcDbArc
 50
230.9999999999972
 51
320.9999999999969
  0
LINE
  5
3A3
330
23
100
AcDbEntity
  8
0
100
AcDbLine
 10
322.0734682635673
 20
-150.6605944330687
 30
0.0
 11
321.7588080680391
 21
-151.0491674138011
 31
0.0
  0
ARC
  5
3A4
330
23
100
AcDbEntity
  8
0
100
AcDbCircle
 10
317.8005984146961
 20
-150.6020907496195
 30
0.0
 40
1.14353822287388
100
AcDbArc
 50
50.99999999999722
 51
224.9999999999954
  0
LINE
  5
3A5
330
23
100
AcDbEntity
  8
0
100
AcDbLine
 10
320.0935513139201
 20
-147.770529734299
 30
0.0
 11
321.9256426931601
 21
-149.2541280805619
 31
0.0
  0
ARC
  5
3A6
330
23
100
AcDbEntity
  8
0
100
AcDbCircle
 10
321.2963223021103
 20
-150.0312740420189
 30
0.0
 40
1.0
100
AcDbArc
 50
320.9999999999969
 51
50.99999999999722
  0
LINE
  5
3A7
330
23
100
AcDbEntity
  8
0
100
AcDbLine
 10
321.4360187897256
 20
-145.9227817717802
 30
0.0
 11
323.4131520359365
 21
-147.2067471146329
 31
0.0
  0
ARC
  5
3A8
330
23
100
AcDbEntity
  8
0
100
AcDbCircle
 10
323.9577910709515
 20
-146.3680765466876
 30
0.0
 40
1.0
100
AcDbArc
 50
236.9999999999983
 51
326.9999999999958
  0
LINE
  5
3A9
330
23
100
AcDbEntity
  8
0
100
AcDbLine
 10
325.0687811564072
 20
-146.4933802977256
 30
0.0
 11
324.796461638897
 21
-146.9127155817026
 31
0.0
  0
ARC
  5
3AA
330
23
100
AcDbEntity
  8
0
100
AcDbCircle
 10
320.8132032355197
 20
-146.881833622621
 30
0.0
 40
1.14353822287388
100
AcDbArc
 50
56.99999999999803
 51
230.9999999999972
  0
LINE
  5
3AB
330
23
100
AcDbEntity
  8
0
100
AcDbLine
 10
322.797616377266
 20
-143.8261053519124
 30
0.0
 11
324.774749623477
 21
-145.1100706947651
 31
0.0
  0
ARC
  5
3AC
330
23
100
AcDbEntity
  8
0
100
AcDbCircle
 10
324.2301105884619
 20
-145.9487412627105
 30
0.0
 40
1.0
100
AcDbArc
 50
326.9999999999958
 51
56.99999999999825
  0
LINE
  5
3AD
330
23
100
AcDbEntity
  8
0
100
AcDbLine
 10
323.9395874207463
 20
-141.8481534838327
 30
0.0
 11
326.0401006483407
 21
-142.9184184302918
 31
0.0
  0
ARC
  5
3AE
330
23
100
AcDbEntity
  8
0
100
AcDbCircle
 10
326.4940911480804
 20
-142.0274119061035
 30
0.0
 40
1.0
100
AcDbArc
 50
242.9999999999981
 51
332.9999999999975
  0
LINE
  5
3AF
330
23
100
AcDbEntity
  8
0
100
AcDbLine
 10
327.6120929221408
 20
-142.0358991437444
 30
0.0
 11
327.3850976722688
 21
-142.4814024058431
 31
0.0
  0
ARC
  5
3B0
330
23
100
AcDbEntity
  8
0
100
AcDbCircle
 10
323.4204319314748
 20
-142.8670535010675
 30
0.0
 40
1.14353822287388
100
AcDbArc
 50
62.99999999999805
 51
236.9999999999983
  0
LINE
  5
3B1
330
23
100
AcDbEntity
  8
0
100
AcDbLine
 10
325.0745636700973
 20
-139.6206371733573
 30
0.0
 11
327.1750768976921
 21
-140.6909021198166
 31
0.0
  0
ARC
  5
3B2
330
23
100
AcDbEntity
  8
0
100
AcDbCircle
 10
326.7210863979524
 20
-141.5819086440049
 30
0.0
 40
1.0
100
AcDbArc
 50
332.9999999999975
 51
62.99999999999805
  0
LINE
  5
3B3
330
23
100
AcDbEntity
  8
0
100
AcDbLine
 10
326.0035266075274
 20
-137.5341522542962
 30
0.0
 11
328.2044061540234
 21
-138.3789907576412
 31
0.0
  0
ARC
  5
3B4
330
23
100
AcDbEntity
  8
0
100
AcDbCircle
 10
328.5627741035688
 20
-137.4454103311441
 30
0.0
 40
1.0
100
AcDbArc
 50
248.9999999999959
 51
338.9999999999975
  0
LINE
  5
3B5
330
23
100
AcDbEntity
  8
0
100
AcDbLine
 10
329.6755385048405
 20
-137.336988067436
 30
0.0
 11
329.496354530066
 21
-137.8037782806893
 31
0.0
  0
ARC
  5
3B6
330
23
100
AcDbEntity
  8
0
100
AcDbCircle
 10
325.5937191593712
 20
-138.6017371561179
 30
0.0
 40
1.14353822287388
100
AcDbArc
 50
68.99999999999578
 51
242.9999999999981
  0
LINE
  5
3B7
330
23
100
AcDbEntity
  8
0
100
AcDbLine
 10
326.8994464813923
 20
-135.2002011880484
 30
0.0
 11
329.1003260278885
 21
-136.0450396913935
 31
0.0
  0
ARC
  5
3B8
330
23
100
AcDbEntity
  8
0
100
AcDbCircle
 10
328.7419580783433
 20
-136.9786201178907
 30
0.0
 40
1.0
100
AcDbArc
 50
338.9999999999975
 51
68.99999999999592
  0
LINE
  5
3B9
330
23
100
AcDbEntity
  8
0
100
AcDbLine
 10
327.6052234004315
 20
-133.0280431834044
 30
0.0
 11
329.882355968954
 21
-133.6381990161987
 31
0.0
  0
ARC
  5
3BA
330
23
100
AcDbEntity
  8
0
100
AcDbCircle
 10
330.1411750140567
 20
-132.6722731899097
 30
0.0
 40
1.0
100
AcDbArc
 50
254.9999999999954
 51
344.9999999999965
  0
LINE
  5
3BB
330
23
100
AcDbEntity
  8
0
100
AcDbLine
 10
331.2365103628982
 20
-132.4481293218628
 30
0.0
 11
331.1071008403457
 21
-132.9310922350121
 31
0.0
  0
ARC
  5
3BC
330
23
100
AcDbEntity
  8
0
100
AcDbCircle
 10
327.3092539295504
 20
-134.132616286222
 30
0.0
 40
1.14353822287388
100
AcDbArc
 50
74.99999999999537
 51
248.9999999999959
  0
LINE
  5
3BD
330
23
100
AcDbEntity
  8
0
100
AcDbLine
 10
328.252271013189
 20
-130.6132286176768
 30
0.0
 11
330.5294035817117
 21
-131.2233844504712
 31
0.0
  0
ARC
  5
3BE
330
23
100
AcDbEntity
  8
0
100
AcDbCircle
 10
330.2705845366091
 20
-132.1893102767602
 30
0.0
 40
1.0
100
AcDbArc
 50
344.9999999999965
 51
74.99999999999537
  0
LINE
  5
3BF
330
23
100
AcDbEntity
  8
0
100
AcDbLine
 10
328.7271292742191
 20
-128.3791961451019
 30
0.0
 11
331.0555661238267
 21
-128.7479843123582
 31
0.0
  0
ARC
  5
3C0
330
23
100
AcDbEntity
  8
0
100
AcDbCircle
 10
331.212000588867
 20
-127.760295971763
 30
0.0
 40
1.0
100
AcDbArc
 50
260.9999999999981
 51
350.9999999999969
  0
LINE
  5
3C1
330
23
100
AcDbEntity
  8
0
100
AcDbLine
 10
332.277906161983
 20
-127.4228862665007
 30
0.0
 11
332.1996889294621
 21
-127.9167304368032
 31
0.0
  0
ARC
  5
3C2
330
23
100
AcDbEntity
  8
0
100
AcDbCircle
 10
328.5482404840715
 20
-129.5086555148543
 30
0.0
 40
1.14353822287388
100
AcDbArc
 50
80.99999999999814
 51
254.9999999999954
  0
LINE
  5
3C3
330
23
100
AcDbEntity
  8
0
100
AcDbLine
 10
329.1182154368204
 20
-125.909975293609
 30
0.0
 11
331.4466522864282
 21
-126.2787634608653
 31
0.0
  0
ARC
  5
3C4
330
23
100
AcDbEntity
  8
0
100
AcDbCircle
 10
331.290217821388
 20
-127.2664518014603
 30
0.0
 40
1.0
100
AcDbArc
 50
350.9999999999969
 51
80.99999999999814
  0
LINE
  5
3C5
330
23
100
AcDbEntity
  8
0
100
AcDbLine
 10
329.3569523933631
 20
-123.6385448803741
 30
0.0
 11
331.7111826826747
 21
-123.7619248617579
 31
0.0
  0
ARC
  5
3C6
330
23
100
AcDbEntity
  8
0
100
AcDbCircle
 10
331.7635186389178
 20
-122.7632953270032
 30
0.0
 40
1.0
100
AcDbArc
 50
266.9999999999977
 51
356.9999999999968
  0
LINE
  5
3C7
330
23
100
AcDbEntity
  8
0
100
AcDbLine
 10
332.7883161517941
 20
-122.3163165158639
 30
0.0
 11
332.7621481736723
 21
-122.8156312832463
 31
0.0
  0
ARC
  5
3C8
330
23
100
AcDbEntity
  8
0
100
AcDbCircle
 10
329.2971042269688
 20
-124.7805159238515
 30
0.0
 40
1.14353822287388
100
AcDbArc
 50
86.99999999999766
 51
260.9999999999981
  0
LINE
  5
3C9
330
23
100
AcDbEntity
  8
0
100
AcDbLine
 10
329.4877922839705
 20
-121.1419710434826
 30
0.0
 11
331.8420225732824
 21
-121.2653510248664
 31
0.0
  0
ARC
  5
3CA
330
23
100
AcDbEntity
  8
0
100
AcDbCircle
 10
331.7896866170394
 20
-122.263980559621
 30
0.0
 40
1.0
100
AcDbArc
 50
356.9999999999968
 51
86.99999999999766
  0
LINE
  5
3CB
330
23
100
AcDbEntity
  8
0
100
AcDbLine
 10
329.4877922839709
 20
-118.8580289565225
 30
0.0
 11
331.8420225732825
 21
-118.7346489751389
 31
0.0
  0
ARC
  5
3CC
330
23
100
AcDbEntity
  8
0
100
AcDbCircle
 10
331.7896866170397
 20
-117.7360194403843
 30
0.0
 40
1.0
100
AcDbArc
 50
272.9999999999958
 51
2.999999999996649
  0
LINE
  5
3CD
330
23
100
AcDbEntity
  8
0
100
AcDbLine
 10
332.7621481736725
 20
-117.1843687167591
 30
0.0
 11
332.7883161517942
 21
-117.6836834841414
 31
0.0
  0
ARC
  5
3CE
330
23
100
AcDbEntity
  8
0
100
AcDbCircle
 10
329.5476404503651
 20
-120.0
 30
0.0
 40
1.14353822287388
100
AcDbArc
 50
92.99999999999583
 51
266.9999999999977
  0
LINE
  5
3CF
330
23
100
AcDbEntity
  8
0
100
AcDbLine
 10
329.3569523933632
 20
-116.361455119631
 30
0.0
 11
331.7111826826751
 21
-116.2380751382474
 31
0.0
  0
ARC
  5
3D0
330
23
100
AcDbEntity
  8
0
100
AcDbCircle
 10
331.763518638918
 20
-117.2367046730019
 30
0.0
 40
1.0
100
AcDbArc
 50
2.999999999996649
 51
92.99999999999583
  0
LINE
  5
3D1
330
23
100
AcDbEntity
  8
0
100
AcDbLine
 10
329.1182154368213
 20
-114.090024706396
 30
0.0
 11
331.4466522864289
 21
-113.7212365391401
 31
0.0
  0
ARC
  5
3D2
330
23
100
AcDbEntity
  8
0
100
AcDbCircle
 10
331.2902178213888
 20
-112.7335481985448
 30
0.0
 40
1.0
100
AcDbArc
 50
278.9999999999953
 51
8.999999999997092
  0
LINE
  5
3D3
330
23
100
AcDbEntity
  8
0
100
AcDbLine
 10
332.199688929463
 20
-112.083269563202
 30
0.0
 11
332.2779061619839
 21
-112.5771137335047
 31
0.0
  0
ARC
  5
3D4
330
23
100
AcDbEntity
  8
0
100
AcDbCircle
 10
329.2971042269688
 20
-115.2194840761484
 30
0.0
 40
1.14353822287388
100
AcDbArc
 50
98.99999999999529
 51
272.9999999999958
  0
LINE
  5
3D5
330
23
100
AcDbEntity
  8
0
100
AcDbLine
 10
328.7271292742198
 20
-111.6208038549032
 30
0.0
 11
331.0555661238277
 21
-111.2520156876472
 31
0.0
  0
ARC
  5
3D6
330
23
100
AcDbEntity
  8
0
100
AcDbCircle
 10
331.2120005888679
 20
-112.2397040282423
 30
0.0
 40
1.0
100
AcDbArc
 50
8.999999999997092
 51
98.99999999999529
  0
LINE
  5
3D7
330
23
100
AcDbEntity
  8
0
100
AcDbLine
 10
328.2522710131905
 20
-109.3867713823281
 30
0.0
 11
330.529403581713
 21
-108.7766155495341
 31
0.0
  0
ARC
  5
3D8
330
23
100
AcDbEntity
  8
0
100
AcDbCircle
 10
330.2705845366106
 20
-107.8106897232449
 30
0.0
 40
1.0
100
AcDbArc
 50
284.9999999999978
 51
14.99999999999642
  0
LINE
  5
3D9
330
23
100
AcDbEntity
  8
0
100
AcDbLine
 10
331.1071008403471
 20
-107.068907764993
 30
0.0
 11
331.2365103628996
 21
-107.5518706781425
 31
0.0
  0
ARC
  5
3DA
330
23
100
AcDbEntity
  8
0
100
AcDbCircle
 10
328.5482404840716
 20
-110.4913444851458
 30
0.0
 40
1.14353822287388
100
AcDbArc
 50
104.9999999999978
 51
278.9999999999953
  0
LINE
  5
3DB
330
23
100
AcDbEntity
  8
0
100
AcDbLine
 10
327.6052234004327
 20
-106.9719568166006
 30
0.0
 11
329.8823559689555
 21
-106.3618009838064
 31
0.0
  0
ARC
  5
3DC
330
23
100
AcDbEntity
  8
0
100
AcDbCircle
 10
330.141175014058
 20
-107.3277268100955
 30
0.0
 40
1.0
100
AcDbArc
 50
14.99999999999642
 51
104.9999999999978
  0
LINE
  5
3DD
330
23
100
AcDbEntity
  8
0
100
AcDbLine
 10
326.8994464813943
 20
-104.7997988119563
 30
0.0
 11
329.1003260278903
 21
-103.9549603086115
 31
0.0
  0
ARC
  5
3DE
330
23
100
AcDbEntity
  8
0
100
AcDbCircle
 10
328.7419580783451
 20
-103.0213798821143
 30
0.0
 40
1.0
100
AcDbArc
 50
290.9999999999971
 51
20.99999999999756
  0
LINE
  5
3DF
330
23
100
AcDbEntity
  8
0
100
AcDbLine
 10
329.4963545300678
 20
-102.1962217193157
 30
0.0
 11
329.6755385048423
 21
-102.663011932569
 31
0.0
  0
ARC
  5
3E0
330
23
100
AcDbEntity
  8
0
100
AcDbCircle
 10
327.3092539295504
 20
-105.867383713778
 30
0.0
 40
1.14353822287388
100
AcDbArc
 50
110.9999999999971
 51
284.9999999999978
  0
LINE
  5
3E1
330
23
100
AcDbEntity
  8
0
100
AcDbLine
 10
326.0035266075291
 20
-102.4658477457087
 30
0.0
 11
328.2044061540255
 21
-101.6210092423638
 31
0.0
  0
ARC
  5
3E2
330
23
100
AcDbEntity
  8
0
100
AcDbCircle
 10
328.5627741035706
 20
-102.554589668861
 30
0.0
 40
1.0
100
AcDbArc
 50
20.99999999999756
 51
110.9999999999971
  0
LINE
  5
3E3
330
23
100
AcDbEntity
  8
0
100
AcDbLine
 10
325.0745636700998
 20
-100.3793628266473
 30
0.0
 11
327.1750768976944
 21
-99.30909788018841
 31
0.0
  0
ARC
  5
3E4
330
23
100
AcDbEntity
  8
0
100
AcDbCircle
 10
326.7210863979549
 20
-98.41809135599994
 30
0.0
 40
1.0
100
AcDbArc
 50
296.9999999999981
 51
26.99999999999592
  0
LINE
  5
3E5
330
23
100
AcDbEntity
  8
0
100
AcDbLine
 10
327.3850976722712
 20
-97.5185975941617
 30
0.0
 11
327.6120929221432
 21
-97.96410085626035
 31
0.0
  0
ARC
  5
3E6
330
23
100
AcDbEntity
  8
0
100
AcDbCircle
 10
325.5937191593712
 20
-101.3982628438822
 30
0.0
 40
1.14353822287388
100
AcDbArc
 50
116.9999999999981
 51
290.9999999999971
  0
LINE
  5
3E7
330
23
100
AcDbEntity
  8
0
100
AcDbLine
 10
323.9395874207485
 20
-98.15184651617194
 30
0.0
 11
326.0401006483434
 21
-97.08158156971286
 31
0.0
  0
ARC
  5
3E8
330
23
100
AcDbEntity
  8
0
100
AcDbCircle
 10
326.4940911480828
 20
-97.97258809390122
 30
0.0
 40
1.0
100
AcDbArc
 50
26.99999999999592
 51
116.9999999999981
  0
LINE
  5
3E9
330
23
100
AcDbEntity
  8
0
100
AcDbLine
 10
322.7976163772688
 20
-96.17389464809178
 30
0.0
 11
324.7747496234797
 21
-94.88992930523943
 31
0.0
  0
ARC
  5
3EA
330
23
100
AcDbEntity
  8
0
100
AcDbCircle
 10
324.2301105884647
 20
-94.05125873729392
 30
0.0
 40
1.0
100
AcDbArc
 50
302.9999999999977
 51
32.99999999999801
  0
LINE
  5
3EB
330
23
100
AcDbEntity
  8
0
100
AcDbLine
 10
324.7964616388999
 20
-93.08728441830192
 30
0.0
 11
325.0687811564101
 21
-93.50661970227889
 31
0.0
  0
ARC
  5
3EC
330
23
100
AcDbEntity
  8
0
100
AcDbCircle
 10
323.4204319314748
 20
-97.13294649893251
 30
0.0
 40
1.14353822287388
100
AcDbArc
 50
122.9999999999977
 51
296.9999999999981
  0
LINE
  5
3ED
330
23
100
AcDbEntity
  8
0
100
AcDbLine
 10
321.4360187897284
 20
-94.07721822822413
 30
0.0
 11
323.4131520359395
 21
-92.79325288537155
 31
0.0
  0
ARC
  5
3EE
330
23
100
AcDbEntity
  8
0
100
AcDbCircle
 10
323.9577910709545
 20
-93.63192345331695
 30
0.0
 40
1.0
100
AcDbArc
 50
32.99999999999801
 51
122.9999999999977
  0
LINE
  5
3EF
330
23
100
AcDbEntity
  8
0
100
AcDbLine
 10
320.0935513139234
 20
-92.22947026570494
 30
0.0
 11
321.9256426931635
 21
-90.74587191944237
 31
0.0
  0
ARC
  5
3F0
330
23
100
AcDbEntity
  8
0
100
AcDbCircle
 10
321.2963223021137
 20
-89.96872595798533
 30
0.0
 40
1.0
100
AcDbArc
 50
308.9999999999982
 51
38.99999999999725
  0
LINE
  5
3F1
330
23
100
AcDbEntity
  8
0
100
AcDbLine
 10
321.7588080680426
 20
-88.95083258620308
 30
0.0
 11
322.0734682635706
 21
-89.33940556693551
 31
0.0
  0
ARC
  5
3F2
330
23
100
AcDbEntity
  8
0
100
AcDbCircle
 10
320.8132032355197
 20
-93.1181663773791
 30
0.0
 40
1.14353822287388
100
AcDbArc
 50
128.9999999999946
 51
302.9999999999977
  0
LINE
  5
3F3
330
23
100
AcDbEntity
  8
0
100
AcDbLine
 10
318.5202503362956
 20
-90.28660536205865
 30
0.0
 11
320.3523417155357
 21
-88.8030070157959
 31
0.0
  0
ARC
  5
3F4
330
23
100
AcDbEntity
  8
0
100
AcDbCircle
 10
320.9816621065855
 20
-89.58015297725285
 30
0.0
 40
1.0
100
AcDbArc
 50
38.99999999999725
 51
128.9999999999982
  0
LINE
  5
3F5
330
23
100
AcDbEntity
  8
0
100
AcDbLine
 10
316.9919947827597
 20
-88.58930561844392
 30
0.0
 11
318.6589715184881
 21
-86.92232888271576
 31
0.0
  0
ARC
  5
3F6
330
23
100
AcDbEntity
  8
0
100
AcDbCircle
 10
317.9518647373015
 20
-86.21522210152908
 30
0.0
 40
1.0
100
AcDbArc
 50
314.9999999999959
 51
44.99999999999539
  0
LINE
  5
3F7
330
23
100
AcDbEntity
  8
0
100
AcDbLine
 10
318.3054181278913
 20
-85.15456192974573
 30
0.0
 11
318.6589715184881
 21
-85.50811532034259
 31
0.0
  0
ARC
  5
3F8
330
23
100
AcDbEntity
  8
0
100
AcDbCircle
 10
317.8005984146962
 20
-89.39790925038044
 30
0.0
 40
1.14353822287388
100
AcDbArc
 50
134.9999999999959
 51
308.9999999999982
  0
LINE
  5
3F9
330
23
100
AcDbEntity
  8
0
100
AcDbLine
 10
315.2242278297897
 20
-86.82153866547407
 30
0.0
 11
316.8912045655182
 21
-85.15456192974568
 31
0.0
  0
ARC
  5
3FA
330
23
100
AcDbEntity
  8
0
100
AcDbCircle
 10
317.5983113467047
 20
-85.86166871093226
 30
0.0
 40
1.0
100
AcDbArc
 50
44.99999999999539
 51
134.9999999999959
  0
LINE
  5
3FB
330
23
100
AcDbEntity
  8
0
100
AcDbLine
 10
313.5269280861755
 20
-85.29328311193763
 30
0.0
 11
315.0105264324383
 21
-83.46119173269784
 31
0.0
  0
ARC
  5
3FC
330
23
100
AcDbEntity
  8
0
100
AcDbCircle
 10
314.2333804709814
 20
-82.83187134164789
 30
0.0
 40
1.0
100
AcDbArc
 50
320.9999999999969
 51
50.99999999999722
  0
LINE
  5
3FD
330
23
100
AcDbEntity
  8
0
100
AcDbLine
 10
314.4741278812988
 20
-81.74006518466285
 30
0.0
 11
314.8627008620312
 21
-82.05472538019098
 31
0.0
  0
ARC
  5
3FE
330
23
100
AcDbEntity
  8
0
100
AcDbCircle
 10
314.4156241978496
 20
-86.01293503353389
 30
0.0
 40
1.14353822287388
100
AcDbArc
 50
140.9999999999969
 51
314.9999999999959
  0
LINE
  5
3FF
330
23
100
AcDbEntity
  8
0
100
AcDbLine
 10
311.5840631825291
 20
-83.71998213430993
 30
0.0
 11
313.067661528792
 21
-81.88789075506994
 31
0.0
  0
ARC
  5
400
330
23
100
AcDbEntity
  8
0
100
AcDbCircle
 10
313.844807490249
 20
-82.51721114611973
 30
0.0
 40
1.0
100
AcDbArc
 50
50.99999999999722
 51
140.9999999999969
  0
LINE
  5
401
330
23
100
AcDbEntity
  8
0
100
AcDbLine
 10
309.7363152200103
 20
-82.37751465850436
 30
0.0
 11
311.0202805628631
 21
-80.40038141229363
 31
0.0
  0
ARC
  5
402
330
23
100
AcDbEntity
  8
0
100
AcDbCircle
 10
310.1816099949177
 20
-79.85574237727849
 30
0.0
 40
1.0
100
AcDbArc
 50
326.9999999999955
 51
56.99999999999803
  0
LINE
  5
403
330
23
100
AcDbEntity
  8
0
100
AcDbLine
 10
310.3069137459558
 20
-78.74475229182284
 30
0.0
 11
310.7262490299327
 21
-79.01707180933311
 31
0.0
  0
ARC
  5
404
330
23
100
AcDbEntity
  8
0
100
AcDbCircle
 10
310.695367070851
 20
-83.00033021271046
 30
0.0
 40
1.14353822287388
100
AcDbArc
 50
146.9999999999954
 51
320.9999999999969
  0
LINE
  5
405
330
23
100
AcDbEntity
  8
0
100
AcDbLine
 10
307.6396388001426
 20
-81.01591707096412
 30
0.0
 11
308.9236041429954
 21
-79.03878382475318
 31
0.0
  0
ARC
  5
406
330
23
100
AcDbEntity
  8
0
100
AcDbCircle
 10
309.7622747109407
 20
-79.58342285976823
 30
0.0
 40
1.0
100
AcDbArc
 50
56.99999999999803
 51
146.9999999999954
  0
LINE
  5
407
330
23
100
AcDbEntity
  8
0
100
AcDbLine
 10
305.6616869320628
 20
-79.87394602748373
 30
0.0
 11
306.7319518785221
 21
-77.77343279988929
 31
0.0
  0
ARC
  5
408
330
23
100
AcDbEntity
  8
0
100
AcDbCircle
 10
305.8409453543337
 20
-77.31944230014966
 30
0.0
 40
1.0
100
AcDbArc
 50
332.9999999999972
 51
62.99999999999805
  0
LINE
  5
409
330
23
100
AcDbEntity
  8
0
100
AcDbLine
 10
305.8494325919746
 20
-76.20144052608925
 30
0.0
 11
306.2949358540732
 21
-76.42843577596133
 31
0.0
  0
ARC
  5
40A
330
23
100
AcDbEntity
  8
0
100
AcDbCircle
 10
306.6805869492976
 20
-80.39310151675525
 30
0.0
 40
1.14353822287388
100
AcDbArc
 50
152.9999999999971
 51
326.9999999999955
  0
LINE
  5
40B
330
23
100
AcDbEntity
  8
0
100
AcDbLine
 10
303.4341706215873
 20
-78.73896977813268
 30
0.0
 11
304.5044355680466
 21
-76.63845655053799
 31
0.0
  0
ARC
  5
40C
330
23
100
AcDbEntity
  8
0
100
AcDbCircle
 10
305.3954420922349
 20
-77.09244705027751
 30
0.0
 40
1.0
100
AcDbArc
 50
62.99999999999805
 51
152.9999999999971
  0
LINE
  5
40D
330
23
100
AcDbEntity
  8
0
100
AcDbLine
 10
301.3476857025263
 20
-77.81000684070261
 30
0.0
 11
302.1925242058713
 21
-75.60912729420664
 31
0.0
  0
ARC
  5
40E
330
23
100
AcDbEntity
  8
0
100
AcDbCircle
 10
301.2589437793741
 20
-75.25075934466125
 30
0.0
 40
1.0
100
AcDbArc
 50
338.9999999999975
 51
68.99999999999578
  0
LINE
  5
40F
330
23
100
AcDbEntity
  8
0
100
AcDbLine
 10
301.1505215156661
 20
-74.13799494338957
 30
0.0
 11
301.6173117289195
 21
-74.31717891816408
 31
0.0
  0
ARC
  5
410
330
23
100
AcDbEntity
  8
0
100
AcDbCircle
 10
302.415270604348
 20
-78.2198142888588
 30
0.0
 40
1.14353822287388
100
AcDbArc
 50
158.9999999999971
 51
332.9999999999975
  0
LINE
  5
411
330
23
100
AcDbEntity
  8
0
100
AcDbLine
 10
299.0137346362786
 20
-76.91408696683765
 30
0.0
 11
299.8585731396237
 21
-74.71320742034143
 31
0.0
  0
ARC
  5
412
330
23
100
AcDbEntity
  8
0
100
AcDbCircle
 10
300.7921535661207
 20
-75.07157536988677
 30
0.0
 40
1.0
100
AcDbArc
 50
68.99999999999578
 51
158.9999999999975
  0
LINE
  5
413
330
23
100
AcDbEntity
  8
0
100
AcDbLine
 10
296.8415766316345
 20
-76.20831004779839
 30
0.0
 11
297.4517324644289
 21
-73.93117747927596
 31
0.0
  0
ARC
  5
414
330
23
100
AcDbEntity
  8
0
100
AcDbCircle
 10
296.4858066381398
 20
-73.67235843417336
 30
0.0
 40
1.0
100
AcDbArc
 50
344.999999999996
 51
74.99999999999537
  0
LINE
  5
415
330
23
100
AcDbEntity
  8
0
100
AcDbLine
 10
296.2616627700929
 20
-72.57702308533172
 30
0.0
 11
296.7446256832423
 21
-72.70643260788432
 31
0.0
  0
ARC
  5
416
330
23
100
AcDbEntity
  8
0
100
AcDbCircle
 10
297.9461497344521
 20
-76.5042795186796
 30
0.0
 40
1.14353822287388
100
AcDbArc
 50
164.9999999999956
 51
338.9999999999975
  0
LINE
  5
417
330
23
100
AcDbEntity
  8
0
100
AcDbLine
 10
294.4267620659069
 20
-75.5612624350409
 30
0.0
 11
295.0369178987013
 21
-73.28412986651821
 31
0.0
  0
ARC
  5
418
330
23
100
AcDbEntity
  8
0
100
AcDbCircle
 10
296.0028437249904
 20
-73.54294891162078
 30
0.0
 40
1.0
100
AcDbArc
 50
74.99999999999537
 51
164.999999999996
  0
LINE
  5
419
330
23
100
AcDbEntity
  8
0
100
AcDbLine
 10
292.1927295933321
 20
-75.08640417401079
 30
0.0
 11
292.5615177605883
 21
-72.75796732440326
 31
0.0
  0
ARC
  5
41A
330
23
100
AcDbEntity
  8
0
100
AcDbCircle
 10
291.5738294199931
 20
-72.60153285936297
 30
0.0
 40
1.0
100
AcDbArc
 50
350.9999999999965
 51
80.99999999999814
  0
LINE
  5
41B
330
23
100
AcDbEntity
  8
0
100
AcDbLine
 10
291.2364197147308
 20
-71.53562728624689
 30
0.0
 11
291.7302638850334
 21
-71.61384451876782
 31
0.0
  0
ARC
  5
41C
330
23
100
AcDbEntity
  8
0
100
AcDbCircle
 10
293.3221889630844
 20
-75.26529296415839
 30
0.0
 40
1.14353822287388
100
AcDbArc
 50
170.9999999999961
 51
344.999999999996
  0
LINE
  5
41D
330
23
100
AcDbEntity
  8
0
100
AcDbLine
 10
289.7235087418391
 20
-74.69531801140954
 30
0.0
 11
290.0922969090954
 21
-72.36688116180173
 31
0.0
  0
ARC
  5
41E
330
23
100
AcDbEntity
  8
0
100
AcDbCircle
 10
291.0799852496905
 20
-72.52331562684202
 30
0.0
 40
1.0
100
AcDbArc
 50
80.99999999999814
 51
170.9999999999965
  0
LINE
  5
41F
330
23
100
AcDbEntity
  8
0
100
AcDbLine
 10
287.4520783286042
 20
-74.45658105486689
 30
0.0
 11
287.5754583099881
 21
-72.10235076555528
 31
0.0
  0
ARC
  5
420
330
23
100
AcDbEntity
  8
0
100
AcDbCircle
 10
286.5768287752334
 20
-72.05001480931224
 30
0.0
 40
1.0
100
AcDbArc
 50
356.9999999999964
 51
86.99999999999766
  0
LINE
  5
421
330
23
100
AcDbEntity
  8
0
100
AcDbLine
 10
286.1298499640941
 20
-71.02521729643592
 30
0.0
 11
286.6291647314764
 21
-71.05138527455768
 31
0.0
  0
ARC
  5
422
330
23
100
AcDbEntity
  8
0
100
AcDbCircle
 10
288.5940493720818
 20
-74.51642922126115
 30
0.0
 40
1.14353822287388
100
AcDbArc
 50
176.999999999996
 51
350.9999999999965
  0
ARC
  5
424
330
23
100
AcDbEntity
  8
0
100
AcDbCircle
 10
284.8135334482305
 20
-143.9791576165636
 30
0.0
 40
1.0
100
AcDbArc
 50
92.38801546326987
 51
180.0000000000057
  0
LINE
  5
425
330
23
100
AcDbEntity
  8
0
100
AcDbLine
 10
283.8135334482306
 20
-143.9791576165635
 30
0.0
 11
283.8135334482299
 21
-164.5905687792613
 31
0.0
  0
ARC
  5
426
330
23
100
AcDbEntity
  8
0
100
AcDbCircle
 10
283.8135334482299
 20
-120.0
 30
0.0
 40
23.0
100
AcDbArc
 50
272.3880154632666
 51
87.61198453673666
  0
CIRCLE
  5
444
330
23
100
AcDbEntity
  8
0
100
AcDbCircle
 10
240.0000000000012
 20
-29.72995187480003
 30
0.0
 40
2.0
  0
CIRCLE
  5
445
330
23
100
AcDbEntity
  8
0
100
AcDbCircle
 10
293.8135334482303
 20
-90.27004812519894
 30
0.0
 40
2.0
  0
CIRCLE
  5
446
330
23
100
AcDbEntity
  8
0
100
AcDbCircle
 10
293.8135334482303
 20
-149.729951874799
 30
0.0
 40
2.0
  0
LINE
  5
453
102
{ACAD_REACTORS
330
456
102
}
330
23
100
AcDbEntity
  8
0
100
AcDbLine
 10
241.6377650942646
 20
44.34260997943115
 30
0.0
 11
244.2418419981521
 21
44.81004212862952
 31
0.0
  0
LINE
  5
454
102
{ACAD_REACTORS
330
456
102
}
330
23
100
AcDbEntity
  8
0
100
AcDbLine
 10
242.7060874716092
 20
45.8783645059741
 30
0.0
 11
243.1735196208076
 21
43.2742876020866
 31
0.0
  0
CIRCLE
  5
455
102
{ACAD_REACTORS
330
456
102
}
330
23
100
AcDbEntity
  8
0
100
AcDbCircle
 10
242.9398035462084
 20
44.57632605403035
 30
0.0
 40
0.7639434064771138
  0
LINE
  5
457
102
{ACAD_REACTORS
330
45A
102
}
330
23
100
AcDbEntity
  8
0
100
AcDbLine
 10
234.8040056116676
 20
42.4885371242223
 30
0.0
 11
237.3028995094479
 21
43.35758178538811
 31
0.0
  0
LINE
  5
458
102
{ACAD_REACTORS
330
45A
102
}
330
23
100
AcDbEntity
  8
0
100
AcDbLine
 10
235.6189302299748
 20
44.17250640369537
 30
0.0
 11
236.4879748911406
 21
41.67361250591507
 31
0.0
  0
CIRCLE
  5
459
102
{ACAD_REACTORS
330
45A
102
}
330
23
100
AcDbEntity
  8
0
100
AcDbCircle
 10
236.0534525605578
 20
42.92305945480521
 30
0.0
 40
0.7639434064771138
  0
LINE
  5
45B
102
{ACAD_REACTORS
330
45E
102
}
330
23
100
AcDbEntity
  8
0
100
AcDbLine
 10
228.3444219435252
 20
39.58825547364491
 30
0.0
 11
230.6766017740817
 21
40.83751388302639
 31
0.0
  0
LINE
  5
45C
102
{ACAD_REACTORS
330
45E
102
}
330
23
100
AcDbEntity
  8
0
100
AcDbLine
 10
228.8858826541127
 20
41.37897459361385
 30
0.0
 11
230.1351410634942
 21
39.04679476305745
 31
0.0
  0
CIRCLE
  5
45D
102
{ACAD_REACTORS
330
45E
102
}
330
23
100
AcDbEntity
  8
0
100
AcDbCircle
 10
229.5105118588034
 20
40.21288467833564
 30
0.0
 40
0.7639434064771138
  0
LINE
  5
45F
102
{ACAD_REACTORS
330
462
102
}
330
23
100
AcDbEntity
  8
0
100
AcDbLine
 10
222.4180704778763
 20
35.71317958741911
 30
0.0
 11
224.5261102337195
 21
37.31189085692636
 31
0.0
  0
LINE
  5
460
102
{ACAD_REACTORS
330
462
102
}
330
23
100
AcDbEntity
  8
0
100
AcDbLine
 10
222.6727347210442
 20
37.5665551000943
 30
0.0
 11
224.2714459905515
 21
35.45851534425118
 31
0.0
  0
CIRCLE
  5
461
102
{ACAD_REACTORS
330
462
102
}
330
23
100
AcDbEntity
  8
0
100
AcDbCircle
 10
223.4720903557979
 20
36.51253522217274
 30
0.0
 40
0.7639434064771138
  0
LINE
  5
463
102
{ACAD_REACTORS
330
466
102
}
330
23
100
AcDbEntity
  8
0
100
AcDbLine
 10
217.170877656238
 20
30.95872669450336
 30
0.0
 11
219.0028704023961
 21
32.86752524686256
 31
0.0
  0
LINE
  5
464
102
{ACAD_REACTORS
330
466
102
}
330
23
100
AcDbEntity
  8
0
100
AcDbLine
 10
217.1324747531375
 20
32.82912234376201
 30
0.0
 11
219.0412733054967
 21
30.9971295976039
 31
0.0
  0
CIRCLE
  5
465
102
{ACAD_REACTORS
330
466
102
}
330
23
100
AcDbEntity
  8
0
100
AcDbCircle
 10
218.0868740293171
 20
31.91312597068296
 30
0.0
 40
0.7639434064771138
  0
LINE
  5
467
102
{ACAD_REACTORS
330
46A
102
}
330
23
100
AcDbEntity
  8
0
100
AcDbLine
 10
212.7320467803136
 20
25.44196720424571
 30
0.0
 11
214.242882775341
 21
27.61385208415862
 31
0.0
  0
LINE
  5
468
102
{ACAD_REACTORS
330
46A
102
}
330
23
100
AcDbEntity
  8
0
100
AcDbLine
 10
212.4015223378708
 20
27.28332764171586
 30
0.0
 11
214.5734072177837
 21
25.77249164668851
 31
0.0
  0
CIRCLE
  5
469
102
{ACAD_REACTORS
330
46A
102
}
330
23
100
AcDbEntity
  8
0
100
AcDbCircle
 10
213.4874647778273
 20
26.52790964420218
 30
0.0
 40
0.7639434064771138
  0
LINE
  5
46B
102
{ACAD_REACTORS
330
46E
102
}
330
23
100
AcDbEntity
  8
0
100
AcDbLine
 10
209.2108765979034
 20
19.29874204437141
 30
0.0
 11
210.3633540454253
 21
21.68023423802188
 31
0.0
  0
LINE
  5
46C
102
{ACAD_REACTORS
330
46E
102
}
330
23
100
AcDbEntity
  8
0
100
AcDbLine
 10
208.5963692248391
 20
21.06572686495756
 30
0.0
 11
210.9778614184896
 21
19.9132494174357
 31
0.0
  0
CIRCLE
  5
46D
102
{ACAD_REACTORS
330
46E
102
}
330
23
100
AcDbEntity
  8
0
100
AcDbCircle
 10
209.7871153216644
 20
20.48948814119662
 30
0.0
 40
0.7639434064771138
  0
LINE
  5
46F
102
{ACAD_REACTORS
330
472
102
}
330
23
100
AcDbEntity
  8
0
100
AcDbLine
 10
206.6940700049924
 20
12.68031780651188
 30
0.0
 11
207.4598110853973
 21
15.2127770723728
 31
0.0
  0
LINE
  5
470
102
{ACAD_REACTORS
330
472
102
}
330
23
100
AcDbEntity
  8
0
100
AcDbLine
 10
205.8107109122644
 20
14.3294179796448
 30
0.0
 11
208.3431701781253
 21
13.56367689923985
 31
0.0
  0
CIRCLE
  5
471
102
{ACAD_REACTORS
330
472
102
}
330
23
100
AcDbEntity
  8
0
100
AcDbCircle
 10
207.0769405451948
 20
13.94654743944234
 30
0.0
 40
0.7639434064771138
  0
LINE
  5
473
102
{ACAD_REACTORS
330
476
102
}
330
23
100
AcDbEntity
  8
0
100
AcDbLine
 10
205.2435991326999
 20
5.749662060693992
 30
0.0
 11
205.6037487592395
 21
8.370730846889415
 31
0.0
  0
LINE
  5
474
102
{ACAD_REACTORS
330
476
102
}
330
23
100
AcDbEntity
  8
0
100
AcDbLine
 10
204.113139552872
 20
7.240271267061473
 30
0.0
 11
206.7342083390674
 21
6.880121640521906
 31
0.0
  0
CIRCLE
  5
475
102
{ACAD_REACTORS
330
476
102
}
330
23
100
AcDbEntity
  8
0
100
AcDbCircle
 10
205.4236739459697
 20
7.060196453791689
 30
0.0
 40
0.7639434064771138
  0
LINE
  5
477
102
{ACAD_REACTORS
330
47A
102
}
330
23
100
AcDbEntity
  8
0
100
AcDbLine
 10
204.8951793877388
 20
-1.322569447092575
 30
0.0
 11
204.8408694813395
 21
1.322569447092661
 31
0.0
  0
LINE
  5
478
102
{ACAD_REACTORS
330
47A
102
}
330
23
100
AcDbEntity
  8
0
100
AcDbLine
 10
203.5454549874465
 20
-0.0271549531996129
 30
0.0
 11
206.1905938816318
 21
0.0271549531996982
 31
0.0
  0
CIRCLE
  5
479
102
{ACAD_REACTORS
330
47A
102
}
330
23
100
AcDbEntity
  8
0
100
AcDbCircle
 10
204.8680244345392
 20
0.0000000000000213
 30
0.0
 40
0.7639434064771138
  0
LINE
  5
47B
102
{ACAD_REACTORS
330
47E
102
}
330
23
100
AcDbEntity
  8
0
100
AcDbLine
 10
205.6573900205689
 20
-8.362234905735363
 30
0.0
 11
205.1899578713705
 21
-5.758158001847846
 31
0.0
  0
LINE
  5
47C
102
{ACAD_REACTORS
330
47E
102
}
330
23
100
AcDbEntity
  8
0
100
AcDbLine
 10
204.1216354940259
 20
-7.293912528390791
 30
0.0
 11
206.7257123979134
 21
-6.826480379192418
 31
0.0
  0
CIRCLE
  5
47D
102
{ACAD_REACTORS
330
47E
102
}
330
23
100
AcDbEntity
  8
0
100
AcDbCircle
 10
205.4236739459696
 20
-7.060196453791606
 30
0.0
 40
0.7639434064771138
  0
LINE
  5
47F
102
{ACAD_REACTORS
330
482
102
}
330
23
100
AcDbEntity
  8
0
100
AcDbLine
 10
207.5114628757777
 20
-15.19599438833242
 30
0.0
 11
206.6424182146119
 21
-12.69710049055209
 31
0.0
  0
LINE
  5
480
102
{ACAD_REACTORS
330
482
102
}
330
23
100
AcDbEntity
  8
0
100
AcDbLine
 10
205.8274935963047
 20
-14.38106977002516
 30
0.0
 11
208.326387494085
 21
-13.51202510885935
 31
0.0
  0
CIRCLE
  5
481
102
{ACAD_REACTORS
330
482
102
}
330
23
100
AcDbEntity
  8
0
100
AcDbCircle
 10
207.0769405451948
 20
-13.94654743944225
 30
0.0
 40
0.7639434064771138
  0
LINE
  5
483
102
{ACAD_REACTORS
330
486
102
}
330
23
100
AcDbEntity
  8
0
100
AcDbLine
 10
210.411744526355
 20
-21.65557805647475
 30
0.0
 11
209.1624861169736
 21
-19.32339822591831
 31
0.0
  0
LINE
  5
484
102
{ACAD_REACTORS
330
486
102
}
330
23
100
AcDbEntity
  8
0
100
AcDbLine
 10
208.6210254063861
 20
-21.11411734588731
 30
0.0
 11
210.9532052369425
 21
-19.86485893650578
 31
0.0
  0
CIRCLE
  5
485
102
{ACAD_REACTORS
330
486
102
}
330
23
100
AcDbEntity
  8
0
100
AcDbCircle
 10
209.7871153216643
 20
-20.48948814119652
 30
0.0
 40
0.7639434064771138
  0
LINE
  5
487
102
{ACAD_REACTORS
330
48A
102
}
330
23
100
AcDbEntity
  8
0
100
AcDbLine
 10
214.2868204125809
 20
-27.58192952212366
 30
0.0
 11
212.6881091430736
 21
-25.47388976628054
 31
0.0
  0
LINE
  5
488
102
{ACAD_REACTORS
330
48A
102
}
330
23
100
AcDbEntity
  8
0
100
AcDbLine
 10
212.4334448999057
 20
-27.32726527895571
 30
0.0
 11
214.5414846557488
 21
-25.72855400944846
 31
0.0
  0
CIRCLE
  5
489
102
{ACAD_REACTORS
330
48A
102
}
330
23
100
AcDbEntity
  8
0
100
AcDbCircle
 10
213.4874647778273
 20
-26.5279096442021
 30
0.0
 40
0.7639434064771138
  0
LINE
  5
48B
102
{ACAD_REACTORS
330
48E
102
}
330
23
100
AcDbEntity
  8
0
100
AcDbLine
 10
219.0412733054966
 20
-32.82912234376195
 30
0.0
 11
217.1324747531374
 21
-30.99712959760385
 31
0.0
  0
LINE
  5
48C
102
{ACAD_REACTORS
330
48E
102
}
330
23
100
AcDbEntity
  8
0
100
AcDbLine
 10
217.1708776562379
 20
-32.8675252468625
 30
0.0
 11
219.0028704023961
 21
-30.9587266945033
 31
0.0
  0
CIRCLE
  5
48D
102
{ACAD_REACTORS
330
48E
102
}
330
23
100
AcDbEntity
  8
0
100
AcDbCircle
 10
218.086874029317
 20
-31.91312597068292
 30
0.0
 40
0.7639434064771138
  0
LINE
  5
48F
102
{ACAD_REACTORS
330
492
102
}
330
23
100
AcDbEntity
  8
0
100
AcDbLine
 10
224.5580327957542
 20
-37.26795321968635
 30
0.0
 11
222.3861479158414
 21
-35.75711722465897
 31
0.0
  0
LINE
  5
490
102
{ACAD_REACTORS
330
492
102
}
330
23
100
AcDbEntity
  8
0
100
AcDbLine
 10
222.7166723582841
 20
-37.59847766212911
 30
0.0
 11
224.2275083533115
 21
-35.42659278221623
 31
0.0
  0
CIRCLE
  5
491
102
{ACAD_REACTORS
330
492
102
}
330
23
100
AcDbEntity
  8
0
100
AcDbCircle
 10
223.4720903557978
 20
-36.5125352221727
 30
0.0
 40
0.7639434064771138
  0
LINE
  5
493
102
{ACAD_REACTORS
330
496
102
}
330
23
100
AcDbEntity
  8
0
100
AcDbLine
 10
230.7012579556285
 20
-40.78912340209652
 30
0.0
 11
228.3197657619781
 21
-39.63664595457469
 31
0.0
  0
LINE
  5
494
102
{ACAD_REACTORS
330
496
102
}
330
23
100
AcDbEntity
  8
0
100
AcDbLine
 10
228.9342731350424
 20
-41.40363077516084
 30
0.0
 11
230.0867505825642
 21
-39.02213858151039
 31
0.0
  0
CIRCLE
  5
495
102
{ACAD_REACTORS
330
496
102
}
330
23
100
AcDbEntity
  8
0
100
AcDbCircle
 10
229.5105118588034
 20
-40.21288467833558
 30
0.0
 40
0.7639434064771138
  0
LINE
  5
497
102
{ACAD_REACTORS
330
49A
102
}
330
23
100
AcDbEntity
  8
0
100
AcDbLine
 10
237.3196821934882
 20
-43.30592999500765
 30
0.0
 11
234.7872229276272
 21
-42.54018891460269
 31
0.0
  0
LINE
  5
498
102
{ACAD_REACTORS
330
49A
102
}
330
23
100
AcDbEntity
  8
0
100
AcDbLine
 10
235.6705820203552
 20
-44.18928908773565
 30
0.0
 11
236.4363231007601
 21
-41.65682982187473
 31
0.0
  0
CIRCLE
  5
499
102
{ACAD_REACTORS
330
49A
102
}
330
23
100
AcDbEntity
  8
0
100
AcDbCircle
 10
236.0534525605577
 20
-42.92305945480516
 30
0.0
 40
0.7639434064771138
  0
LINE
  5
49B
102
{ACAD_REACTORS
330
49E
102
}
330
23
100
AcDbEntity
  8
0
100
AcDbLine
 10
244.250337939306
 20
-44.75640086730012
 30
0.0
 11
241.6292691531106
 21
-44.39625124076052
 31
0.0
  0
LINE
  5
49C
102
{ACAD_REACTORS
330
49E
102
}
330
23
100
AcDbEntity
  8
0
100
AcDbLine
 10
242.7597287329385
 20
-45.88686044712805
 30
0.0
 11
243.1198783594781
 21
-43.26579166093263
 31
0.0
  0
CIRCLE
  5
49D
102
{ACAD_REACTORS
330
49E
102
}
330
23
100
AcDbEntity
  8
0
100
AcDbCircle
 10
242.9398035462083
 20
-44.57632605403035
 30
0.0
 40
0.7639434064771138
  0
LINE
  5
49F
102
{ACAD_REACTORS
330
4A2
102
}
330
23
100
AcDbEntity
  8
0
100
AcDbLine
 10
251.3225694470925
 20
-45.10482061226122
 30
0.0
 11
248.6774305529073
 21
-45.1591305186605
 31
0.0
  0
LINE
  5
4A0
102
{ACAD_REACTORS
330
4A2
102
}
330
23
100
AcDbEntity
  8
0
100
AcDbLine
 10
250.0271549531996
 20
-46.45454501255348
 30
0.0
 11
249.9728450468003
 21
-43.80940611836826
 31
0.0
  0
CIRCLE
  5
4A1
102
{ACAD_REACTORS
330
4A2
102
}
330
23
100
AcDbEntity
  8
0
100
AcDbCircle
 10
250.0
 20
-45.13197556546088
 30
0.0
 40
0.7639434064771138
  0
LINE
  5
4EF
102
{ACAD_REACTORS
330
4F2
102
}
330
23
100
AcDbEntity
  8
0
100
AcDbLine
 10
248.6774305529074
 20
45.10482061226121
 30
0.0
 11
251.3225694470927
 21
45.15913051866049
 31
0.0
  0
LINE
  5
4F0
102
{ACAD_REACTORS
330
4F2
102
}
330
23
100
AcDbEntity
  8
0
100
AcDbLine
 10
249.9728450468004
 20
46.45454501255348
 30
0.0
 11
250.0271549531997
 21
43.80940611836826
 31
0.0
  0
CIRCLE
  5
4F1
102
{ACAD_REACTORS
330
4F2
102
}
330
23
100
AcDbEntity
  8
0
100
AcDbCircle
 10
250.0000000000001
 20
45.13197556546086
 30
0.0
 40
0.7639434064771138
  0
LINE
  5
4F3
102
{ACAD_REACTORS
330
4F6
102
}
330
23
100
AcDbEntity
  8
0
100
AcDbLine
 10
238.6774305529086
 20
29.7027969216004
 30
0.0
 11
241.3225694470939
 21
29.75710682799968
 31
0.0
  0
LINE
  5
4F4
102
{ACAD_REACTORS
330
4F6
102
}
330
23
100
AcDbEntity
  8
0
100
AcDbLine
 10
239.9728450468016
 20
31.05252132189266
 30
0.0
 11
240.0271549532009
 21
28.40738242770744
 31
0.0
  0
CIRCLE
  5
4F5
102
{ACAD_REACTORS
330
4F6
102
}
330
23
100
AcDbEntity
  8
0
100
AcDbCircle
 10
240.0000000000012
 20
29.72995187480004
 30
0.0
 40
0.7639434064771138
  0
LINE
  5
4F7
102
{ACAD_REACTORS
330
4FA
102
}
330
23
100
AcDbEntity
  8
0
100
AcDbLine
 10
238.6774305529086
 20
-29.75710682799967
 30
0.0
 11
241.3225694470939
 21
-29.70279692160039
 31
0.0
  0
LINE
  5
4F8
102
{ACAD_REACTORS
330
4FA
102
}
330
23
100
AcDbEntity
  8
0
100
AcDbLine
 10
239.9728450468016
 20
-28.4073824277074
 30
0.0
 11
240.0271549532009
 21
-31.05252132189263
 31
0.0
  0
CIRCLE
  5
4F9
102
{ACAD_REACTORS
330
4FA
102
}
330
23
100
AcDbEntity
  8
0
100
AcDbCircle
 10
240.0000000000012
 20
-29.72995187480002
 30
0.0
 40
0.7639434064771138
  0
LINE
  5
4FB
102
{ACAD_REACTORS
330
4FE
102
}
330
23
100
AcDbEntity
  8
0
100
AcDbLine
 10
292.4909640011378
 20
-90.29720307839857
 30
0.0
 11
295.1361028953229
 21
-90.24289317199929
 31
0.0
  0
LINE
  5
4FC
102
{ACAD_REACTORS
330
4FE
102
}
330
23
100
AcDbEntity
  8
0
100
AcDbLine
 10
293.7863784950307
 20
-88.94747867810631
 30
0.0
 11
293.84068840143
 21
-91.59261757229154
 31
0.0
  0
CIRCLE
  5
4FD
102
{ACAD_REACTORS
330
4FE
102
}
330
23
100
AcDbEntity
  8
0
100
AcDbCircle
 10
293.8135334482304
 20
-90.27004812519894
 30
0.0
 40
0.7639434064771138
  0
LINE
  5
4FF
102
{ACAD_REACTORS
330
502
102
}
330
23
100
AcDbEntity
  8
0
100
AcDbLine
 10
292.4909640011378
 20
-149.7571068279986
 30
0.0
 11
295.1361028953229
 21
-149.7027969215993
 31
0.0
  0
LINE
  5
500
102
{ACAD_REACTORS
330
502
102
}
330
23
100
AcDbEntity
  8
0
100
AcDbLine
 10
293.7863784950307
 20
-148.4073824277064
 30
0.0
 11
293.84068840143
 21
-151.0525213218916
 31
0.0
  0
CIRCLE
  5
501
102
{ACAD_REACTORS
330
502
102
}
330
23
100
AcDbEntity
  8
0
100
AcDbCircle
 10
293.8135334482304
 20
-149.729951874799
 30
0.0
 40
0.7639434064771138
  0
LINE
  5
503
102
{ACAD_REACTORS
330
506
102
}
330
23
100
AcDbEntity
  8
0
100
AcDbLine
 10
282.8612834463232
 20
-74.28544456416858
 30
0.0
 11
284.7657834501366
 21
-74.24634143156112
 31
0.0
  0
LINE
  5
504
102
{ACAD_REACTORS
330
506
102
}
330
23
100
AcDbEntity
  8
0
100
AcDbLine
 10
283.7939818819262
 20
-73.31364299595816
 30
0.0
 11
283.8330850145337
 21
-75.21814299977151
 31
0.0
  0
CIRCLE
  5
505
102
{ACAD_REACTORS
330
506
102
}
330
23
100
AcDbEntity
  8
0
100
AcDbCircle
 10
283.8135334482299
 20
-74.26589299786485
 30
0.0
 40
0.5500392526635221
  0
LINE
  5
57B
102
{ACAD_REACTORS
330
57E
102
}
330
23
100
AcDbEntity
  8
0
100
AcDbLine
 10
284.7657834501365
 20
-165.7145554358314
 30
0.0
 11
282.8612834463231
 21
-165.7536585684389
 31
0.0
  0
LINE
  5
57C
102
{ACAD_REACTORS
330
57E
102
}
330
23
100
AcDbEntity
  8
0
100
AcDbLine
 10
283.8330850145336
 20
-166.6863570040418
 30
0.0
 11
283.793981881926
 21
-164.7818570002284
 31
0.0
  0
CIRCLE
  5
57D
102
{ACAD_REACTORS
330
57E
102
}
330
23
100
AcDbEntity
  8
0
100
AcDbCircle
 10
283.8135334482298
 20
-165.7341070021351
 30
0.0
 40
0.5500392526635221
  0
LINE
  5
57F
102
{ACAD_REACTORS
330
582
102
}
330
23
100
AcDbEntity
  8
0
100
AcDbLine
 10
289.5390391536619
 20
-165.3645890886151
 30
0.0
 11
287.649059590501
 21
-165.6025524688626
 31
0.0
  0
LINE
  5
580
102
{ACAD_REACTORS
330
582
102
}
330
23
100
AcDbEntity
  8
0
100
AcDbLine
 10
288.7130310622053
 20
-166.4285605603193
 30
0.0
 11
288.4750676819577
 21
-164.5385809971584
 31
0.0
  0
CIRCLE
  5
581
102
{ACAD_REACTORS
330
582
102
}
330
23
100
AcDbEntity
  8
0
100
AcDbCircle
 10
288.5940493720815
 20
-165.4835707787388
 30
0.0
 40
0.5500392526635221
  0
LINE
  5
583
102
{ACAD_REACTORS
330
586
102
}
330
23
100
AcDbEntity
  8
0
100
AcDbLine
 10
294.2495650185396
 20
-164.5175988101934
 30
0.0
 11
292.3948129076287
 21
-164.9518152614898
 31
0.0
  0
LINE
  5
584
102
{ACAD_REACTORS
330
586
102
}
330
23
100
AcDbEntity
  8
0
100
AcDbLine
 10
293.5392971887324
 20
-165.662083091297
 30
0.0
 11
293.1050807374359
 21
-163.8073309803862
 31
0.0
  0
CIRCLE
  5
585
102
{ACAD_REACTORS
330
586
102
}
330
23
100
AcDbEntity
  8
0
100
AcDbCircle
 10
293.322188963084
 20
-164.7347070358416
 30
0.0
 40
0.5500392526635221
  0
LINE
  5
587
102
{ACAD_REACTORS
330
58A
102
}
330
23
100
AcDbEntity
  8
0
100
AcDbLine
 10
298.8457515376528
 20
-163.1828644033007
 30
0.0
 11
297.0465479312509
 21
-163.8085765593402
 31
0.0
  0
LINE
  5
588
102
{ACAD_REACTORS
330
58A
102
}
330
23
100
AcDbEntity
  8
0
100
AcDbLine
 10
298.2590058124716
 20
-164.3953222845214
 30
0.0
 11
297.6332936564322
 21
-162.5961186781195
 31
0.0
  0
CIRCLE
  5
589
102
{ACAD_REACTORS
330
58A
102
}
330
23
100
AcDbEntity
  8
0
100
AcDbCircle
 10
297.9461497344519
 20
-163.4957204813204
 30
0.0
 40
0.5500392526635221
  0
LINE
  5
58B
102
{ACAD_REACTORS
330
58E
102
}
330
23
100
AcDbEntity
  8
0
100
AcDbLine
 10
303.2772419296844
 20
-161.3750094974102
 30
0.0
 11
301.553299279011
 21
-162.1853619248722
 31
0.0
  0
LINE
  5
58C
102
{ACAD_REACTORS
330
58E
102
}
330
23
100
AcDbEntity
  8
0
100
AcDbLine
 10
302.8204468180787
 20
-162.642157036478
 30
0.0
 11
302.0100943906166
 21
-160.9182143858045
 31
0.0
  0
CIRCLE
  5
58D
102
{ACAD_REACTORS
330
58E
102
}
330
23
100
AcDbEntity
  8
0
100
AcDbCircle
 10
302.4152706043478
 20
-161.7801857111411
 30
0.0
 40
0.5500392526635221
  0
LINE
  5
58F
102
{ACAD_REACTORS
330
592
102
}
330
23
100
AcDbEntity
  8
0
100
AcDbLine
 10
307.4954838585506
 20
-159.1138413291886
 30
0.0
 11
305.8656900400444
 21
-160.0999556373009
 31
0.0
  0
LINE
  5
590
102
{ACAD_REACTORS
330
592
102
}
330
23
100
AcDbEntity
  8
0
100
AcDbLine
 10
307.1736441033536
 20
-160.4217953924979
 30
0.0
 11
306.1875297952413
 21
-158.7920015739918
 31
0.0
  0
CIRCLE
  5
591
102
{ACAD_REACTORS
330
592
102
}
330
23
100
AcDbEntity
  8
0
100
AcDbCircle
 10
306.6805869492975
 20
-159.6068984832448
 30
0.0
 40
0.5500392526635221
  0
LINE
  5
593
102
{ACAD_REACTORS
330
596
102
}
330
23
100
AcDbEntity
  8
0
100
AcDbLine
 10
311.4542613829544
 20
-156.424133730267
 30
0.0
 11
309.9364727587473
 21
-157.5752058443122
 31
0.0
  0
LINE
  5
594
102
{ACAD_REACTORS
330
596
102
}
330
23
100
AcDbEntity
  8
0
100
AcDbLine
 10
311.2709031278734
 20
-157.7585640993931
 30
0.0
 11
310.1198310138282
 21
-156.240775475186
 31
0.0
  0
CIRCLE
  5
595
102
{ACAD_REACTORS
330
596
102
}
330
23
100
AcDbEntity
  8
0
100
AcDbCircle
 10
310.6953670708508
 20
-156.9996697872896
 30
0.0
 40
0.5500392526635221
  0
LINE
  5
597
102
{ACAD_REACTORS
330
59A
102
}
330
23
100
AcDbEntity
  8
0
100
AcDbLine
 10
315.1102013079112
 20
-153.3353556999565
 30
0.0
 11
313.7210470877878
 21
-154.6387742329758
 31
0.0
  0
LINE
  5
598
102
{ACAD_REACTORS
330
59A
102
}
330
23
100
AcDbEntity
  8
0
100
AcDbLine
 10
315.0673334643591
 20
-154.6816420765279
 30
0.0
 11
313.7639149313399
 21
-153.2924878564045
 31
0.0
  0
CIRCLE
  5
599
102
{ACAD_REACTORS
330
59A
102
}
330
23
100
AcDbEntity
  8
0
100
AcDbCircle
 10
314.4156241978495
 20
-153.9870649664662
 30
0.0
 40
0.5500392526635221
  0
LINE
  5
59B
102
{ACAD_REACTORS
330
59E
102
}
330
23
100
AcDbEntity
  8
0
100
AcDbLine
 10
318.4232483905485
 20
-149.8813485367257
 30
0.0
 11
317.1779484388436
 21
-151.3228329625134
 31
0.0
  0
LINE
  5
59C
102
{ACAD_REACTORS
330
59E
102
}
330
23
100
AcDbEntity
  8
0
100
AcDbLine
 10
318.52134062759
 20
-151.224740725472
 30
0.0
 11
317.0798562018022
 21
-149.9794407737672
 31
0.0
  0
CIRCLE
  5
59D
102
{ACAD_REACTORS
330
59E
102
}
330
23
100
AcDbEntity
  8
0
100
AcDbCircle
 10
317.8005984146961
 20
-150.6020907496196
 30
0.0
 40
0.5500392526635221
  0
LINE
  5
59F
102
{ACAD_REACTORS
330
5A2
102
}
330
23
100
AcDbEntity
  8
0
100
AcDbLine
 10
321.3571041937293
 20
-146.0999550658522
 30
0.0
 11
320.2693022773096
 21
-147.6637121793895
 31
0.0
  0
LINE
  5
5A0
102
{ACAD_REACTORS
330
5A2
102
}
330
23
100
AcDbEntity
  8
0
100
AcDbLine
 10
321.5950817922881
 20
-147.4257345808308
 30
0.0
 11
320.0313246787508
 21
-146.3379326644111
 31
0.0
  0
CIRCLE
  5
5A1
102
{ACAD_REACTORS
330
5A2
102
}
330
23
100
AcDbEntity
  8
0
100
AcDbCircle
 10
320.8132032355195
 20
-146.881833622621
 30
0.0
 40
0.5500392526635221
  0
LINE
  5
5A3
102
{ACAD_REACTORS
330
5A6
102
}
330
23
100
AcDbEntity
  8
0
100
AcDbLine
 10
323.8796247793252
 20
-142.0326050255107
 30
0.0
 11
322.9612390836241
 21
-143.7015019766244
 31
0.0
  0
LINE
  5
5A4
102
{ACAD_REACTORS
330
5A6
102
}
330
23
100
AcDbEntity
  8
0
100
AcDbLine
 10
324.2548804070314
 20
-143.326246348918
 30
0.0
 11
322.5859834559178
 21
-142.407860653217
 31
0.0
  0
CIRCLE
  5
5A5
102
{ACAD_REACTORS
330
5A6
102
}
330
23
100
AcDbEntity
  8
0
100
AcDbCircle
 10
323.4204319314746
 20
-142.8670535010676
 30
0.0
 40
0.5500392526635221
  0
LINE
  5
5A7
102
{ACAD_REACTORS
330
5AA
102
}
330
23
100
AcDbEntity
  8
0
100
AcDbLine
 10
325.9631728839289
 20
-137.7238611538906
 30
0.0
 11
325.2242654348131
 21
-139.4796131583451
 31
0.0
  0
LINE
  5
5A8
102
{ACAD_REACTORS
330
5AA
102
}
330
23
100
AcDbEntity
  8
0
100
AcDbLine
 10
326.4715951615983
 20
-138.9711908806757
 30
0.0
 11
324.7158431571438
 21
-138.23228343156
 31
0.0
  0
CIRCLE
  5
5A9
102
{ACAD_REACTORS
330
5AA
102
}
330
23
100
AcDbEntity
  8
0
100
AcDbCircle
 10
325.593719159371
 20
-138.6017371561179
 30
0.0
 40
0.5500392526635221
  0
LINE
  5
5AB
102
{ACAD_REACTORS
330
5AE
102
}
330
23
100
AcDbEntity
  8
0
100
AcDbLine
 10
327.5849207184961
 20
-133.2209309505121
 30
0.0
 11
327.0335871406045
 21
-135.044301621932
 31
0.0
  0
LINE
  5
5AC
102
{ACAD_REACTORS
330
5AE
102
}
330
23
100
AcDbEntity
  8
0
100
AcDbLine
 10
328.2209392652602
 20
-134.4082830751678
 30
0.0
 11
326.3975685938403
 21
-133.8569494972762
 31
0.0
  0
CIRCLE
  5
5AD
102
{ACAD_REACTORS
330
5AE
102
}
330
23
100
AcDbEntity
  8
0
100
AcDbCircle
 10
327.3092539295503
 20
-134.1326162862221
 30
0.0
 40
0.5500392526635221
  0
LINE
  5
5AF
102
{ACAD_REACTORS
330
5B2
102
}
330
23
100
AcDbEntity
  8
0
100
AcDbLine
 10
328.7271000743785
 20
-128.5731494609821
 30
0.0
 11
328.3693808937645
 21
-130.4441615687264
 31
0.0
  0
LINE
  5
5B0
102
{ACAD_REACTORS
330
5B2
102
}
330
23
100
AcDbEntity
  8
0
100
AcDbLine
 10
329.4837465379437
 20
-129.6875151051613
 30
0.0
 11
327.6127344301994
 21
-129.3297959245473
 31
0.0
  0
CIRCLE
  5
5B1
102
{ACAD_REACTORS
330
5B2
102
}
330
23
100
AcDbEntity
  8
0
100
AcDbCircle
 10
328.5482404840715
 20
-129.5086555148543
 30
0.0
 40
0.5500392526635221
  0
LINE
  5
5B3
102
{ACAD_REACTORS
330
5B6
102
}
330
23
100
AcDbEntity
  8
0
100
AcDbLine
 10
329.3771969955368
 20
-123.8314387519108
 30
0.0
 11
329.2170114584006
 21
-125.7295930957925
 31
0.0
  0
LINE
  5
5B4
102
{ACAD_REACTORS
330
5B6
102
}
330
23
100
AcDbEntity
  8
0
100
AcDbLine
 10
330.2461813989097
 20
-124.8606086924198
 30
0.0
 11
328.3480270550279
 21
-124.7004231552836
 31
0.0
  0
CIRCLE
  5
5B5
102
{ACAD_REACTORS
330
5B6
102
}
330
23
100
AcDbEntity
  8
0
100
AcDbCircle
 10
329.2971042269688
 20
-124.7805159238517
 30
0.0
 40
0.5500392526635221
  0
LINE
  5
5B7
102
{ACAD_REACTORS
330
5BA
102
}
330
23
100
AcDbEntity
  8
0
100
AcDbLine
 10
329.5280888840613
 20
-119.0477499980933
 30
0.0
 11
329.5671920166687
 21
-120.9522500019067
 31
0.0
  0
LINE
  5
5B8
102
{ACAD_REACTORS
330
5BA
102
}
330
23
100
AcDbEntity
  8
0
100
AcDbLine
 10
330.4998904522717
 20
-119.9804484336963
 30
0.0
 11
328.5953904484583
 21
-120.0195515663038
 31
0.0
  0
CIRCLE
  5
5B9
102
{ACAD_REACTORS
330
5BA
102
}
330
23
100
AcDbEntity
  8
0
100
AcDbCircle
 10
329.547640450365
 20
-120.0
 30
0.0
 40
0.5500392526635221
  0
LINE
  5
5BB
102
{ACAD_REACTORS
330
5BE
102
}
330
23
100
AcDbEntity
  8
0
100
AcDbLine
 10
329.1781225368449
 20
-114.274494294568
 30
0.0
 11
329.4160859170925
 21
-116.1644738577289
 31
0.0
  0
LINE
  5
5BC
102
{ACAD_REACTORS
330
5BE
102
}
330
23
100
AcDbEntity
  8
0
100
AcDbLine
 10
330.2420940085492
 20
-115.1005023860247
 30
0.0
 11
328.3521144453883
 21
-115.3384657662723
 31
0.0
  0
CIRCLE
  5
5BD
102
{ACAD_REACTORS
330
5BE
102
}
330
23
100
AcDbEntity
  8
0
100
AcDbCircle
 10
329.2971042269688
 20
-115.2194840761485
 30
0.0
 40
0.5500392526635221
  0
LINE
  5
5BF
102
{ACAD_REACTORS
330
5C2
102
}
330
23
100
AcDbEntity
  8
0
100
AcDbLine
 10
328.3311322584233
 20
-109.5639684296904
 30
0.0
 11
328.7653487097198
 21
-111.4187205406012
 31
0.0
  0
LINE
  5
5C0
102
{ACAD_REACTORS
330
5C2
102
}
330
23
100
AcDbEntity
  8
0
100
AcDbLine
 10
329.475616539527
 20
-110.2742362594976
 30
0.0
 11
327.6208644286161
 21
-110.7084527107941
 31
0.0
  0
CIRCLE
  5
5C1
102
{ACAD_REACTORS
330
5C2
102
}
330
23
100
AcDbEntity
  8
0
100
AcDbCircle
 10
328.5482404840715
 20
-110.4913444851458
 30
0.0
 40
0.5500392526635221
  0
LINE
  5
5C3
102
{ACAD_REACTORS
330
5C6
102
}
330
23
100
AcDbEntity
  8
0
100
AcDbLine
 10
326.9963978515307
 20
-104.9677819105771
 30
0.0
 11
327.62211000757
 21
-106.766985516979
 31
0.0
  0
LINE
  5
5C4
102
{ACAD_REACTORS
330
5C6
102
}
330
23
100
AcDbEntity
  8
0
100
AcDbLine
 10
328.2088557327512
 20
-105.5545276357583
 30
0.0
 11
326.4096521263494
 21
-106.1802397917977
 31
0.0
  0
CIRCLE
  5
5C5
102
{ACAD_REACTORS
330
5C6
102
}
330
23
100
AcDbEntity
  8
0
100
AcDbCircle
 10
327.3092539295504
 20
-105.867383713778
 30
0.0
 40
0.5500392526635221
  0
LINE
  5
5C7
102
{ACAD_REACTORS
330
5CA
102
}
330
23
100
AcDbEntity
  8
0
100
AcDbLine
 10
325.1885429456401
 20
-100.5362915185454
 30
0.0
 11
325.9988953731022
 21
-102.2602341692189
 31
0.0
  0
LINE
  5
5C8
102
{ACAD_REACTORS
330
5CA
102
}
330
23
100
AcDbEntity
  8
0
100
AcDbLine
 10
326.4556904847079
 20
-100.9930866301512
 30
0.0
 11
324.7317478340344
 21
-101.8034390576133
 31
0.0
  0
CIRCLE
  5
5C9
102
{ACAD_REACTORS
330
5CA
102
}
330
23
100
AcDbEntity
  8
0
100
AcDbCircle
 10
325.5937191593711
 20
-101.3982628438822
 30
0.0
 40
0.5500392526635221
  0
LINE
  5
5CB
102
{ACAD_REACTORS
330
5CE
102
}
330
23
100
AcDbEntity
  8
0
100
AcDbLine
 10
322.9273747774186
 20
-96.31804958967945
 30
0.0
 11
323.9134890855309
 21
-97.94784340818569
 31
0.0
  0
LINE
  5
5CC
102
{ACAD_REACTORS
330
5CE
102
}
330
23
100
AcDbEntity
  8
0
100
AcDbLine
 10
324.2353288407278
 20
-96.6398893448764
 30
0.0
 11
322.6055350222217
 21
-97.62600365298874
 31
0.0
  0
CIRCLE
  5
5CD
102
{ACAD_REACTORS
330
5CE
102
}
330
23
100
AcDbEntity
  8
0
100
AcDbCircle
 10
323.4204319314748
 20
-97.13294649893255
 30
0.0
 40
0.5500392526635221
  0
LINE
  5
5CF
102
{ACAD_REACTORS
330
5D2
102
}
330
23
100
AcDbEntity
  8
0
100
AcDbLine
 10
320.2376671784969
 20
-92.35927206527561
 30
0.0
 11
321.3887392925422
 21
-93.87706068948267
 31
0.0
  0
LINE
  5
5D0
102
{ACAD_REACTORS
330
5D2
102
}
330
23
100
AcDbEntity
  8
0
100
AcDbLine
 10
321.5720975476231
 20
-92.54263032035652
 30
0.0
 11
320.0543089234161
 21
-93.69370243440176
 31
0.0
  0
CIRCLE
  5
5D1
102
{ACAD_REACTORS
330
5D2
102
}
330
23
100
AcDbEntity
  8
0
100
AcDbCircle
 10
320.8132032355196
 20
-93.1181663773791
 30
0.0
 40
0.5500392526635221
  0
LINE
  5
5D3
102
{ACAD_REACTORS
330
5D6
102
}
330
23
100
AcDbEntity
  8
0
100
AcDbLine
 10
317.1488891481865
 20
-88.70333214031882
 30
0.0
 11
318.4523076812058
 21
-90.09248636044219
 31
0.0
  0
LINE
  5
5D4
102
{ACAD_REACTORS
330
5D6
102
}
330
23
100
AcDbEntity
  8
0
100
AcDbLine
 10
318.4951755247579
 20
-88.74619998387084
 30
0.0
 11
317.1060213046345
 21
-90.04961851689017
 31
0.0
  0
CIRCLE
  5
5D5
102
{ACAD_REACTORS
330
5D6
102
}
330
23
100
AcDbEntity
  8
0
100
AcDbCircle
 10
317.8005984146962
 20
-89.39790925038051
 30
0.0
 40
0.5500392526635221
  0
LINE
  5
5D7
102
{ACAD_REACTORS
330
5DA
102
}
330
23
100
AcDbEntity
  8
0
100
AcDbLine
 10
313.6948819849557
 20
-85.39028505768147
 30
0.0
 11
315.1363664107435
 21
-86.63558500938634
 31
0.0
  0
LINE
  5
5D8
102
{ACAD_REACTORS
330
5DA
102
}
330
23
100
AcDbEntity
  8
0
100
AcDbLine
 10
315.0382741737021
 20
-85.29219282064003
 30
0.0
 11
313.7929742219972
 21
-86.73367724642785
 31
0.0
  0
CIRCLE
  5
5D9
102
{ACAD_REACTORS
330
5DA
102
}
330
23
100
AcDbEntity
  8
0
100
AcDbCircle
 10
314.4156241978496
 20
-86.01293503353394
 30
0.0
 40
0.5500392526635221
  0
LINE
  5
5DB
102
{ACAD_REACTORS
330
5DE
102
}
330
23
100
AcDbEntity
  8
0
100
AcDbLine
 10
309.9134885140823
 20
-82.45642925450065
 30
0.0
 11
311.4772456276196
 21
-83.54423117092037
 31
0.0
  0
LINE
  5
5DC
102
{ACAD_REACTORS
330
5DE
102
}
330
23
100
AcDbEntity
  8
0
100
AcDbLine
 10
311.2392680290609
 20
-82.21845165594183
 30
0.0
 11
310.1514661126412
 21
-83.78220876947915
 31
0.0
  0
CIRCLE
  5
5DD
102
{ACAD_REACTORS
330
5DE
102
}
330
23
100
AcDbEntity
  8
0
100
AcDbCircle
 10
310.695367070851
 20
-83.00033021271048
 30
0.0
 40
0.5500392526635221
  0
LINE
  5
5DF
102
{ACAD_REACTORS
330
5E2
102
}
330
23
100
AcDbEntity
  8
0
100
AcDbLine
 10
305.8461384737408
 20
-79.93390866890476
 30
0.0
 11
307.5150354248544
 21
-80.85229436460585
 31
0.0
  0
LINE
  5
5E0
102
{ACAD_REACTORS
330
5E2
102
}
330
23
100
AcDbEntity
  8
0
100
AcDbLine
 10
307.1397797971481
 20
-79.55865304119845
 30
0.0
 11
306.2213941014471
 21
-81.22754999231213
 31
0.0
  0
CIRCLE
  5
5E1
102
{ACAD_REACTORS
330
5E2
102
}
330
23
100
AcDbEntity
  8
0
100
AcDbCircle
 10
306.6805869492977
 20
-80.39310151675531
 30
0.0
 40
0.5500392526635221
  0
LINE
  5
5E3
102
{ACAD_REACTORS
330
5E6
102
}
330
23
100
AcDbEntity
  8
0
100
AcDbLine
 10
301.5373946021207
 20
-77.85036056430098
 30
0.0
 11
303.2931466065753
 21
-78.58926801341675
 31
0.0
  0
LINE
  5
5E4
102
{ACAD_REACTORS
330
5E6
102
}
330
23
100
AcDbEntity
  8
0
100
AcDbLine
 10
302.7847243289059
 20
-77.3419382866316
 30
0.0
 11
302.0458168797901
 21
-79.09769029108614
 31
0.0
  0
CIRCLE
  5
5E5
102
{ACAD_REACTORS
330
5E6
102
}
330
23
100
AcDbEntity
  8
0
100
AcDbCircle
 10
302.415270604348
 20
-78.21981428885883
 30
0.0
 40
0.5500392526635221
  0
LINE
  5
5E7
102
{ACAD_REACTORS
330
5EA
102
}
330
23
100
AcDbEntity
  8
0
100
AcDbLine
 10
297.0344643987422
 20
-76.22861272973381
 30
0.0
 11
298.8578350701621
 21
-76.77994630762544
 31
0.0
  0
LINE
  5
5E8
102
{ACAD_REACTORS
330
5EA
102
}
330
23
100
AcDbEntity
  8
0
100
AcDbLine
 10
298.2218165233979
 20
-75.59259418296969
 30
0.0
 11
297.6704829455064
 21
-77.41596485438956
 31
0.0
  0
CIRCLE
  5
5E9
102
{ACAD_REACTORS
330
5EA
102
}
330
23
100
AcDbEntity
  8
0
100
AcDbCircle
 10
297.9461497344522
 20
-76.50427951867965
 30
0.0
 40
0.5500392526635221
  0
LINE
  5
5EB
102
{ACAD_REACTORS
330
5EE
102
}
330
23
100
AcDbEntity
  8
0
100
AcDbLine
 10
292.3866829092123
 20
-75.08643337385137
 30
0.0
 11
294.2576950169565
 21
-75.44415255446546
 31
0.0
  0
LINE
  5
5EC
102
{ACAD_REACTORS
330
5EE
102
}
330
23
100
AcDbEntity
  8
0
100
AcDbLine
 10
293.5010485533914
 20
-74.32978691028629
 30
0.0
 11
293.1433293727774
 21
-76.20079901803055
 31
0.0
  0
CIRCLE
  5
5ED
102
{ACAD_REACTORS
330
5EE
102
}
330
23
100
AcDbEntity
  8
0
100
AcDbCircle
 10
293.3221889630844
 20
-75.26529296415842
 30
0.0
 40
0.5500392526635221
  0
LINE
  5
5EF
102
{ACAD_REACTORS
330
5F2
102
}
330
23
100
AcDbEntity
  8
0
100
AcDbLine
 10
287.6449722001408
 20
-74.43633645269304
 30
0.0
 11
289.5431265440226
 21
-74.59652198982928
 31
0.0
  0
LINE
  5
5F0
102
{ACAD_REACTORS
330
5F2
102
}
330
23
100
AcDbEntity
  8
0
100
AcDbLine
 10
288.6741421406498
 20
-73.56735204932028
 30
0.0
 11
288.5139566035136
 21
-75.46550639320201
 31
0.0
  0
CIRCLE
  5
5F1
102
{ACAD_REACTORS
330
5F2
102
}
330
23
100
AcDbEntity
  8
0
100
AcDbCircle
 10
288.5940493720818
 20
-74.51642922126115
 30
0.0
 40
0.5500392526635221
  0
ARC
  5
A58
330
23
100
AcDbEntity
  8
0
100
AcDbCircle
 10
433.5469292408488
 20
-58.21294453463849
 30
0.0
 40
23.0
100
AcDbArc
 50
92.3880154632666
 51
267.6119845367334
  0
ARC
  5
A5E
330
23
100
AcDbEntity
  8
0
100
AcDbCircle
 10
432.5469292408495
 20
-34.23378691807485
 30
0.0
 40
1.0
100
AcDbArc
 50
272.3880154632666
 51
359.9999999999943
  0
LINE
  5
A60
330
23
100
AcDbEntity
  8
0
100
AcDbLine
 10
433.5469292408495
 20
-34.23378691807496
 30
0.0
 11
433.5513908128267
 21
-11.32956519819279
 31
0.0
  0
LINE
  5
A62
330
23
100
AcDbEntity
  8
0
100
AcDbLine
 10
432.5977851217459
 20
-10.49108300148368
 30
0.0
 11
432.4267103204168
 21
-7.226781333498536
 31
0.0
  0
ARC
  5
A63
330
23
100
AcDbEntity
  8
0
100
AcDbCircle
 10
431.9273955530396
 20
-7.252949311620021
 30
0.0
 40
0.5
100
AcDbArc
 50
3.000000000001123
 51
91.99999999999715
  0
ARC
  5
A64
330
23
100
AcDbEntity
  8
0
100
AcDbCircle
 10
433.5466179257893
 20
-10.37374224962122
 30
0.0
 40
0.955834865165902
100
AcDbArc
 50
186.6666339485812
 51
270.2861032064865
  0
ARC
  5
A65
330
23
100
AcDbEntity
  8
0
100
AcDbCircle
 10
432.5469292408495
 20
-82.19210215120213
 30
0.0
 40
1.0
100
AcDbArc
 50
0.0000000000056996
 51
87.6119845367334
  0
LINE
  5
A67
330
23
100
AcDbEntity
  8
0
100
AcDbLine
 10
433.5469292408495
 20
-82.19210215120204
 30
0.0
 11
433.5472405559085
 21
-105.0963119544898
 31
0.0
  0
LINE
  5
A6C
330
23
100
AcDbEntity
  8
0
100
AcDbLine
 10
431.1646693742757
 20
-10.53063018467772
 30
0.0
 11
431.1078044096444
 21
-7.27283854278982
 31
0.0
  0
LINE
  5
A6D
330
23
100
AcDbEntity
  8
0
100
AcDbLine
 10
429.2711884080579
 20
-10.67354000450968
 30
0.0
 11
428.8728241627508
 21
-7.429123586211709
 31
0.0
  0
ARC
  5
A6E
330
23
100
AcDbEntity
  8
0
100
AcDbCircle
 10
428.3765510869304
 20
-7.490058257914292
 30
0.0
 40
0.5
100
AcDbArc
 50
7.000000000001153
 51
95.9999999999952
  0
ARC
  5
A6F
330
23
100
AcDbEntity
  8
0
100
AcDbCircle
 10
430.2095246260023
 20
-10.49029785823842
 30
0.0
 40
0.955834865165902
100
AcDbArc
 50
190.6666339485815
 51
357.905572464394
  0
LINE
  5
A70
330
23
100
AcDbEntity
  8
0
100
AcDbLine
 10
431.5902785088714
 20
-6.764416926061691
 30
0.0
 11
431.9099458046882
 21
-6.75325389811045
 31
0.0
  0
ARC
  5
A71
330
23
100
AcDbEntity
  8
0
100
AcDbCircle
 10
431.6077282572226
 20
-7.264112339571234
 30
0.0
 40
0.5
100
AcDbArc
 50
91.99999999999715
 51
180.9999999999936
  0
LINE
  5
A72
330
23
100
AcDbEntity
  8
0
100
AcDbLine
 10
427.8443223305666
 20
-10.81295995376376
 30
0.0
 11
427.560343829
 21
-7.567070827991727
 31
0.0
  0
LINE
  5
A73
330
23
100
AcDbEntity
  8
0
100
AcDbLine
 10
425.9654226739114
 20
-11.08760420776221
 30
0.0
 11
425.3417097751863
 21
-7.878879509813771
 31
0.0
  0
ARC
  5
A74
330
23
100
AcDbEntity
  8
0
100
AcDbCircle
 10
424.8508961834623
 20
-7.974284007502063
 30
0.0
 40
0.5
100
AcDbArc
 50
11.00000000000131
 51
99.99999999999856
  0
ARC
  5
A75
330
23
100
AcDbEntity
  8
0
100
AcDbCircle
 10
426.8886908260243
 20
-10.83935340439935
 30
0.0
 40
0.955834865165902
100
AcDbArc
 50
194.6666339485815
 51
1.905572464393827
  0
LINE
  5
A76
330
23
100
AcDbEntity
  8
0
100
AcDbLine
 10
428.006176946412
 20
-7.026232008933817
 30
0.0
 11
428.3242868552965
 21
-6.992797310230116
 31
0.0
  0
ARC
  5
A77
330
23
100
AcDbEntity
  8
0
100
AcDbCircle
 10
428.0584411780457
 20
-7.523492956617978
 30
0.0
 40
0.5
100
AcDbArc
 50
95.9999999999952
 51
184.999999999994
  0
LINE
  5
A78
330
23
100
AcDbEntity
  8
0
100
AcDbLine
 10
424.5517578145003
 20
-11.32621768309806
 30
0.0
 11
424.0420492907125
 21
-8.108044718987031
 31
0.0
  0
LINE
  5
A79
330
23
100
AcDbEntity
  8
0
100
AcDbLine
 10
422.6965932776685
 20
-11.73125833206464
 30
0.0
 11
421.8505703920725
 21
-8.573857938654242
 31
0.0
  0
ARC
  5
A7A
330
23
100
AcDbEntity
  8
0
100
AcDbCircle
 10
421.3676074789279
 20
-8.703267461205527
 30
0.0
 40
0.5
100
AcDbArc
 50
15.00000000000119
 51
103.9999999999961
  0
ARC
  5
A7B
330
23
100
AcDbEntity
  8
0
100
AcDbCircle
 10
423.6002952943194
 20
-11.41920832457006
 30
0.0
 40
0.955834865165902
100
AcDbArc
 50
198.6666339485814
 51
5.905572464393941
  0
LINE
  5
A7C
330
23
100
AcDbEntity
  8
0
100
AcDbLine
 10
424.4490693721766
 20
-7.537423609960825
 30
0.0
 11
424.7640720946289
 21
-7.481880130995904
 31
0.0
  0
ARC
  5
A7D
330
23
100
AcDbEntity
  8
0
100
AcDbCircle
 10
424.5358934610099
 20
-8.029827486466956
 30
0.0
 40
0.5
100
AcDbArc
 50
99.99999999999191
 51
188.9999999999938
  0
LINE
  5
A7E
330
23
100
AcDbEntity
  8
0
100
AcDbLine
 10
421.3030168694316
 20
-12.06790283261577
 30
0.0
 11
420.5700615721148
 21
-8.893124645357232
 31
0.0
  0
LINE
  5
A7F
330
23
100
AcDbEntity
  8
0
100
AcDbLine
 10
419.4806256275663
 20
-12.60136655922326
 30
0.0
 11
418.4164144935559
 21
-9.510673007686847
 31
0.0
  0
ARC
  5
A80
330
23
100
AcDbEntity
  8
0
100
AcDbCircle
 10
417.9436552057563
 20
-9.673457084915469
 30
0.0
 40
0.5
100
AcDbArc
 50
19.00000000000207
 51
107.9999999999988
  0
ARC
  5
A81
330
23
100
AcDbEntity
  8
0
100
AcDbCircle
 10
420.3603587633699
 20
-12.22703762386636
 30
0.0
 40
0.955834865165902
100
AcDbArc
 50
202.6666339485809
 51
9.905572464393905
  0
LINE
  5
A82
330
23
100
AcDbEntity
  8
0
100
AcDbLine
 10
420.9362856567077
 20
-8.295501255047355
 30
0.0
 11
421.2466465311281
 21
-8.218119598067488
 31
0.0
  0
ARC
  5
A83
330
23
100
AcDbEntity
  8
0
100
AcDbCircle
 10
421.0572466045074
 20
-8.78064911818538
 30
0.0
 40
0.5
100
AcDbArc
 50
103.9999999999961
 51
192.9999999999935
  0
LINE
  5
A84
330
23
100
AcDbEntity
  8
0
100
AcDbLine
 10
418.1139270346829
 20
-13.03440198682236
 30
0.0
 11
417.1612958483691
 21
-9.918485776617075
 31
0.0
  0
LINE
  5
A85
330
23
100
AcDbEntity
  8
0
100
AcDbLine
 10
416.3331875947282
 20
-13.69368980941831
 30
0.0
 11
415.0559729419743
 21
-10.68476064806353
 31
0.0
  0
ARC
  5
A86
330
23
100
AcDbEntity
  8
0
100
AcDbCircle
 10
414.595720515248
 20
-10.88012621230817
 30
0.0
 40
0.5
100
AcDbArc
 50
23.00000000000053
 51
111.9999999999944
  0
ARC
  5
A87
330
23
100
AcDbEntity
  8
0
100
AcDbCircle
 10
417.1846658782774
 20
-13.2589056391447
 30
0.0
 40
0.955834865165902
100
AcDbArc
 50
206.6666339485812
 51
13.90557246439407
  0
LINE
  5
A88
330
23
100
AcDbEntity
  8
0
100
AcDbLine
 10
417.4849397291633
 20
-9.296771666108185
 30
0.0
 11
417.7891467085689
 21
-9.197928826767821
 31
0.0
  0
ARC
  5
A89
330
23
100
AcDbEntity
  8
0
100
AcDbCircle
 10
417.6394482263507
 20
-9.772299924255747
 30
0.0
 40
0.5
100
AcDbArc
 50
107.999999999992
 51
196.9999999999939
  0
LINE
  5
A8A
330
23
100
AcDbEntity
  8
0
100
AcDbLine
 10
415.0000252353625
 20
-14.22100645899064
 30
0.0
 11
413.8323592834334
 21
-11.17913265640396
 31
0.0
  0
LINE
  5
A8B
330
23
100
AcDbEntity
  8
0
100
AcDbLine
 10
413.2696131808705
 20
-15.00290639357485
 30
0.0
 11
411.7856174707764
 21
-12.09040082281928
 31
0.0
  0
ARC
  5
A8C
330
23
100
AcDbEntity
  8
0
100
AcDbCircle
 10
411.3401142086821
 20
-12.31739607268906
 30
0.0
 40
0.5
100
AcDbArc
 50
27.0000000000014
 51
115.9999999999949
  0
ARC
  5
A8D
330
23
100
AcDbEntity
  8
0
100
AcDbCircle
 10
414.0886882955583
 20
-14.5097852131577
 30
0.0
 40
0.955834865165902
100
AcDbArc
 50
210.6666339485822
 51
17.90557246439362
  0
LINE
  5
A8E
330
23
100
AcDbEntity
  8
0
100
AcDbLine
 10
414.1118461999742
 20
-10.53635675434793
 30
0.0
 11
414.40841721854
 21
-10.41653428502474
 31
0.0
  0
ARC
  5
A8F
330
23
100
AcDbEntity
  8
0
100
AcDbCircle
 10
414.2991494966822
 20
-10.99994868163142
 30
0.0
 40
0.5
100
AcDbArc
 50
111.9999999999942
 51
200.9999999999941
  0
LINE
  5
A90
330
23
100
AcDbEntity
  8
0
100
AcDbLine
 10
411.9764820880286
 20
-15.62193523140934
 30
0.0
 11
410.5994701216287
 21
-12.66892353983945
 31
0.0
  0
LINE
  5
A91
330
23
100
AcDbEntity
  8
0
100
AcDbLine
 10
410.3048278125887
 20
-16.52263794009673
 30
0.0
 11
408.6212809230826
 21
-13.72074539431707
 31
0.0
  0
ARC
  5
A92
330
23
100
AcDbEntity
  8
0
100
AcDbCircle
 10
408.1926972727315
 20
-13.97826443177214
 30
0.0
 40
0.5
100
AcDbArc
 50
31.00000000000062
 51
119.9999999999997
  0
ARC
  5
A93
330
23
100
AcDbEntity
  8
0
100
AcDbCircle
 10
411.0875093067888
 20
-15.97358218635875
 30
0.0
 40
0.955834865165902
100
AcDbArc
 50
214.6666339485806
 51
21.905572464395
  0
LINE
  5
A94
330
23
100
AcDbEntity
  8
0
100
AcDbLine
 10
410.8334384417526
 20
-12.00821738581948
 30
0.0
 11
411.1209286352875
 21
-11.86799904953943
 31
0.0
  0
ARC
  5
A95
330
23
100
AcDbEntity
  8
0
100
AcDbCircle
 10
411.0526240151471
 20
-12.45761440896908
 30
0.0
 40
0.5
100
AcDbArc
 50
115.9999999999947
 51
204.999999999995
  0
LINE
  5
A96
330
23
100
AcDbEntity
  8
0
100
AcDbLine
 10
409.0580279909695
 20
-17.23036311992007
 30
0.0
 11
407.4783786739823
 21
-14.38060031549247
 31
0.0
  0
LINE
  5
A97
330
23
100
AcDbEntity
  8
0
100
AcDbLine
 10
407.4532756261772
 20
-18.24548046965231
 30
0.0
 11
405.5783796284758
 21
-15.56785148768631
 31
0.0
  0
ARC
  5
A98
330
23
100
AcDbEntity
  8
0
100
AcDbCircle
 10
405.1688036063313
 20
-15.85463970586193
 30
0.0
 40
0.5
100
AcDbArc
 50
34.99999999999937
 51
123.9999999999978
  0
ARC
  5
A99
330
23
100
AcDbEntity
  8
0
100
AcDbCircle
 10
408.1957503543255
 20
-17.64316508703479
 30
0.0
 40
0.955834865165902
100
AcDbArc
 50
218.6666339485826
 51
25.90557246439372
  0
LINE
  5
A9A
330
23
100
AcDbEntity
  8
0
100
AcDbLine
 10
407.6656885275521
 20
-13.7051828034771
 30
0.0
 11
407.9426972727316
 21
-13.54525172987985
 31
0.0
  0
ARC
  5
A9B
330
23
100
AcDbEntity
  8
0
100
AcDbCircle
 10
407.9156885275521
 20
-14.13819550536939
 30
0.0
 40
0.5
100
AcDbArc
 50
119.9999999999926
 51
208.9999999999933
  0
LINE
  5
A9C
330
23
100
AcDbEntity
  8
0
100
AcDbLine
 10
406.2588813591839
 20
-19.03845402552872
 30
0.0
 11
404.484290584296
 21
-16.30582386616947
 31
0.0
  0
LINE
  5
A9D
330
23
100
AcDbEntity
  8
0
100
AcDbLine
 10
404.7288490972516
 20
-20.16304046661702
 30
0.0
 11
402.6717382961917
 21
-17.62272018771057
 31
0.0
  0
ARC
  5
A9E
330
23
100
AcDbEntity
  8
0
100
AcDbCircle
 10
402.2831653154632
 20
-17.93738038323562
 30
0.0
 40
0.5
100
AcDbArc
 50
38.99999999999915
 51
127.9999999999972
  0
ARC
  5
A9F
330
23
100
AcDbEntity
  8
0
100
AcDbCircle
 10
405.4274997971056
 20
-19.51039987511956
 30
0.0
 40
0.955834865165902
100
AcDbArc
 50
222.6666339485809
 51
29.90557246439415
  0
LINE
  5
AA0
330
23
100
AcDbEntity
  8
0
100
AcDbLine
 10
404.6240294165333
 20
-15.61898556238446
 30
0.0
 11
404.8892071545959
 21
-15.44012091958433
 31
0.0
  0
ARC
  5
AA1
330
23
100
AcDbEntity
  8
0
100
AcDbCircle
 10
404.9036258682689
 20
-16.03350434866206
 30
0.0
 40
0.5
100
AcDbArc
 50
123.9999999999975
 51
212.9999999999925
  0
LINE
  5
AA2
330
23
100
AcDbEntity
  8
0
100
AcDbLine
 10
403.592679353693
 20
-21.03739911109176
 30
0.0
 11
401.6317927487785
 21
-18.43521469625421
 31
0.0
  0
LINE
  5
AA3
330
23
100
AcDbEntity
  8
0
100
AcDbLine
 10
402.1448213580024
 20
-22.26597577143815
 30
0.0
 11
399.9155177906266
 21
-19.87534038063802
 31
0.0
  0
ARC
  5
AA4
330
23
100
AcDbEntity
  8
0
100
AcDbCircle
 10
399.549840939817
 20
-20.21633956066927
 30
0.0
 40
0.5
100
AcDbArc
 50
43.00000000000296
 51
131.9999999999996
  0
ARC
  5
AA5
330
23
100
AcDbEntity
  8
0
100
AcDbCircle
 10
402.7962442735803
 20
-21.56618957041934
 30
0.0
 40
0.955834865165902
100
AcDbArc
 50
226.6666339485834
 51
33.90557246439268
  0
LINE
  5
AA6
330
23
100
AcDbEntity
  8
0
100
AcDbLine
 10
401.7232797661392
 20
-17.7403018078748
 30
0.0
 11
401.9753345778004
 21
-17.5433750064322
 31
0.0
  0
ARC
  5
AA7
330
23
100
AcDbEntity
  8
0
100
AcDbCircle
 10
402.0311105038022
 20
-18.13430718467816
 30
0.0
 40
0.5
100
AcDbArc
 50
127.999999999997
 51
216.9999999999943
  0
LINE
  5
AA8
330
23
100
AcDbEntity
  8
0
100
AcDbLine
 10
401.0724114426616
 20
-23.21745971708538
 30
0.0
 11
398.9347822501518
 21
-20.75839862766804
 31
0.0
  0
LINE
  5
AA9
330
23
100
AcDbEntity
  8
0
100
AcDbLine
 10
399.7137815318295
 20
-24.54404109469692
 30
0.0
 11
397.3231461410294
 21
-22.3147375273212
 31
0.0
  0
ARC
  5
AAA
330
23
100
AcDbEntity
  8
0
100
AcDbCircle
 10
396.9821469609981
 20
-22.68041437813076
 30
0.0
 40
0.5
100
AcDbArc
 50
47.00000000000048
 51
135.9999999999969
  0
ARC
  5
AAB
330
23
100
AcDbEntity
  8
0
100
AcDbCircle
 10
400.3148029961676
 20
-23.80051857218581
 30
0.0
 40
0.955834865165902
100
AcDbArc
 50
230.6666339485845
 51
37.90557246439462
  0
LINE
  5
AAC
330
23
100
AcDbEntity
  8
0
100
AcDbLine
 10
398.9775717370837
 20
-20.05879670043402
 30
0.0
 11
399.2152756366376
 21
-19.84476714793055
 31
0.0
  0
ARC
  5
AAD
330
23
100
AcDbEntity
  8
0
100
AcDbCircle
 10
399.3121370402633
 20
-20.43036911317285
 30
0.0
 40
0.5
100
AcDbArc
 50
131.9999999999921
 51
220.9999999999916
  0
LINE
  5
AAE
330
23
100
AcDbEntity
  8
0
100
AcDbLine
 10
398.710356118016
 20
-25.56801480737642
 30
0.0
 11
396.4063986524629
 21
-23.26405734182293
 31
0.0
  0
LINE
  5
AAF
330
23
100
AcDbEntity
  8
0
100
AcDbLine
 10
397.4475734003988
 20
-26.98613793112878
 30
0.0
 11
394.9072531214924
 21
-24.92902713006896
 31
0.0
  0
ARC
  5
AB0
330
23
100
AcDbEntity
  8
0
100
AcDbCircle
 10
394.5925929259676
 20
-25.3176001107974
 30
0.0
 40
0.5
100
AcDbArc
 50
50.99999999999798
 51
139.9999999999983
  0
ARC
  5
AB1
330
23
100
AcDbEntity
  8
0
100
AcDbCircle
 10
397.9952652973374
 20
-26.20250145411643
 30
0.0
 40
0.955834865165902
100
AcDbArc
 50
234.6666339485802
 51
41.90557246439293
  0
LINE
  5
AB2
330
23
100
AcDbEntity
  8
0
100
AcDbLine
 10
396.400282142887
 20
-22.56317476600003
 30
0.0
 11
396.6224770608288
 21
-22.33308519290125
 31
0.0
  0
ARC
  5
AB3
330
23
100
AcDbEntity
  8
0
100
AcDbCircle
 10
396.7599520430564
 20
-22.91050395122971
 30
0.0
 40
0.5
100
AcDbArc
 50
135.9999999999963
 51
224.9999999999911
  0
LINE
  5
AB4
330
23
100
AcDbEntity
  8
0
100
AcDbLine
 10
396.5180210758646
 20
-28.07761271384186
 30
0.0
 11
394.0589599864477
 21
-25.93998352133133
 31
0.0
  0
LINE
  5
AB5
330
23
100
AcDbEntity
  8
0
100
AcDbLine
 10
395.3572377019283
 20
-29.58036863042537
 30
0.0
 11
392.6796087199623
 21
-27.70547263272408
 31
0.0
  0
ARC
  5
AB6
330
23
100
AcDbEntity
  8
0
100
AcDbCircle
 10
392.3928205017869
 20
-28.11504865486859
 30
0.0
 40
0.5
100
AcDbArc
 50
55.00000000000263
 51
143.9999999999972
  0
ARC
  5
AB7
330
23
100
AcDbEntity
  8
0
100
AcDbCircle
 10
395.8489317315992
 20
-28.7604359970569
 30
0.0
 40
0.955834865165902
100
AcDbArc
 50
238.6666339485791
 51
45.90557246439157
  0
LINE
  5
AB8
330
23
100
AcDbEntity
  8
0
100
AcDbLine
 10
394.0039672793835
 20
-25.2412349263767
 30
0.0
 11
394.2095707044079
 21
-24.99620630595416
 31
0.0
  0
ARC
  5
AB9
330
23
100
AcDbEntity
  8
0
100
AcDbCircle
 10
394.3869895009432
 20
-25.56262873122
 30
0.0
 40
0.5
100
AcDbArc
 50
139.9999999999931
 51
228.9999999999914
  0
LINE
  5
ABA
330
23
100
AcDbEntity
  8
0
100
AcDbLine
 10
394.5060871521602
 20
-30.73402692774505
 30
0.0
 11
391.903902737323
 21
-28.77314032282971
 31
0.0
  0
LINE
  5
ABB
330
23
100
AcDbEntity
  8
0
100
AcDbLine
 10
393.4529583418211
 20
-32.31409436139063
 30
0.0
 11
390.6510657960414
 21
-30.63054747188483
 31
0.0
  0
ARC
  5
ABC
330
23
100
AcDbEntity
  8
0
100
AcDbCircle
 10
390.3935467585863
 20
-31.0591311222359
 30
0.0
 40
0.5
100
AcDbArc
 50
58.9999999999984
 51
147.999999999996
  0
ARC
  5
ABD
330
23
100
AcDbEntity
  8
0
100
AcDbCircle
 10
393.8862590203365
 20
-31.46186020103659
 30
0.0
 40
0.955834865165902
100
AcDbArc
 50
242.6666339485795
 51
49.90557246439236
  0
LINE
  5
ABE
330
23
100
AcDbEntity
  8
0
100
AcDbLine
 10
391.8003017517117
 20
-28.07992994165989
 30
0.0
 11
391.9883120045994
 21
-27.82115602872227
 31
0.0
  0
ARC
  5
ABF
330
23
100
AcDbEntity
  8
0
100
AcDbCircle
 10
392.2048102488992
 20
-28.3738225678062
 30
0.0
 40
0.5
100
AcDbArc
 50
143.9999999999965
 51
232.9999999999968
  0
LINE
  5
AC0
330
23
100
AcDbEntity
  8
0
100
AcDbLine
 10
392.6843562867401
 20
-33.5243156660581
 30
0.0
 11
389.9517261273814
 21
-31.74972489116953
 31
0.0
  0
LINE
  5
AC1
330
23
100
AcDbEntity
  8
0
100
AcDbLine
 10
391.744012777702
 20
-35.17399668705673
 30
0.0
 11
388.8315072069463
 21
-33.69000097696255
 31
0.0
  0
ARC
  5
AC2
330
23
100
AcDbEntity
  8
0
100
AcDbCircle
 10
388.6045119570765
 20
-34.13550423905673
 30
0.0
 40
0.5
100
AcDbArc
 50
62.99999999999824
 51
151.9999999999952
  0
ARC
  5
AC3
330
23
100
AcDbEntity
  8
0
100
AcDbCircle
 10
392.1168091077116
 20
-34.29361299888001
 30
0.0
 40
0.955834865165902
100
AcDbArc
 50
246.6666339485783
 51
53.90557246439105
  0
LINE
  5
AC4
330
23
100
AcDbEntity
  8
0
100
AcDbLine
 10
389.8000215968107
 20
-31.06542997508006
 30
0.0
 11
389.969522710508
 21
-30.79417149011931
 31
0.0
  0
ARC
  5
AC5
330
23
100
AcDbEntity
  8
0
100
AcDbCircle
 10
390.224045644889
 20
-31.33038960719674
 30
0.0
 40
0.5
100
AcDbArc
 50
147.9999999999953
 51
236.9999999999908
  0
LINE
  5
AC6
330
23
100
AcDbEntity
  8
0
100
AcDbLine
 10
391.0617037692609
 20
-36.43488492252652
 30
0.0
 11
388.2119409648337
 21
-34.85523560553861
 31
0.0
  0
LINE
  5
AC7
330
23
100
AcDbEntity
  8
0
100
AcDbLine
 10
390.2387268205769
 20
-38.14614245076939
 30
0.0
 11
387.229797659222
 21
-36.86892779801576
 31
0.0
  0
ARC
  5
AC8
330
23
100
AcDbEntity
  8
0
100
AcDbCircle
 10
387.0344320949774
 20
-37.329180224742
 30
0.0
 40
0.5
100
AcDbArc
 50
66.99999999999978
 51
155.9999999999966
  0
ARC
  5
AC9
330
23
100
AcDbEntity
  8
0
100
AcDbCircle
 10
390.5492025758342
 20
-37.24189837560297
 30
0.0
 40
0.955834865165902
100
AcDbArc
 50
250.6666339485792
 51
57.90557246439053
  0
LINE
  5
ACA
330
23
100
AcDbEntity
  8
0
100
AcDbLine
 10
388.0128719785275
 20
-34.183189970576
 30
0.0
 11
388.1630381606472
 21
-33.90076845766385
 31
0.0
  0
ARC
  5
ACB
330
23
100
AcDbEntity
  8
0
100
AcDbCircle
 10
388.454345774957
 20
-34.41792575196902
 30
0.0
 40
0.5
100
AcDbArc
 50
151.9999999999938
 51
240.9999999999933
  0
LINE
  5
ACC
330
23
100
AcDbEntity
  8
0
100
AcDbLine
 10
389.6460349996795
 20
-39.4515546963022
 30
0.0
 11
386.6930233081099
 21
-38.07454272990162
 31
0.0
  0
LINE
  5
ACD
330
23
100
AcDbEntity
  8
0
100
AcDbLine
 10
388.944434072318
 20
-41.21605165712674
 30
0.0
 11
385.8537405207814
 21
-40.15184052311645
 31
0.0
  0
ARC
  5
ACE
330
23
100
AcDbEntity
  8
0
100
AcDbCircle
 10
385.6909564435529
 20
-40.62459981091615
 30
0.0
 40
0.5
100
AcDbArc
 50
70.9999999999982
 51
159.9999999999959
  0
ARC
  5
ACF
330
23
100
AcDbEntity
  8
0
100
AcDbCircle
 10
389.1910766461523
 20
-40.29235258121039
 30
0.0
 40
0.955834865165902
100
AcDbArc
 50
254.6666339485809
 51
61.90557246439272
  0
LINE
  5
AD0
330
23
100
AcDbEntity
  8
0
100
AcDbLine
 10
386.447559710159
 20
-37.41802051484536
 30
0.0
 11
386.577659366156
 21
-37.12581190320407
 31
0.0
  0
ARC
  5
AD1
330
23
100
AcDbEntity
  8
0
100
AcDbCircle
 10
386.9043324389802
 20
-37.62138883638329
 30
0.0
 40
0.5
100
AcDbArc
 50
155.9999999999951
 51
244.9999999999932
  0
LINE
  5
AD2
330
23
100
AcDbEntity
  8
0
100
AcDbLine
 10
388.4442469739386
 20
-42.559628075482
 30
0.0
 11
385.4023731713521
 21
-41.39196212355227
 31
0.0
  0
LINE
  5
AD3
330
23
100
AcDbEntity
  8
0
100
AcDbLine
 10
387.8674401970931
 20
-44.36876801706171
 30
0.0
 11
384.7100398036827
 21
-43.52274513146562
 31
0.0
  0
ARC
  5
AD4
330
23
100
AcDbEntity
  8
0
100
AcDbCircle
 10
384.5806302811315
 20
-44.0057080446102
 30
0.0
 40
0.5
100
AcDbArc
 50
74.99999999999883
 51
163.9999999999963
  0
ARC
  5
AD5
330
23
100
AcDbEntity
  8
0
100
AcDbCircle
 10
388.0490479716773
 20
-43.43011410944334
 30
0.0
 40
0.955834865165902
100
AcDbArc
 50
258.6666339485837
 51
65.90557246439303
  0
LINE
  5
AD6
330
23
100
AcDbEntity
  8
0
100
AcDbLine
 10
385.111710835732
 20
-40.7541618386408
 30
0.0
 11
385.22111013316
 21
-40.45358973925329
 31
0.0
  0
ARC
  5
AD7
330
23
100
AcDbEntity
  8
0
100
AcDbCircle
 10
385.581557146125
 20
-40.92517191030364
 30
0.0
 40
0.5
100
AcDbArc
 50
159.9999999999943
 51
248.9999999999958
  0
LINE
  5
AD8
330
23
100
AcDbEntity
  8
0
100
AcDbLine
 10
387.4621946824963
 20
-45.74396283898488
 30
0.0
 11
384.3462784722913
 21
-44.79133165267035
 31
0.0
  0
LINE
  5
AD9
330
23
100
AcDbEntity
  8
0
100
AcDbLine
 10
387.0129922008032
 20
-47.58893181337827
 30
0.0
 11
383.8042675028547
 21
-46.96521891465329
 31
0.0
  0
ARC
  5
ADA
330
23
100
AcDbEntity
  8
0
100
AcDbCircle
 10
383.7088630051665
 20
-47.45603250637716
 30
0.0
 40
0.5
100
AcDbArc
 50
79.00000000000092
 51
167.9999999999962
  0
ARC
  5
ADB
330
23
100
AcDbEntity
  8
0
100
AcDbCircle
 10
387.1286804013143
 20
-46.63989610154295
 30
0.0
 40
0.955834865165902
100
AcDbArc
 50
262.6666339485816
 51
69.90557246439627
  0
LINE
  5
ADC
330
23
100
AcDbEntity
  8
0
100
AcDbLine
 10
384.0118334766835
 20
-44.17536059678036
 30
0.0
 11
384.0999994331622
 21
-43.86788936670154
 31
0.0
  0
ARC
  5
ADD
330
23
100
AcDbEntity
  8
0
100
AcDbCircle
 10
384.4924643246526
 20
-44.31317927468888
 30
0.0
 40
0.5
100
AcDbArc
 50
163.9999999999947
 51
252.9999999999913
  0
LINE
  5
ADE
330
23
100
AcDbEntity
  8
0
100
AcDbLine
 10
386.7046625854009
 20
-48.98904522793145
 30
0.0
 11
383.5298843981426
 21
-48.25608993061383
 31
0.0
  0
LINE
  5
ADF
330
23
100
AcDbEntity
  8
0
100
AcDbLine
 10
386.3852528681974
 20
-50.86085473175103
 30
0.0
 11
383.1408364498994
 21
-50.46249048644426
 31
0.0
  0
ARC
  5
AE0
330
23
100
AcDbEntity
  8
0
100
AcDbCircle
 10
383.079901778197
 20
-50.95876356226499
 30
0.0
 40
0.5
100
AcDbArc
 50
83.00000000000057
 51
171.9999999999963
  0
ARC
  5
AE1
330
23
100
AcDbEntity
  8
0
100
AcDbCircle
 10
386.4344578733518
 20
-49.90606082228999
 30
0.0
 40
0.955834865165902
100
AcDbArc
 50
266.6666339485813
 51
73.90557246439643
  0
LINE
  5
AE2
330
23
100
AcDbEntity
  8
0
100
AcDbLine
 10
383.1532861249477
 20
-47.66494905281217
 30
0.0
 11
383.2197892047996
 21
-47.35207666096823
 31
0.0
  0
ARC
  5
AE3
330
23
100
AcDbEntity
  8
0
100
AcDbCircle
 10
383.6423599253145
 20
-47.76890489822124
 30
0.0
 40
0.5
100
AcDbArc
 50
167.9999999999946
 51
256.999999999996
  0
LINE
  5
AE4
330
23
100
AcDbEntity
  8
0
100
AcDbLine
 10
386.1753413028828
 20
-52.27906552711715
 30
0.0
 11
382.9571683387719
 21
-51.76935700332842
 31
0.0
  0
LINE
  5
AE5
330
23
100
AcDbEntity
  8
0
100
AcDbLine
 10
385.9872804822042
 20
-54.16859629261399
 30
0.0
 11
382.722978814219
 21
-53.99752149128494
 31
0.0
  0
ARC
  5
AE6
330
23
100
AcDbEntity
  8
0
100
AcDbCircle
 10
382.6968108360976
 20
-54.49683625866234
 30
0.0
 40
0.5
100
AcDbArc
 50
87.00000000000093
 51
175.9999999999961
  0
ARC
  5
AE7
330
23
100
AcDbEntity
  8
0
100
AcDbCircle
 10
385.9697625701626
 20
-53.21269584547837
 30
0.0
 40
0.955834865165902
100
AcDbArc
 50
270.6666339485809
 51
77.90557246439213
  0
LINE
  5
AE8
330
23
100
AcDbEntity
  8
0
100
AcDbLine
 10
382.5402515369212
 20
-51.20592628255076
 30
0.0
 11
382.5847677438261
 21
-50.8891770117848
 31
0.0
  0
ARC
  5
AE9
330
23
100
AcDbEntity
  8
0
100
AcDbCircle
 10
383.0353855712922
 20
-51.27551283303088
 30
0.0
 40
0.5
100
AcDbArc
 50
171.9999999999943
 51
260.9999999999948
  0
LINE
  5
AEA
330
23
100
AcDbEntity
  8
0
100
AcDbLine
 10
385.876809635023
 20
-55.5979950883559
 30
0.0
 11
382.6309205092509
 21
-55.3140165867884
 31
0.0
  0
LINE
  5
AEB
330
23
100
AcDbEntity
  8
0
100
AcDbLine
 10
385.8210139242837
 20
-57.49604151157564
 30
0.0
 11
382.5527303562113
 21
-57.55308961346009
 31
0.0
  0
ARC
  5
AEC
330
23
100
AcDbEntity
  8
0
100
AcDbCircle
 10
382.56145655943
 20
-58.05301346103831
 30
0.0
 40
0.5
100
AcDbArc
 50
91.00000000000177
 51
179.9999999999963
  0
ARC
  5
AED
330
23
100
AcDbEntity
  8
0
100
AcDbCircle
 10
385.7368584405529
 20
-56.5436915776571
 30
0.0
 40
0.955834865165902
100
AcDbArc
 50
274.6666339485795
 51
81.90557246439274
  0
LINE
  5
AEE
330
23
100
AcDbEntity
  8
0
100
AcDbLine
 10
382.1757163554949
 20
-54.78104100087046
 30
0.0
 11
382.1980288109675
 21
-54.46195802179023
 31
0.0
  0
ARC
  5
AEF
330
23
100
AcDbEntity
  8
0
100
AcDbCircle
 10
382.6744983806248
 20
-54.81591923774252
 30
0.0
 40
0.5
100
AcDbArc
 50
175.9999999999945
 51
264.9999999999936
  0
LINE
  5
AF0
330
23
100
AcDbEntity
  8
0
100
AcDbLine
 10
385.810521998099
 20
-58.92966442044325
 30
0.0
 11
382.5527303562111
 21
-58.8727994558111
 31
0.0
  0
LINE
  5
AF1
330
23
100
AcDbEntity
  8
0
100
AcDbLine
 10
385.8872632283933
 20
-60.82697941000276
 30
0.0
 11
382.6309205092507
 21
-61.11187248248279
 31
0.0
  0
ARC
  5
AF2
330
23
100
AcDbEntity
  8
0
100
AcDbCircle
 10
382.6744983806245
 20
-61.60996983152879
 30
0.0
 40
0.5
100
AcDbArc
 50
94.99999999999976
 51
183.9999999999961
  0
ARC
  5
AF3
330
23
100
AcDbEntity
  8
0
100
AcDbCircle
 10
385.7368801700305
 20
-59.88281974244966
 30
0.0
 40
0.955834865165902
100
AcDbArc
 50
278.6666339485831
 51
85.90557246439445
  0
LINE
  5
AF4
330
23
100
AcDbEntity
  8
0
100
AcDbLine
 10
382.0614565594299
 20
-58.3728756082329
 30
0.0
 11
382.0614565594299
 21
-58.05301346103829
 31
0.0
  0
ARC
  5
AF5
330
23
100
AcDbEntity
  8
0
100
AcDbCircle
 10
382.5614565594299
 20
-58.37287560823298
 30
0.0
 40
0.5
100
AcDbArc
 50
179.9999999999943
 51
268.9999999999917
  0
LINE
  5
AF6
330
23
100
AcDbEntity
  8
0
100
AcDbLine
 10
385.976801338815
 20
-62.25784196529151
 30
0.0
 11
382.7229788142184
 21
-62.42836757798625
 31
0.0
  0
LINE
  5
AF7
330
23
100
AcDbEntity
  8
0
100
AcDbLine
 10
386.1857056345828
 20
-64.14518199327881
 30
0.0
 11
382.9571683387711
 21
-64.65653206594288
 31
0.0
  0
ARC
  5
AF8
330
23
100
AcDbEntity
  8
0
100
AcDbCircle
 10
383.0353855712912
 20
-65.15037623624047
 30
0.0
 40
0.5
100
AcDbArc
 50
98.99999999999858
 51
187.9999999999964
  0
ARC
  5
AF9
330
23
100
AcDbEntity
  8
0
100
AcDbCircle
 10
385.9698276527321
 20
-63.21381244308489
 30
0.0
 40
0.955834865165902
100
AcDbArc
 50
282.6666339485798
 51
89.90557246439285
  0
LINE
  5
AFA
330
23
100
AcDbEntity
  8
0
100
AcDbLine
 10
382.1980288109671
 20
-61.96393104748096
 30
0.0
 11
382.1757163554946
 21
-61.64484806840073
 31
0.0
  0
ARC
  5
AFB
330
23
100
AcDbEntity
  8
0
100
AcDbCircle
 10
382.6968108360969
 20
-61.929052810609
 30
0.0
 40
0.5
100
AcDbArc
 50
183.9999999999944
 51
272.9999999999926
  0
LINE
  5
AFC
330
23
100
AcDbEntity
  8
0
100
AcDbLine
 10
386.3748375609371
 20
-65.56631317644917
 30
0.0
 11
383.1408364498985
 21
-65.96339858282715
 31
0.0
  0
LINE
  5
AFD
330
23
100
AcDbEntity
  8
0
100
AcDbLine
 10
386.7148871614483
 20
-67.43448331196294
 30
0.0
 11
383.5298843981415
 21
-68.16979913865759
 31
0.0
  0
ARC
  5
AFE
330
23
100
AcDbEntity
  8
0
100
AcDbCircle
 10
383.6423599253135
 20
-68.65698417105003
 30
0.0
 40
0.5
100
AcDbArc
 50
103.000000000004
 51
191.999999999997
  0
ARC
  5
AFF
330
23
100
AcDbEntity
  8
0
100
AcDbCircle
 10
386.4345659919374
 20
-66.52044141795554
 30
0.0
 40
0.955834865165902
100
AcDbArc
 50
286.6666339485819
 51
93.90557246439682
  0
LINE
  5
B00
330
23
100
AcDbEntity
  8
0
100
AcDbLine
 10
382.5847677438252
 20
-65.53671205748639
 30
0.0
 11
382.5402515369205
 21
-65.21996278672043
 31
0.0
  0
ARC
  5
B01
330
23
100
AcDbEntity
  8
0
100
AcDbCircle
 10
383.079901778196
 20
-65.46712550700624
 30
0.0
 40
0.5
100
AcDbArc
 50
187.9999999999948
 51
276.9999999999928
  0
LINE
  5
B02
330
23
100
AcDbEntity
  8
0
100
AcDbLine
 10
387.0026914720018
 20
-68.83895951474198
 30
0.0
 11
383.8042675028535
 21
-69.46067015461801
 31
0.0
  0
LINE
  5
B03
330
23
100
AcDbEntity
  8
0
100
AcDbLine
 10
387.4722296897845
 20
-70.67885822066978
 30
0.0
 11
384.3462784722898
 21
-71.63455741660095
 31
0.0
  0
ARC
  5
B04
330
23
100
AcDbEntity
  8
0
100
AcDbCircle
 10
384.4924643246512
 20
-72.11270979458237
 30
0.0
 40
0.5
100
AcDbArc
 50
107.0000000000019
 51
195.9999999999965
  0
ARC
  5
B05
330
23
100
AcDbEntity
  8
0
100
AcDbCircle
 10
387.1288310291731
 20
-69.78659710307749
 30
0.0
 40
0.955834865165902
100
AcDbArc
 50
290.6666339485787
 51
97.9055724643908
  0
LINE
  5
B06
330
23
100
AcDbEntity
  8
0
100
AcDbLine
 10
383.2197892047983
 20
-69.07381240830296
 30
0.0
 11
383.1532861249465
 21
-68.76094001645902
 31
0.0
  0
ARC
  5
B07
330
23
100
AcDbEntity
  8
0
100
AcDbCircle
 10
383.7088630051652
 20
-68.96985656289402
 30
0.0
 40
0.5
100
AcDbArc
 50
191.9999999999943
 51
280.9999999999924
  0
LINE
  5
B08
330
23
100
AcDbEntity
  8
0
100
AcDbLine
 10
387.8573042308657
 20
-72.05983697617501
 30
0.0
 11
384.7100398036809
 21
-72.9031439378059
 31
0.0
  0
LINE
  5
B09
330
23
100
AcDbEntity
  8
0
100
AcDbLine
 10
388.4540435229208
 20
-73.86250045096756
 30
0.0
 11
385.4023731713504
 21
-75.03392694571926
 31
0.0
  0
ARC
  5
B0A
330
23
100
AcDbEntity
  8
0
100
AcDbCircle
 10
385.5815571461231
 20
-75.50071715896788
 30
0.0
 40
0.5
100
AcDbArc
 50
111.0000000000041
 51
199.9999999999972
  0
ARC
  5
B0B
330
23
100
AcDbEntity
  8
0
100
AcDbCircle
 10
388.0492403749654
 20
-72.99636711626565
 30
0.0
 40
0.955834865165902
100
AcDbArc
 50
294.6666339485787
 51
101.9055724643928
  0
LINE
  5
B0C
330
23
100
AcDbEntity
  8
0
100
AcDbLine
 10
384.0999994331606
 20
-72.55799970256976
 30
0.0
 11
384.011833476682
 21
-72.25052847249106
 31
0.0
  0
ARC
  5
B0D
330
23
100
AcDbEntity
  8
0
100
AcDbCircle
 10
384.5806302811299
 20
-72.42018102466127
 30
0.0
 40
0.5
100
AcDbArc
 50
195.999999999995
 51
284.9999999999944
  0
LINE
  5
B0E
330
23
100
AcDbEntity
  8
0
100
AcDbLine
 10
388.9345122500733
 20
-75.21325376951756
 30
0.0
 11
385.8537405207795
 21
-76.27404854615509
 31
0.0
  0
LINE
  5
B0F
330
23
100
AcDbEntity
  8
0
100
AcDbLine
 10
389.6555453625538
 20
-76.96989961792872
 30
0.0
 11
386.6930233081077
 21
-78.35134633937002
 31
0.0
  0
ARC
  5
B10
330
23
100
AcDbEntity
  8
0
100
AcDbCircle
 10
386.9043324389782
 20
-78.80450023288836
 30
0.0
 40
0.5
100
AcDbArc
 50
114.9999999999997
 51
203.9999999999969
  0
ARC
  5
B11
330
23
100
AcDbEntity
  8
0
100
AcDbCircle
 10
389.1913098875004
 20
-76.13411378066039
 30
0.0
 40
0.955834865165902
100
AcDbArc
 50
298.6666339485809
 51
105.9055724643912
  0
LINE
  5
B12
330
23
100
AcDbEntity
  8
0
100
AcDbLine
 10
385.221110133158
 20
-75.97229933001813
 30
0.0
 11
385.11171083573
 21
-75.67172723063072
 31
0.0
  0
ARC
  5
B13
330
23
100
AcDbEntity
  8
0
100
AcDbCircle
 10
385.6909564435511
 20
-75.80128925835538
 30
0.0
 40
0.5
100
AcDbArc
 50
199.9999999999938
 51
288.9999999999949
  0
LINE
  5
B14
330
23
100
AcDbEntity
  8
0
100
AcDbLine
 10
390.2290674804353
 20
-78.28384676513303
 30
0.0
 11
387.2297976592195
 21
-79.55696127125611
 31
0.0
  0
LINE
  5
B15
330
23
100
AcDbEntity
  8
0
100
AcDbLine
 10
391.0708816124953
 20
-79.98591678516675
 30
0.0
 11
388.2119409648312
 21
-81.57065346373338
 31
0.0
  0
ARC
  5
B16
330
23
100
AcDbEntity
  8
0
100
AcDbCircle
 10
388.4543457749545
 20
-82.00796331730307
 30
0.0
 40
0.5
100
AcDbArc
 50
118.9999999999991
 51
207.9999999999964
  0
ARC
  5
B17
330
23
100
AcDbEntity
  8
0
100
AcDbCircle
 10
390.5494755189136
 20
-79.18455030991828
 30
0.0
 40
0.955834865165902
100
AcDbArc
 50
302.6666339485809
 51
109.905572464397
  0
LINE
  5
B18
330
23
100
AcDbEntity
  8
0
100
AcDbLine
 10
386.5776593661536
 20
-79.3000771660678
 30
0.0
 11
386.4475597101567
 21
-79.00786855442629
 31
0.0
  0
ARC
  5
B19
330
23
100
AcDbEntity
  8
0
100
AcDbCircle
 10
387.0344320949751
 20
-79.09670884452996
 30
0.0
 40
0.5
100
AcDbArc
 50
203.9999999999958
 51
292.9999999999933
  0
LINE
  5
B1A
330
23
100
AcDbEntity
  8
0
100
AcDbLine
 10
391.7346629789981
 20
-81.25665634260144
 30
0.0
 11
388.8315072069436
 21
-82.73588809230943
 31
0.0
  0
LINE
  5
B1B
330
23
100
AcDbEntity
  8
0
100
AcDbLine
 10
392.6931568968049
 20
-82.89585822021171
 30
0.0
 11
389.9517261273784
 21
-84.67616417810257
 31
0.0
  0
ARC
  5
B1C
330
23
100
AcDbEntity
  8
0
100
AcDbCircle
 10
390.2240456448858
 20
-85.0954994620754
 30
0.0
 40
0.5
100
AcDbArc
 50
123.0000000000017
 51
211.9999999999957
  0
ARC
  5
B1D
330
23
100
AcDbEntity
  8
0
100
AcDbCircle
 10
392.1171204227711
 20
-82.13281528389741
 30
0.0
 40
0.955834865165902
100
AcDbArc
 50
306.6666339485809
 51
113.9055724643914
  0
LINE
  5
B1E
330
23
100
AcDbEntity
  8
0
100
AcDbLine
 10
388.1630381606444
 20
-82.52512061160814
 30
0.0
 11
388.0128719785249
 21
-82.24269909869589
 31
0.0
  0
ARC
  5
B1F
330
23
100
AcDbEntity
  8
0
100
AcDbCircle
 10
388.6045119570736
 20
-82.29038483021524
 30
0.0
 40
0.5
100
AcDbArc
 50
207.9999999999953
 51
296.9999999999944
  0
LINE
  5
B20
330
23
100
AcDbEntity
  8
0
100
AcDbLine
 10
393.4439636358342
 20
-84.11719927248737
 30
0.0
 11
390.6510657960382
 21
-85.7953415973874
 31
0.0
  0
LINE
  5
B21
330
23
100
AcDbEntity
  8
0
100
AcDbLine
 10
394.5144676533678
 20
-85.68554698089826
 30
0.0
 11
391.9039027373199
 21
-87.65274874644246
 31
0.0
  0
ARC
  5
B22
330
23
100
AcDbEntity
  8
0
100
AcDbCircle
 10
392.2048102488959
 20
-88.05206650146624
 30
0.0
 40
0.5
100
AcDbArc
 50
127.0000000000025
 51
215.9999999999976
  0
ARC
  5
B23
330
23
100
AcDbEntity
  8
0
100
AcDbCircle
 10
393.8866071906807
 20
-84.96454505200308
 30
0.0
 40
0.955834865165902
100
AcDbArc
 50
310.666633948579
 51
117.9055724643925
  0
LINE
  5
B24
330
23
100
AcDbEntity
  8
0
100
AcDbLine
 10
389.9695227105051
 20
-85.63171757915279
 30
0.0
 11
389.8000215968077
 21
-85.36045909419192
 31
0.0
  0
ARC
  5
B25
330
23
100
AcDbEntity
  8
0
100
AcDbCircle
 10
390.3935467585833
 20
-85.36675794703626
 30
0.0
 40
0.5
100
AcDbArc
 50
211.9999999999929
 51
300.9999999999941
  0
LINE
  5
B26
330
23
100
AcDbEntity
  8
0
100
AcDbLine
 10
395.3486419099618
 20
-86.8515392771771
 30
0.0
 11
392.6796087199589
 21
-88.72041643654847
 31
0.0
  0
LINE
  5
B27
330
23
100
AcDbEntity
  8
0
100
AcDbLine
 10
396.5259406392555
 20
-88.34139198400311
 30
0.0
 11
394.058959986444
 21
-90.48590554794134
 31
0.0
  0
ARC
  5
B28
330
23
100
AcDbEntity
  8
0
100
AcDbCircle
 10
394.3869895009392
 20
-90.86326033805267
 30
0.0
 40
0.5
100
AcDbArc
 50
131.0000000000004
 51
219.9999999999992
  0
ARC
  5
B29
330
23
100
AcDbEntity
  8
0
100
AcDbCircle
 10
395.8493150609768
 20
-87.66594371144959
 30
0.0
 40
0.955834865165902
100
AcDbArc
 50
314.666633948579
 51
121.9055724643923
  0
LINE
  5
B2A
330
23
100
AcDbEntity
  8
0
100
AcDbLine
 10
391.9883120045959
 20
-88.60473304055018
 30
0.0
 11
391.8003017517083
 21
-88.34595912761244
 31
0.0
  0
ARC
  5
B2B
330
23
100
AcDbEntity
  8
0
100
AcDbCircle
 10
392.3928205017833
 20
-88.31084041440391
 30
0.0
 40
0.5
100
AcDbArc
 50
215.9999999999924
 51
304.9999999999966
  0
LINE
  5
B2C
330
23
100
AcDbEntity
  8
0
100
AcDbLine
 10
397.4394184002872
 20
-89.44635492702252
 30
0.0
 11
394.9072531214886
 21
-91.49686193920377
 31
0.0
  0
LINE
  5
B2D
330
23
100
AcDbEntity
  8
0
100
AcDbLine
 10
398.7177761602734
 20
-90.85045421963547
 30
0.0
 11
396.4063986524591
 21
-93.1618317274499
 31
0.0
  0
ARC
  5
B2E
330
23
100
AcDbEntity
  8
0
100
AcDbCircle
 10
396.7599520430524
 20
-93.51538511804319
 30
0.0
 40
0.5
100
AcDbArc
 50
135.0000000000006
 51
223.9999999999942
  0
ARC
  5
B2F
330
23
100
AcDbEntity
  8
0
100
AcDbCircle
 10
397.9956819182066
 20
-90.22385031951177
 30
0.0
 40
0.955834865165902
100
AcDbArc
 50
318.6666339485843
 51
125.9055724643955
  0
LINE
  5
B30
330
23
100
AcDbEntity
  8
0
100
AcDbLine
 10
394.2095707044042
 20
-91.42968276331846
 30
0.0
 11
394.0039672793798
 21
-91.18465414289596
 31
0.0
  0
ARC
  5
B31
330
23
100
AcDbEntity
  8
0
100
AcDbCircle
 10
394.5925929259638
 20
-91.10828895847516
 30
0.0
 40
0.5
100
AcDbArc
 50
219.9999999999919
 51
308.9999999999941
  0
LINE
  5
B32
330
23
100
AcDbEntity
  8
0
100
AcDbLine
 10
399.7061070539134
 20
-91.88900454100769
 30
0.0
 11
397.3231461410253
 21
-94.11115154195176
 31
0.0
  0
LINE
  5
B33
330
23
100
AcDbEntity
  8
0
100
AcDbLine
 10
401.0792958140857
 20
-93.20050978879368
 30
0.0
 11
398.9347822501476
 21
-95.66749044160502
 31
0.0
  0
ARC
  5
B34
330
23
100
AcDbEntity
  8
0
100
AcDbCircle
 10
399.3121370402591
 20
-95.99551995610056
 30
0.0
 40
0.5
100
AcDbArc
 50
139.0000000000001
 51
227.999999999999
  0
ARC
  5
B35
330
23
100
AcDbEntity
  8
0
100
AcDbCircle
 10
400.3152508787933
 20
-92.62580301231537
 30
0.0
 40
0.955834865165902
100
AcDbArc
 50
322.666633948583
 51
129.9055724643963
  0
LINE
  5
B36
330
23
100
AcDbEntity
  8
0
100
AcDbLine
 10
396.6224770608246
 20
-94.09280387637158
 30
0.0
 11
396.4002821428831
 21
-93.86271430327269
 31
0.0
  0
ARC
  5
B37
330
23
100
AcDbEntity
  8
0
100
AcDbCircle
 10
396.9821469609942
 20
-93.74547469114231
 30
0.0
 40
0.5
100
AcDbArc
 50
223.9999999999938
 51
312.9999999999914
  0
LINE
  5
B38
330
23
100
AcDbEntity
  8
0
100
AcDbLine
 10
402.1376647915669
 20
-94.16758777574761
 30
0.0
 11
399.9155177906223
 21
-96.55054868863523
 31
0.0
  0
LINE
  5
B39
330
23
100
AcDbEntity
  8
0
100
AcDbLine
 10
403.5989945143182
 20
-95.38010945697129
 30
0.0
 11
401.631792748774
 21
-97.99067437301921
 31
0.0
  0
ARC
  5
B3A
330
23
100
AcDbEntity
  8
0
100
AcDbCircle
 10
402.0311105037976
 20
-98.29158188459537
 30
0.0
 40
0.5
100
AcDbArc
 50
143.0000000000038
 51
231.9999999999946
  0
ARC
  5
B3B
330
23
100
AcDbEntity
  8
0
100
AcDbCircle
 10
402.7967212359231
 20
-94.86009971778377
 30
0.0
 40
0.955834865165902
100
AcDbArc
 50
326.6666339485819
 51
133.9055724643959
  0
LINE
  5
B3C
330
23
100
AcDbEntity
  8
0
100
AcDbLine
 10
399.2152756366333
 20
-96.58112192134263
 30
0.0
 11
398.9775717370796
 21
-96.36709236883906
 31
0.0
  0
ARC
  5
B3D
330
23
100
AcDbEntity
  8
0
100
AcDbCircle
 10
399.5498409398127
 20
-96.20954950860397
 30
0.0
 40
0.5
100
AcDbArc
 50
227.9999999999917
 51
316.9999999999955
  0
LINE
  5
B3E
330
23
100
AcDbEntity
  8
0
100
AcDbLine
 10
404.7222453083691
 20
-96.271003602765
 30
0.0
 11
402.6717382961871
 21
-98.80316888156295
 31
0.0
  0
LINE
  5
B3F
330
23
100
AcDbEntity
  8
0
100
AcDbLine
 10
406.2645965421823
 20
-97.37863443367769
 30
0.0
 11
404.4842905842914
 21
-100.1200652031042
 31
0.0
  0
ARC
  5
B40
330
23
100
AcDbEntity
  8
0
100
AcDbCircle
 10
404.9036258682641
 20
-100.3923847206118
 30
0.0
 40
0.5
100
AcDbArc
 50
147.0000000000009
 51
235.9999999999946
  0
ARC
  5
B41
330
23
100
AcDbEntity
  8
0
100
AcDbCircle
 10
405.4280035154532
 20
-96.91585516695921
 30
0.0
 40
0.955834865165902
100
AcDbArc
 50
330.6666339485807
 51
137.9055724643942
  0
LINE
  5
B42
330
23
100
AcDbEntity
  8
0
100
AcDbLine
 10
401.9753345777957
 20
-98.88251406284133
 30
0.0
 11
401.7232797661347
 21
-98.68558726139861
 31
0.0
  0
ARC
  5
B43
330
23
100
AcDbEntity
  8
0
100
AcDbCircle
 10
402.2831653154587
 20
-98.48850868603802
 30
0.0
 40
0.5
100
AcDbArc
 50
231.9999999999944
 51
320.9999999999927
  0
LINE
  5
B44
330
23
100
AcDbEntity
  8
0
100
AcDbLine
 10
407.4472567878432
 20
-98.18900439158511
 30
0.0
 11
405.578379628471
 21
-100.8580375815875
 31
0.0
  0
LINE
  5
B45
330
23
100
AcDbEntity
  8
0
100
AcDbLine
 10
409.0631153525439
 20
-99.18634810611735
 30
0.0
 11
407.4783786739775
 21
-102.0452887537815
 31
0.0
  0
ARC
  5
B46
330
23
100
AcDbEntity
  8
0
100
AcDbCircle
 10
407.9156885275471
 20
-102.2876935639047
 30
0.0
 40
0.5
100
AcDbArc
 50
151.0000000000023
 51
239.9999999999998
  0
ARC
  5
B47
330
23
100
AcDbEntity
  8
0
100
AcDbCircle
 10
408.1962783746126
 20
-98.78305392593686
 30
0.0
 40
0.955834865165902
100
AcDbArc
 50
334.6666339485822
 51
141.9055724643961
  0
LINE
  5
B48
330
23
100
AcDbEntity
  8
0
100
AcDbLine
 10
404.8892071545912
 20
-100.9857681496894
 30
0.0
 11
404.6240294165288
 21
-100.8069035068893
 31
0.0
  0
ARC
  5
B49
330
23
100
AcDbEntity
  8
0
100
AcDbCircle
 10
405.1688036063267
 20
-100.5712493634119
 30
0.0
 40
0.5
100
AcDbArc
 50
235.9999999999943
 51
324.9999999999919
  0
LINE
  5
B4A
330
23
100
AcDbEntity
  8
0
100
AcDbLine
 10
410.2994232479785
 20
-99.91224583516169
 30
0.0
 11
408.6212809230779
 21
-102.7051436749571
 31
0.0
  0
LINE
  5
B4B
330
23
100
AcDbEntity
  8
0
100
AcDbLine
 10
411.980916843065
 20
-100.7944434749889
 30
0.0
 11
410.5994701216237
 21
-103.756965529435
 31
0.0
  0
ARC
  5
B4C
330
23
100
AcDbEntity
  8
0
100
AcDbCircle
 10
411.052624015142
 20
-103.9682746603053
 30
0.0
 40
0.5
100
AcDbArc
 50
155.0000000000017
 51
243.999999999998
  0
ARC
  5
B4D
330
23
100
AcDbEntity
  8
0
100
AcDbCircle
 10
411.088059056554
 20
-100.4525991900533
 30
0.0
 40
0.955834865165902
100
AcDbArc
 50
338.6666339485819
 51
145.9055724643947
  0
LINE
  5
B4E
330
23
100
AcDbEntity
  8
0
100
AcDbLine
 10
407.9426972727267
 20
-102.8806373393942
 30
0.0
 11
407.6656885275472
 21
-102.7207062657969
 31
0.0
  0
ARC
  5
B4F
330
23
100
AcDbEntity
  8
0
100
AcDbCircle
 10
408.1926972727268
 20
-102.447624637502
 30
0.0
 40
0.5
100
AcDbArc
 50
239.9999999999926
 51
328.9999999999924
  0
LINE
  5
B50
330
23
100
AcDbEntity
  8
0
100
AcDbLine
 10
413.2648492204798
 20
-101.4323324744012
 30
0.0
 11
411.7856174707712
 21
-104.3354882464553
 31
0.0
  0
LINE
  5
B51
330
23
100
AcDbEntity
  8
0
100
AcDbLine
 10
415.00378577818
 20
-102.1950860613003
 30
0.0
 11
413.8323592834283
 21
-105.2467564128707
 31
0.0
  0
ARC
  5
B52
330
23
100
AcDbEntity
  8
0
100
AcDbCircle
 10
414.2991494966768
 20
-105.4259403876433
 30
0.0
 40
0.5
100
AcDbArc
 50
159.0000000000013
 51
247.9999999999987
  0
ARC
  5
B53
330
23
100
AcDbEntity
  8
0
100
AcDbCircle
 10
414.0892570964754
 20
-101.9163571026038
 30
0.0
 40
0.955834865165902
100
AcDbArc
 50
342.6666339485811
 51
149.9055724643928
  0
LINE
  5
B54
330
23
100
AcDbEntity
  8
0
100
AcDbLine
 10
411.1209286352824
 20
-104.557890019735
 30
0.0
 11
410.8334384417474
 21
-104.4176716834549
 31
0.0
  0
ARC
  5
B55
330
23
100
AcDbEntity
  8
0
100
AcDbCircle
 10
411.3401142086768
 20
-104.1084929965854
 30
0.0
 40
0.5
100
AcDbArc
 50
243.9999999999979
 51
332.9999999999939
  0
LINE
  5
B56
330
23
100
AcDbEntity
  8
0
100
AcDbLine
 10
416.3290874480928
 20
-102.7418585999959
 30
0.0
 11
415.055972941969
 21
-105.7411284212115
 31
0.0
  0
LINE
  5
B57
330
23
100
AcDbEntity
  8
0
100
AcDbLine
 10
418.1169950442949
 20
-103.3814520751633
 30
0.0
 11
417.1612958483637
 21
-106.507403292658
 31
0.0
  0
ARC
  5
B58
330
23
100
AcDbEntity
  8
0
100
AcDbCircle
 10
417.6394482263452
 20
-106.6535891450194
 30
0.0
 40
0.5
100
AcDbArc
 50
163.0000000000022
 51
251.9999999999943
  0
ARC
  5
B59
330
23
100
AcDbEntity
  8
0
100
AcDbCircle
 10
417.1852509592058
 20
-103.1671963821749
 30
0.0
 40
0.955834865165902
100
AcDbArc
 50
346.6666339485812
 51
153.9055724643935
  0
LINE
  5
B5A
330
23
100
AcDbEntity
  8
0
100
AcDbLine
 10
414.4084172185348
 20
-106.0093547842501
 30
0.0
 11
414.111846199969
 21
-105.8895323149268
 31
0.0
  0
ARC
  5
B5B
330
23
100
AcDbEntity
  8
0
100
AcDbCircle
 10
414.5957205152427
 20
-105.5457628569667
 30
0.0
 40
0.5
100
AcDbArc
 50
247.9999999999917
 51
336.9999999999925
  0
LINE
  5
B5C
330
23
100
AcDbEntity
  8
0
100
AcDbLine
 10
419.4772092701889
 20
-103.834444332295
 30
0.0
 11
418.4164144935506
 21
-106.9152160615885
 31
0.0
  0
LINE
  5
B5D
330
23
100
AcDbEntity
  8
0
100
AcDbLine
 10
421.3053773988039
 20
-104.3477616606113
 30
0.0
 11
420.5700615721094
 21
-107.5327644239183
 31
0.0
  0
ARC
  5
B5E
330
23
100
AcDbEntity
  8
0
100
AcDbCircle
 10
421.057246604502
 20
-107.6452399510902
 30
0.0
 40
0.5
100
AcDbArc
 50
167.0000000000021
 51
255.9999999999971
  0
ARC
  5
B5F
330
23
100
AcDbEntity
  8
0
100
AcDbCircle
 10
420.3609572738543
 20
-104.1990230655303
 30
0.0
 40
0.955834865165902
100
AcDbArc
 50
350.666633948582
 51
157.9055724643945
  0
LINE
  5
B60
330
23
100
AcDbEntity
  8
0
100
AcDbLine
 10
417.7891467085633
 20
-107.2279602425074
 30
0.0
 11
417.4849397291579
 21
-107.129117403167
 31
0.0
  0
ARC
  5
B61
330
23
100
AcDbEntity
  8
0
100
AcDbCircle
 10
417.9436552057508
 20
-106.7524319843599
 30
0.0
 40
0.5
100
AcDbArc
 50
251.9999999999943
 51
340.999999999994
  0
LINE
  5
B62
330
23
100
AcDbEntity
  8
0
100
AcDbLine
 10
422.6938773536986
 20
-104.704766703437
 30
0.0
 11
421.8505703920669
 21
-107.8520311306214
 31
0.0
  0
LINE
  5
B63
330
23
100
AcDbEntity
  8
0
100
AcDbLine
 10
424.5533993633708
 20
-105.0893070544772
 30
0.0
 11
424.0420492907069
 21
-108.3178443502888
 31
0.0
  0
ARC
  5
B64
330
23
100
AcDbEntity
  8
0
100
AcDbCircle
 10
424.5358934610045
 20
-108.3960615828089
 30
0.0
 40
0.5
100
AcDbArc
 50
171.0000000000013
 51
259.9999999999948
  0
ARC
  5
B65
330
23
100
AcDbEntity
  8
0
100
AcDbCircle
 10
423.6009043184767
 20
-105.0068101967877
 30
0.0
 40
0.955834865165902
100
AcDbArc
 50
354.6666339485813
 51
161.9055724643941
  0
LINE
  5
B66
330
23
100
AcDbEntity
  8
0
100
AcDbLine
 10
421.2466465311226
 20
-108.2077694712081
 30
0.0
 11
420.9362856567022
 21
-108.1303878142282
 31
0.0
  0
ARC
  5
B67
330
23
100
AcDbEntity
  8
0
100
AcDbCircle
 10
421.3676074789224
 20
-107.7226216080701
 30
0.0
 40
0.5
100
AcDbArc
 50
255.9999999999971
 51
344.9999999999945
  0
LINE
  5
B68
330
23
100
AcDbEntity
  8
0
100
AcDbLine
 10
425.9634204150574
 20
-105.3485855903142
 30
0.0
 11
425.3417097751805
 21
-108.5470095594623
 31
0.0
  0
LINE
  5
B69
330
23
100
AcDbEntity
  8
0
100
AcDbLine
 10
427.8452369014742
 20
-105.6024755221419
 30
0.0
 11
427.5603438289941
 21
-108.8588182412845
 31
0.0
  0
ARC
  5
B6A
330
23
100
AcDbEntity
  8
0
100
AcDbCircle
 10
428.05844117804
 20
-108.9023961126583
 30
0.0
 40
0.5
100
AcDbArc
 50
175.0000000000015
 51
263.9999999999982
  0
ARC
  5
B6B
330
23
100
AcDbEntity
  8
0
100
AcDbCircle
 10
426.8893073967499
 20
-105.5866223182421
 30
0.0
 40
0.955834865165902
100
AcDbArc
 50
358.6666339485817
 51
165.905572464394
  0
LINE
  5
B6C
330
23
100
AcDbEntity
  8
0
100
AcDbLine
 10
424.7640720946232
 20
-108.9440089382801
 30
0.0
 11
424.4490693721709
 21
-108.8884654593151
 31
0.0
  0
ARC
  5
B6D
330
23
100
AcDbEntity
  8
0
100
AcDbCircle
 10
424.8508961834568
 20
-108.451605061774
 30
0.0
 40
0.5
100
AcDbArc
 50
259.9999999999948
 51
348.9999999999942
  0
LINE
  5
B6E
330
23
100
AcDbEntity
  8
0
100
AcDbLine
 10
429.2699095691242
 20
-105.7627643720263
 30
0.0
 11
428.8728241627454
 21
-108.9967654830648
 31
0.0
  0
LINE
  5
B6F
330
23
100
AcDbEntity
  8
0
100
AcDbLine
 10
431.1648525115233
 20
-105.8847669584145
 30
0.0
 11
431.1078044096388
 21
-109.1530505264868
 31
0.0
  0
ARC
  5
B70
330
23
100
AcDbEntity
  8
0
100
AcDbCircle
 10
431.607728257217
 20
-109.1617767297055
 30
0.0
 40
0.5
100
AcDbArc
 50
179.0000000000015
 51
267.9999999999964
  0
ARC
  5
B71
330
23
100
AcDbEntity
  8
0
100
AcDbCircle
 10
430.210145739426
 20
-105.9356346435201
 30
0.0
 40
0.955834865165902
100
AcDbArc
 50
2.6666339485816
 51
169.9055724643937
  0
LINE
  5
B72
330
23
100
AcDbEntity
  8
0
100
AcDbLine
 10
428.324286855291
 20
-109.4330917590463
 30
0.0
 11
428.0061769464063
 21
-109.3996570603425
 31
0.0
  0
ARC
  5
B73
330
23
100
AcDbEntity
  8
0
100
AcDbCircle
 10
428.3765510869248
 20
-108.9358308113621
 30
0.0
 40
0.5
100
AcDbArc
 50
263.9999999999917
 51
352.999999999994
  0
LINE
  5
B74
330
23
100
AcDbEntity
  8
0
100
AcDbLine
 10
432.5972359331068
 20
-105.9452852111818
 30
0.0
 11
432.4267103204111
 21
-109.1991077357783
 31
0.0
  0
LINE
  5
B78
330
23
100
AcDbEntity
  8
0
100
AcDbLine
 10
431.9099458046825
 20
-109.6726351711664
 30
0.0
 11
431.5902785088657
 21
-109.661472143215
 31
0.0
  0
ARC
  5
B79
330
23
100
AcDbEntity
  8
0
100
AcDbCircle
 10
431.9273955530339
 20
-109.1729397576568
 30
0.0
 40
0.5
100
AcDbArc
 50
267.9999999999964
 51
356.9999999999936
  0
ARC
  5
C9B
330
23
100
AcDbEntity
  8
0
100
AcDbCircle
 10
433.5472405559085
 20
-106.0521468196558
 30
0.0
 40
0.955834865165902
100
AcDbArc
 50
89.99988262048468
 51
173.9055724643939
  0
ARC
  5
DBA
330
23
100
AcDbEntity
  8
0
100
AcDbCircle
 10
468.359789618153
 20
-34.23378691807491
 30
0.0
 40
1.0
100
AcDbArc
 50
179.9999999999943
 51
267.6119845367269
  0
LINE
  5
DBB
330
23
100
AcDbEntity
  8
0
100
AcDbLine
 10
467.359789618153
 20
-34.23378691807496
 30
0.0
 11
467.3642511901301
 21
-11.32956519819279
 31
0.0
  0
LINE
  5
DBC
330
23
100
AcDbEntity
  8
0
100
AcDbLine
 10
468.3094829258944
 20
-10.4806038580952
 30
0.0
 11
468.4800085385901
 21
-7.226781333498628
 31
0.0
  0
ARC
  5
DBD
330
23
100
AcDbEntity
  8
0
100
AcDbCircle
 10
467.3594783030928
 20
-10.37374224962122
 30
0.0
 40
0.955834865165902
100
AcDbArc
 50
270.2861032064865
 51
353.905572464394
  0
ARC
  5
DBE
330
23
100
AcDbEntity
  8
0
100
AcDbCircle
 10
468.359789618153
 20
-82.19210215120208
 30
0.0
 40
1.0
100
AcDbArc
 50
92.38801546327312
 51
180.0000000000057
  0
LINE
  5
DBF
330
23
100
AcDbEntity
  8
0
100
AcDbLine
 10
467.359789618153
 20
-82.19210215120204
 30
0.0
 11
467.360100933212
 21
-105.0963119544898
 31
0.0
  0
ARC
  5
DC0
330
23
100
AcDbEntity
  8
0
100
AcDbCircle
 10
467.3597896181523
 20
-58.21294453463849
 30
0.0
 40
23.0
100
AcDbArc
 50
272.3880154632666
 51
87.6119845367334
  0
LINE
  5
DC1
330
23
100
AcDbEntity
  8
0
100
AcDbLine
 10
468.9967730543187
 20
-6.753253898110607
 30
0.0
 11
469.3164403501356
 21
-6.764416926061919
 31
0.0
  0
ARC
  5
DC2
330
23
100
AcDbEntity
  8
0
100
AcDbCircle
 10
468.9793233059674
 20
-7.252949311620156
 30
0.0
 40
0.5
100
AcDbArc
 50
87.99999999999634
 51
176.9999999999936
  0
LINE
  5
DC3
330
23
100
AcDbEntity
  8
0
100
AcDbLine
 10
468.3089337372554
 20
-105.9348060677933
 30
0.0
 11
468.4800085385844
 21
-109.1991077357784
 31
0.0
  0
ARC
  5
DC4
330
23
100
AcDbEntity
  8
0
100
AcDbCircle
 10
468.9793233059617
 20
-109.1729397576569
 30
0.0
 40
0.5
100
AcDbArc
 50
183.0000000000015
 51
271.9999999999971
  0
ARC
  5
DC5
330
23
100
AcDbEntity
  8
0
100
AcDbCircle
 10
467.360100933212
 20
-106.0521468196558
 30
0.0
 40
0.955834865165902
100
AcDbArc
 50
6.666633948581644
 51
89.99988262048468
  0
LINE
  5
DC6
330
23
100
AcDbEntity
  8
0
100
AcDbLine
 10
469.7420494847253
 20
-105.8952588845992
 30
0.0
 11
469.7989144493568
 21
-109.1530505264871
 31
0.0
  0
LINE
  5
DC7
330
23
100
AcDbEntity
  8
0
100
AcDbLine
 10
471.6355304509432
 20
-105.7523490647673
 30
0.0
 11
472.0338946962502
 21
-108.9967654830652
 31
0.0
  0
ARC
  5
DC8
330
23
100
AcDbEntity
  8
0
100
AcDbCircle
 10
472.5301677720708
 20
-108.9358308113627
 30
0.0
 40
0.5
100
AcDbArc
 50
187.0000000000011
 51
275.9999999999952
  0
ARC
  5
DC9
330
23
100
AcDbEntity
  8
0
100
AcDbCircle
 10
470.6971942329988
 20
-105.9355912110386
 30
0.0
 40
0.955834865165902
100
AcDbArc
 50
10.66663394858191
 51
177.905572464394
  0
LINE
  5
DCA
330
23
100
AcDbEntity
  8
0
100
AcDbLine
 10
469.3164403501298
 20
-109.6614721432153
 30
0.0
 11
468.9967730543129
 21
-109.6726351711665
 31
0.0
  0
ARC
  5
DCB
330
23
100
AcDbEntity
  8
0
100
AcDbCircle
 10
469.2989906017785
 20
-109.1617767297057
 30
0.0
 40
0.5
100
AcDbArc
 50
271.9999999999971
 51
0.9999999999936207
  0
LINE
  5
DCC
330
23
100
AcDbEntity
  8
0
100
AcDbLine
 10
473.0623965284346
 20
-105.6129291155132
 30
0.0
 11
473.3463750300013
 21
-108.8588182412852
 31
0.0
  0
LINE
  5
DCD
330
23
100
AcDbEntity
  8
0
100
AcDbLine
 10
474.9412961850898
 20
-105.3382848615147
 30
0.0
 11
475.5650090838149
 21
-108.5470095594632
 31
0.0
  0
ARC
  5
DCE
330
23
100
AcDbEntity
  8
0
100
AcDbCircle
 10
476.0558226755388
 20
-108.4516050617749
 30
0.0
 40
0.5
100
AcDbArc
 50
191.0000000000013
 51
279.9999999999986
  0
ARC
  5
DCF
330
23
100
AcDbEntity
  8
0
100
AcDbCircle
 10
474.0180280329768
 20
-105.5865356648776
 30
0.0
 40
0.955834865165902
100
AcDbArc
 50
14.66663394858191
 51
181.9055724643943
  0
LINE
  5
DD0
330
23
100
AcDbEntity
  8
0
100
AcDbLine
 10
472.9005419125892
 20
-109.3996570603432
 30
0.0
 11
472.5824320037047
 21
-109.4330917590468
 31
0.0
  0
ARC
  5
DD1
330
23
100
AcDbEntity
  8
0
100
AcDbCircle
 10
472.8482776809554
 20
-108.902396112659
 30
0.0
 40
0.5
100
AcDbArc
 50
275.9999999999952
 51
4.999999999994066
  0
LINE
  5
DD2
330
23
100
AcDbEntity
  8
0
100
AcDbLine
 10
476.3549610445009
 20
-105.0996713861789
 30
0.0
 11
476.8646695682887
 21
-108.3178443502899
 31
0.0
  0
LINE
  5
DD3
330
23
100
AcDbEntity
  8
0
100
AcDbLine
 10
478.2101255813326
 20
-104.6946307372123
 30
0.0
 11
479.0561484669287
 21
-107.8520311306227
 31
0.0
  0
ARC
  5
DD4
330
23
100
AcDbEntity
  8
0
100
AcDbCircle
 10
479.5391113800731
 20
-107.7226216080714
 30
0.0
 40
0.5
100
AcDbArc
 50
195.0000000000016
 51
283.9999999999962
  0
ARC
  5
DD5
330
23
100
AcDbEntity
  8
0
100
AcDbCircle
 10
477.3064235646816
 20
-105.0066807447069
 30
0.0
 40
0.955834865165902
100
AcDbArc
 50
18.66663394858144
 51
185.9055724643939
  0
LINE
  5
DD6
330
23
100
AcDbEntity
  8
0
100
AcDbLine
 10
476.4576494868244
 20
-108.8884654593161
 30
0.0
 11
476.1426467643722
 21
-108.944008938281
 31
0.0
  0
ARC
  5
DD7
330
23
100
AcDbEntity
  8
0
100
AcDbCircle
 10
476.3708253979911
 20
-108.39606158281
 30
0.0
 40
0.5
100
AcDbArc
 50
279.9999999999918
 51
8.999999999994278
  0
LINE
  5
DD8
330
23
100
AcDbEntity
  8
0
100
AcDbLine
 10
479.6037019895696
 20
-104.3579862366612
 30
0.0
 11
480.3366572868865
 21
-107.5327644239197
 31
0.0
  0
LINE
  5
DD9
330
23
100
AcDbEntity
  8
0
100
AcDbLine
 10
481.4260932314351
 20
-103.8245225100537
 30
0.0
 11
482.4903043654455
 21
-106.9152160615901
 31
0.0
  0
ARC
  5
DDA
330
23
100
AcDbEntity
  8
0
100
AcDbCircle
 10
482.9630636532449
 20
-106.7524319843615
 30
0.0
 40
0.5
100
AcDbArc
 50
199.0000000000021
 51
287.9999999999989
  0
ARC
  5
DDB
330
23
100
AcDbEntity
  8
0
100
AcDbCircle
 10
480.5463600956312
 20
-104.1988514454106
 30
0.0
 40
0.955834865165902
100
AcDbArc
 50
22.66663394858088
 51
189.9055724643939
  0
LINE
  5
DDC
330
23
100
AcDbEntity
  8
0
100
AcDbLine
 10
479.9704332022936
 20
-108.1303878142296
 30
0.0
 11
479.6600723278734
 21
-108.2077694712094
 31
0.0
  0
ARC
  5
DDD
330
23
100
AcDbEntity
  8
0
100
AcDbCircle
 10
479.8494722544939
 20
-107.6452399510916
 30
0.0
 40
0.5
100
AcDbArc
 50
283.9999999999962
 51
12.99999999999392
  0
LINE
  5
DDE
330
23
100
AcDbEntity
  8
0
100
AcDbLine
 10
482.7927918243184
 20
-103.3914870824546
 30
0.0
 11
483.7454230106321
 21
-106.5074032926598
 31
0.0
  0
LINE
  5
DDF
330
23
100
AcDbEntity
  8
0
100
AcDbLine
 10
484.5735312642731
 20
-102.7321992598586
 30
0.0
 11
485.850745917027
 21
-105.7411284212134
 31
0.0
  0
ARC
  5
DE0
330
23
100
AcDbEntity
  8
0
100
AcDbCircle
 10
486.3109983437531
 20
-105.5457628569688
 30
0.0
 40
0.5
100
AcDbArc
 50
203.0000000000006
 51
291.9999999999944
  0
ARC
  5
DE1
330
23
100
AcDbEntity
  8
0
100
AcDbCircle
 10
483.722052980724
 20
-103.1669834301322
 30
0.0
 40
0.955834865165902
100
AcDbArc
 50
26.66663394858151
 51
193.9055724643941
  0
LINE
  5
DE2
330
23
100
AcDbEntity
  8
0
100
AcDbLine
 10
483.4217791298381
 20
-107.1291174031687
 30
0.0
 11
483.1175721504325
 21
-107.2279602425091
 31
0.0
  0
ARC
  5
DE3
330
23
100
AcDbEntity
  8
0
100
AcDbCircle
 10
483.2672706326507
 20
-106.6535891450211
 30
0.0
 40
0.5
100
AcDbArc
 50
287.999999999992
 51
16.99999999999391
  0
LINE
  5
DE4
330
23
100
AcDbEntity
  8
0
100
AcDbLine
 10
485.9066936236386
 20
-102.2048826102863
 30
0.0
 11
487.0743595755676
 21
-105.2467564128729
 31
0.0
  0
LINE
  5
DE5
330
23
100
AcDbEntity
  8
0
100
AcDbLine
 10
487.6371056781305
 20
-101.4229826757021
 30
0.0
 11
489.1211013882249
 21
-104.3354882464576
 31
0.0
  0
ARC
  5
DE6
330
23
100
AcDbEntity
  8
0
100
AcDbCircle
 10
489.5666046503191
 20
-104.1084929965878
 30
0.0
 40
0.5
100
AcDbArc
 50
207.0000000000014
 51
295.9999999999949
  0
ARC
  5
DE7
330
23
100
AcDbEntity
  8
0
100
AcDbCircle
 10
486.818030563443
 20
-101.9161038561192
 30
0.0
 40
0.955834865165902
100
AcDbArc
 50
30.66663394858221
 51
197.905572464394
  0
LINE
  5
DE8
330
23
100
AcDbEntity
  8
0
100
AcDbLine
 10
486.7948726590269
 20
-105.8895323149289
 30
0.0
 11
486.4983016404611
 21
-106.0093547842522
 31
0.0
  0
ARC
  5
DE9
330
23
100
AcDbEntity
  8
0
100
AcDbCircle
 10
486.607569362319
 20
-105.4259403876455
 30
0.0
 40
0.5
100
AcDbArc
 50
291.9999999999943
 51
20.99999999999411
  0
LINE
  5
DEA
330
23
100
AcDbEntity
  8
0
100
AcDbLine
 10
488.9302367709728
 20
-100.8039538378675
 30
0.0
 11
490.3072487373726
 21
-103.7569655294375
 31
0.0
  0
LINE
  5
DEB
330
23
100
AcDbEntity
  8
0
100
AcDbLine
 10
490.6018910464127
 20
-99.90325112918021
 30
0.0
 11
492.2854379359186
 21
-102.7051436749598
 31
0.0
  0
ARC
  5
DEC
330
23
100
AcDbEntity
  8
0
100
AcDbCircle
 10
492.7140215862697
 20
-102.4476246375048
 30
0.0
 40
0.5
100
AcDbArc
 50
211.000000000001
 51
299.9999999999997
  0
ARC
  5
DED
330
23
100
AcDbEntity
  8
0
100
AcDbCircle
 10
489.8192095522124
 20
-100.4523068829182
 30
0.0
 40
0.955834865165902
100
AcDbArc
 50
34.6666339485806
 51
201.905572464395
  0
LINE
  5
DEE
330
23
100
AcDbEntity
  8
0
100
AcDbLine
 10
490.0732804172488
 20
-104.4176716834574
 30
0.0
 11
489.7857902237137
 21
-104.5578900197375
 31
0.0
  0
ARC
  5
DEF
330
23
100
AcDbEntity
  8
0
100
AcDbCircle
 10
489.8540948438542
 20
-103.9682746603078
 30
0.0
 40
0.5
100
AcDbArc
 50
295.9999999999947
 51
24.99999999999492
  0
LINE
  5
DF0
330
23
100
AcDbEntity
  8
0
100
AcDbLine
 10
491.8486908680318
 20
-99.1955259493568
 30
0.0
 11
493.428340185019
 21
-102.0452887537844
 31
0.0
  0
LINE
  5
DF1
330
23
100
AcDbEntity
  8
0
100
AcDbLine
 10
493.453443232824
 20
-98.18040859962463
 30
0.0
 11
495.3283392305254
 21
-100.8580375815905
 31
0.0
  0
ARC
  5
DF2
330
23
100
AcDbEntity
  8
0
100
AcDbCircle
 10
495.7379152526699
 20
-100.571249363415
 30
0.0
 40
0.5
100
AcDbArc
 50
214.9999999999997
 51
303.9999999999978
  0
ARC
  5
DF3
330
23
100
AcDbEntity
  8
0
100
AcDbCircle
 10
492.7109685046758
 20
-98.7827239822422
 30
0.0
 40
0.955834865165902
100
AcDbArc
 50
38.66663394858264
 51
205.9055724643938
  0
LINE
  5
DF4
330
23
100
AcDbEntity
  8
0
100
AcDbLine
 10
493.2410303314492
 20
-102.7207062657998
 30
0.0
 11
492.9640215862697
 21
-102.880637339397
 31
0.0
  0
ARC
  5
DF5
330
23
100
AcDbEntity
  8
0
100
AcDbCircle
 10
492.9910303314492
 20
-102.2876935639075
 30
0.0
 40
0.5
100
AcDbArc
 50
299.9999999999926
 51
28.99999999999331
  0
LINE
  5
DF6
330
23
100
AcDbEntity
  8
0
100
AcDbLine
 10
494.6478374998171
 20
-97.38743504374816
 30
0.0
 11
496.4224282747051
 21
-100.1200652031074
 31
0.0
  0
LINE
  5
DF7
330
23
100
AcDbEntity
  8
0
100
AcDbLine
 10
496.1778697617496
 20
-96.26284860265991
 30
0.0
 11
498.2349805628095
 21
-98.80316888156631
 31
0.0
  0
ARC
  5
DF8
330
23
100
AcDbEntity
  8
0
100
AcDbCircle
 10
498.6235535435379
 20
-98.48850868604131
 30
0.0
 40
0.5
100
AcDbArc
 50
218.9999999999991
 51
307.9999999999972
  0
ARC
  5
DF9
330
23
100
AcDbEntity
  8
0
100
AcDbCircle
 10
495.4792190618957
 20
-96.91548919415737
 30
0.0
 40
0.955834865165902
100
AcDbArc
 50
42.66663394858086
 51
209.9055724643945
  0
LINE
  5
DFA
330
23
100
AcDbEntity
  8
0
100
AcDbLine
 10
496.2826894424676
 20
-100.8069035068924
 30
0.0
 11
496.0175117044051
 21
-100.9857681496925
 31
0.0
  0
ARC
  5
DFB
330
23
100
AcDbEntity
  8
0
100
AcDbCircle
 10
496.0030929907323
 20
-100.3923847206148
 30
0.0
 40
0.5
100
AcDbArc
 50
303.9999999999976
 51
32.99999999999488
  0
LINE
  5
DFC
330
23
100
AcDbEntity
  8
0
100
AcDbLine
 10
497.3140395053081
 20
-95.38848995818517
 30
0.0
 11
499.2749261102229
 21
-97.99067437302273
 31
0.0
  0
LINE
  5
DFD
330
23
100
AcDbEntity
  8
0
100
AcDbLine
 10
498.761897500999
 20
-94.15991329783878
 30
0.0
 11
500.9912010683748
 21
-96.55054868863892
 31
0.0
  0
ARC
  5
DFE
330
23
100
AcDbEntity
  8
0
100
AcDbCircle
 10
501.3568779191843
 20
-96.20954950860756
 30
0.0
 40
0.5
100
AcDbArc
 50
223.000000000003
 51
311.9999999999996
  0
ARC
  5
DFF
330
23
100
AcDbEntity
  8
0
100
AcDbCircle
 10
498.1104745854211
 20
-94.8596994988576
 30
0.0
 40
0.955834865165902
100
AcDbArc
 50
46.66663394858343
 51
213.905572464393
  0
LINE
  5
E00
330
23
100
AcDbEntity
  8
0
100
AcDbLine
 10
499.1834390928621
 20
-98.68558726140214
 30
0.0
 11
498.931384281201
 21
-98.88251406284474
 31
0.0
  0
ARC
  5
E01
330
23
100
AcDbEntity
  8
0
100
AcDbCircle
 10
498.8756083551993
 20
-98.29158188459871
 30
0.0
 40
0.5
100
AcDbArc
 50
307.999999999997
 51
36.99999999999427
  0
LINE
  5
E02
330
23
100
AcDbEntity
  8
0
100
AcDbLine
 10
499.8343074163395
 20
-93.20842935219145
 30
0.0
 11
501.9719366088495
 21
-95.66749044160884
 31
0.0
  0
LINE
  5
E03
330
23
100
AcDbEntity
  8
0
100
AcDbLine
 10
501.1929373271717
 20
-91.88184797457996
 30
0.0
 11
503.583572717972
 21
-94.11115154195561
 31
0.0
  0
ARC
  5
E04
330
23
100
AcDbEntity
  8
0
100
AcDbCircle
 10
503.9245718980033
 20
-93.74547469114611
 30
0.0
 40
0.5
100
AcDbArc
 50
227.0000000000008
 51
315.9999999999969
  0
ARC
  5
E05
330
23
100
AcDbEntity
  8
0
100
AcDbCircle
 10
500.5919158628337
 20
-92.62537049709107
 30
0.0
 40
0.955834865165902
100
AcDbArc
 50
50.66663394858448
 51
217.9055724643946
  0
LINE
  5
E06
330
23
100
AcDbEntity
  8
0
100
AcDbLine
 10
501.9291471219174
 20
-96.36709236884275
 30
0.0
 11
501.6914432223638
 21
-96.58112192134632
 31
0.0
  0
ARC
  5
E07
330
23
100
AcDbEntity
  8
0
100
AcDbCircle
 10
501.5945818187382
 20
-95.99551995610402
 30
0.0
 40
0.5
100
AcDbArc
 50
311.9999999999921
 51
40.99999999999155
  0
LINE
  5
E08
330
23
100
AcDbEntity
  8
0
100
AcDbLine
 10
502.1963627409853
 20
-90.85787426190041
 30
0.0
 11
504.5003202065382
 21
-93.161831727454
 31
0.0
  0
LINE
  5
E09
330
23
100
AcDbEntity
  8
0
100
AcDbLine
 10
503.4591454586023
 20
-89.43975113814815
 30
0.0
 11
505.9994657375088
 21
-91.49686193920798
 31
0.0
  0
ARC
  5
E0A
330
23
100
AcDbEntity
  8
0
100
AcDbCircle
 10
506.3141259330336
 20
-91.10828895847943
 30
0.0
 40
0.5
100
AcDbArc
 50
231.0000000000051
 51
319.9999999999984
  0
ARC
  5
E0B
330
23
100
AcDbEntity
  8
0
100
AcDbCircle
 10
502.9114535616638
 20
-90.22338761516044
 30
0.0
 40
0.955834865165902
100
AcDbArc
 50
54.6666339485802
 51
221.9055724643929
  0
LINE
  5
E0C
330
23
100
AcDbEntity
  8
0
100
AcDbLine
 10
504.5064367161143
 20
-93.86271430327679
 30
0.0
 11
504.2842417981725
 21
-94.09280387637556
 31
0.0
  0
ARC
  5
E0D
330
23
100
AcDbEntity
  8
0
100
AcDbCircle
 10
504.1467668159449
 20
-93.51538511804722
 30
0.0
 40
0.5
100
AcDbArc
 50
315.9999999999963
 51
44.99999999999107
  0
LINE
  5
E0E
330
23
100
AcDbEntity
  8
0
100
AcDbLine
 10
504.3886977831367
 20
-88.34827635543513
 30
0.0
 11
506.8477588725537
 21
-90.48590554794566
 31
0.0
  0
LINE
  5
E0F
330
23
100
AcDbEntity
  8
0
100
AcDbLine
 10
505.549481157073
 20
-86.84552043885151
 30
0.0
 11
508.2271101390388
 21
-88.72041643655292
 31
0.0
  0
ARC
  5
E10
330
23
100
AcDbEntity
  8
0
100
AcDbCircle
 10
508.5138983572143
 20
-88.31084041440851
 30
0.0
 40
0.5
100
AcDbArc
 50
235.0000000000029
 51
323.9999999999976
  0
ARC
  5
E11
330
23
100
AcDbEntity
  8
0
100
AcDbCircle
 10
505.0577871274021
 20
-87.66545307222015
 30
0.0
 40
0.955834865165902
100
AcDbArc
 50
58.66663394857913
 51
225.9055724643916
  0
LINE
  5
E12
330
23
100
AcDbEntity
  8
0
100
AcDbLine
 10
506.9027515796177
 20
-91.18465414290028
 30
0.0
 11
506.6971481545933
 21
-91.42968276332272
 31
0.0
  0
ARC
  5
E13
330
23
100
AcDbEntity
  8
0
100
AcDbCircle
 10
506.5197293580582
 20
-90.86326033805717
 30
0.0
 40
0.5
100
AcDbArc
 50
319.9999999999956
 51
48.99999999999143
  0
LINE
  5
E14
330
23
100
AcDbEntity
  8
0
100
AcDbLine
 10
506.4006317068411
 20
-85.69186214153161
 30
0.0
 11
509.0028161216783
 21
-87.65274874644694
 31
0.0
  0
LINE
  5
E15
330
23
100
AcDbEntity
  8
0
100
AcDbLine
 10
507.4537605171804
 20
-84.11179470788614
 30
0.0
 11
510.25565306296
 21
-85.79534159739205
 31
0.0
  0
ARC
  5
E16
330
23
100
AcDbEntity
  8
0
100
AcDbCircle
 10
510.5131721004152
 20
-85.36675794704098
 30
0.0
 40
0.5
100
AcDbArc
 50
238.9999999999984
 51
327.9999999999964
  0
ARC
  5
E17
330
23
100
AcDbEntity
  8
0
100
AcDbCircle
 10
507.020459838665
 20
-84.96402886824029
 30
0.0
 40
0.955834865165902
100
AcDbArc
 50
62.66663394857954
 51
229.9055724643924
  0
LINE
  5
E18
330
23
100
AcDbEntity
  8
0
100
AcDbLine
 10
509.1064171072896
 20
-88.34595912761688
 30
0.0
 11
508.9184068544019
 21
-88.6047330405546
 31
0.0
  0
ARC
  5
E19
330
23
100
AcDbEntity
  8
0
100
AcDbCircle
 10
508.7019086101023
 20
-88.05206650147079
 30
0.0
 40
0.5
100
AcDbArc
 50
323.9999999999966
 51
52.99999999999702
  0
LINE
  5
E1A
330
23
100
AcDbEntity
  8
0
100
AcDbLine
 10
508.2223625722612
 20
-82.90157340321867
 30
0.0
 11
510.95499273162
 21
-84.67616417810745
 31
0.0
  0
LINE
  5
E1B
330
23
100
AcDbEntity
  8
0
100
AcDbLine
 10
509.1627060812993
 20
-81.25189238222004
 30
0.0
 11
512.0752116520549
 21
-82.73588809231421
 31
0.0
  0
ARC
  5
E1C
330
23
100
AcDbEntity
  8
0
100
AcDbCircle
 10
512.3022069019248
 20
-82.29038483022014
 30
0.0
 40
0.5
100
AcDbArc
 50
242.9999999999982
 51
331.9999999999978
  0
ARC
  5
E1D
330
23
100
AcDbEntity
  8
0
100
AcDbCircle
 10
508.7899097512899
 20
-82.13227607039693
 30
0.0
 40
0.955834865165902
100
AcDbArc
 50
66.6666339485852
 51
233.9055724643911
  0
LINE
  5
E1E
330
23
100
AcDbEntity
  8
0
100
AcDbLine
 10
511.1066972621905
 20
-85.36045909419669
 30
0.0
 11
510.9371961484932
 21
-85.63171757915744
 31
0.0
  0
ARC
  5
E1F
330
23
100
AcDbEntity
  8
0
100
AcDbCircle
 10
510.6826732141126
 20
-85.09549946208023
 30
0.0
 40
0.5
100
AcDbArc
 50
327.9999999999954
 51
56.99999999999079
  0
LINE
  5
E20
330
23
100
AcDbEntity
  8
0
100
AcDbLine
 10
509.8450150897402
 20
-79.99100414675035
 30
0.0
 11
512.6947778941675
 21
-81.57065346373816
 31
0.0
  0
LINE
  5
E21
330
23
100
AcDbEntity
  8
0
100
AcDbLine
 10
510.6679920384245
 20
-78.27974661850737
 30
0.0
 11
513.6769211997792
 21
-79.55696127126123
 31
0.0
  0
ARC
  5
E22
330
23
100
AcDbEntity
  8
0
100
AcDbCircle
 10
513.872286764024
 20
-79.09670884453487
 30
0.0
 40
0.5
100
AcDbArc
 50
246.9999999999998
 51
335.9999999999966
  0
ARC
  5
E23
330
23
100
AcDbEntity
  8
0
100
AcDbCircle
 10
510.3575162831671
 20
-79.18399069367388
 30
0.0
 40
0.955834865165902
100
AcDbArc
 50
70.66663394857923
 51
237.9055724643978
  0
LINE
  5
E24
330
23
100
AcDbEntity
  8
0
100
AcDbLine
 10
512.8938468804737
 20
-82.242699098701
 30
0.0
 11
512.7436806983543
 21
-82.52512061161302
 31
0.0
  0
ARC
  5
E25
330
23
100
AcDbEntity
  8
0
100
AcDbCircle
 10
512.4523730840443
 20
-82.00796331730785
 30
0.0
 40
0.5
100
AcDbArc
 50
331.9999999999942
 51
60.99999999999337
  0
LINE
  5
E26
330
23
100
AcDbEntity
  8
0
100
AcDbLine
 10
511.2606838593217
 20
-76.97433437297457
 30
0.0
 11
514.2136955508913
 21
-78.35134633937525
 31
0.0
  0
LINE
  5
E27
330
23
100
AcDbEntity
  8
0
100
AcDbLine
 10
511.9622847866832
 20
-75.20983741215002
 30
0.0
 11
515.0529783382197
 21
-76.27404854616031
 31
0.0
  0
ARC
  5
E28
330
23
100
AcDbEntity
  8
0
100
AcDbCircle
 10
515.2157624154483
 20
-75.80128925836067
 30
0.0
 40
0.5
100
AcDbArc
 50
251.0000000000051
 51
339.9999999999959
  0
ARC
  5
E29
330
23
100
AcDbEntity
  8
0
100
AcDbCircle
 10
511.7156422128488
 20
-76.13353648806645
 30
0.0
 40
0.955834865165902
100
AcDbArc
 50
74.66663394858087
 51
241.9055724643927
  0
LINE
  5
E2A
330
23
100
AcDbEntity
  8
0
100
AcDbLine
 10
514.4591591488421
 20
-79.00786855443141
 30
0.0
 11
514.3290594928451
 21
-79.30007716607292
 31
0.0
  0
ARC
  5
E2B
330
23
100
AcDbEntity
  8
0
100
AcDbCircle
 10
514.0023864200209
 20
-78.80450023289355
 30
0.0
 40
0.5
100
AcDbArc
 50
335.9999999999955
 51
64.99999999999319
  0
LINE
  5
E2C
330
23
100
AcDbEntity
  8
0
100
AcDbLine
 10
512.4624718850626
 20
-73.86626099379487
 30
0.0
 11
515.5043456876491
 21
-75.0339269457246
 31
0.0
  0
LINE
  5
E2D
330
23
100
AcDbEntity
  8
0
100
AcDbLine
 10
513.0392786619081
 20
-72.05712105221528
 30
0.0
 11
516.1966790553186
 21
-72.90314393781113
 31
0.0
  0
ARC
  5
E2E
330
23
100
AcDbEntity
  8
0
100
AcDbCircle
 10
516.3260885778698
 20
-72.42018102466673
 30
0.0
 40
0.5
100
AcDbArc
 50
254.9999999999988
 51
343.9999999999963
  0
ARC
  5
E2F
330
23
100
AcDbEntity
  8
0
100
AcDbCircle
 10
512.857670887324
 20
-72.99577495983356
 30
0.0
 40
0.955834865165902
100
AcDbArc
 50
78.66663394858375
 51
245.9055724643931
  0
LINE
  5
E30
330
23
100
AcDbEntity
  8
0
100
AcDbLine
 10
515.7950080232692
 20
-75.67172723063606
 30
0.0
 11
515.6856087258412
 21
-75.97229933002359
 31
0.0
  0
ARC
  5
E31
330
23
100
AcDbEntity
  8
0
100
AcDbCircle
 10
515.3251617128764
 20
-75.50071715897328
 30
0.0
 40
0.5
100
AcDbArc
 50
339.9999999999948
 51
68.99999999999578
  0
LINE
  5
E32
330
23
100
AcDbEntity
  8
0
100
AcDbLine
 10
513.4445241765051
 20
-70.68192623029188
 30
0.0
 11
516.56044038671
 21
-71.6345574166063
 31
0.0
  0
LINE
  5
E33
330
23
100
AcDbEntity
  8
0
100
AcDbLine
 10
513.893726658198
 20
-68.83695725589837
 30
0.0
 11
517.1024513561465
 21
-69.46067015462336
 31
0.0
  0
ARC
  5
E34
330
23
100
AcDbEntity
  8
0
100
AcDbCircle
 10
517.1978558538349
 20
-68.96985656289945
 30
0.0
 40
0.5
100
AcDbArc
 50
259.0000000000009
 51
347.9999999999967
  0
ARC
  5
E35
330
23
100
AcDbEntity
  8
0
100
AcDbCircle
 10
513.778038457687
 20
-69.78599296773371
 30
0.0
 40
0.955834865165902
100
AcDbArc
 50
82.66663394858166
 51
249.9055724643963
  0
LINE
  5
E36
330
23
100
AcDbEntity
  8
0
100
AcDbLine
 10
516.8948853823177
 20
-72.2505284724964
 30
0.0
 11
516.8067194258391
 21
-72.5579997025751
 31
0.0
  0
ARC
  5
E37
330
23
100
AcDbEntity
  8
0
100
AcDbCircle
 10
516.4142545343487
 20
-72.11270979458774
 30
0.0
 40
0.5
100
AcDbArc
 50
343.9999999999947
 51
72.99999999999127
  0
LINE
  5
E38
330
23
100
AcDbEntity
  8
0
100
AcDbLine
 10
514.2020562736003
 20
-67.43684384134531
 30
0.0
 11
517.3768344608586
 21
-68.16979913866294
 31
0.0
  0
LINE
  5
E39
330
23
100
AcDbEntity
  8
0
100
AcDbLine
 10
514.5214659908037
 20
-65.56503433752562
 30
0.0
 11
517.7658824091017
 21
-65.9633985828325
 31
0.0
  0
ARC
  5
E3A
330
23
100
AcDbEntity
  8
0
100
AcDbCircle
 10
517.8268170808044
 20
-65.46712550701194
 30
0.0
 40
0.5
100
AcDbArc
 50
263.0000000000005
 51
351.9999999999963
  0
ARC
  5
E3B
330
23
100
AcDbEntity
  8
0
100
AcDbCircle
 10
514.4722609856495
 20
-66.51982824698698
 30
0.0
 40
0.955834865165902
100
AcDbArc
 50
86.66663394858131
 51
253.9055724643965
  0
LINE
  5
E3C
330
23
100
AcDbEntity
  8
0
100
AcDbLine
 10
517.7534327340534
 20
-68.76094001646459
 30
0.0
 11
517.6869296542016
 21
-69.07381240830853
 31
0.0
  0
ARC
  5
E3D
330
23
100
AcDbEntity
  8
0
100
AcDbCircle
 10
517.2643589336867
 20
-68.65698417105571
 30
0.0
 40
0.5
100
AcDbArc
 50
347.9999999999947
 51
76.99999999999601
  0
LINE
  5
E3E
330
23
100
AcDbEntity
  8
0
100
AcDbLine
 10
514.7313775561185
 20
-64.14682354215983
 30
0.0
 11
517.9495505202294
 21
-64.65653206594845
 31
0.0
  0
LINE
  5
E3F
330
23
100
AcDbEntity
  8
0
100
AcDbLine
 10
514.9194383767971
 20
-62.25729277666278
 30
0.0
 11
518.1837400447823
 21
-62.42836757799193
 31
0.0
  0
ARC
  5
E40
330
23
100
AcDbEntity
  8
0
100
AcDbCircle
 10
518.2099080229038
 20
-61.92905281061448
 30
0.0
 40
0.5
100
AcDbArc
 50
267.0000000000009
 51
355.9999999999966
  0
ARC
  5
E41
330
23
100
AcDbEntity
  8
0
100
AcDbCircle
 10
514.9369562888387
 20
-63.21319322379844
 30
0.0
 40
0.955834865165902
100
AcDbArc
 50
90.66663394858087
 51
257.9055724643921
  0
LINE
  5
E42
330
23
100
AcDbEntity
  8
0
100
AcDbLine
 10
518.3664673220801
 20
-65.21996278672611
 30
0.0
 11
518.3219511151752
 21
-65.53671205749196
 31
0.0
  0
ARC
  5
E43
330
23
100
AcDbEntity
  8
0
100
AcDbCircle
 10
517.8713332877094
 20
-65.15037623624593
 30
0.0
 40
0.5
100
AcDbArc
 50
351.9999999999947
 51
80.9999999999948
  0
LINE
  5
E44
330
23
100
AcDbEntity
  8
0
100
AcDbLine
 10
515.0299092239783
 20
-60.82789398092074
 30
0.0
 11
518.2757983497501
 21
-61.11187248248825
 31
0.0
  0
LINE
  5
E45
330
23
100
AcDbEntity
  8
0
100
AcDbLine
 10
515.0857049347175
 20
-58.92984755770112
 30
0.0
 11
518.3539885027898
 21
-58.87279945581667
 31
0.0
  0
ARC
  5
E46
330
23
100
AcDbEntity
  8
0
100
AcDbCircle
 10
518.3452622995712
 20
-58.37287560823837
 30
0.0
 40
0.5
100
AcDbArc
 50
271.0000000000018
 51
359.9999999999964
  0
ARC
  5
E47
330
23
100
AcDbEntity
  8
0
100
AcDbCircle
 10
515.1698604184483
 20
-59.8821974916196
 30
0.0
 40
0.955834865165902
100
AcDbArc
 50
94.66663394857944
 51
261.9055724643927
  0
LINE
  5
E48
330
23
100
AcDbEntity
  8
0
100
AcDbLine
 10
518.7310025035062
 20
-61.6448480684063
 30
0.0
 11
518.7086900480336
 21
-61.96393104748654
 31
0.0
  0
ARC
  5
E49
330
23
100
AcDbEntity
  8
0
100
AcDbCircle
 10
518.2322204783763
 20
-61.60996983153417
 30
0.0
 40
0.5
100
AcDbArc
 50
355.9999999999945
 51
84.99999999999367
  0
LINE
  5
E4A
330
23
100
AcDbEntity
  8
0
100
AcDbLine
 10
515.0961968609022
 20
-57.49622464883339
 30
0.0
 11
518.35398850279
 21
-57.55308961346566
 31
0.0
  0
LINE
  5
E4B
330
23
100
AcDbEntity
  8
0
100
AcDbLine
 10
515.0194556306079
 20
-55.59890965927412
 30
0.0
 11
518.2757983497505
 21
-55.31401658679397
 31
0.0
  0
ARC
  5
E4C
330
23
100
AcDbEntity
  8
0
100
AcDbCircle
 10
518.2322204783766
 20
-54.81591923774804
 30
0.0
 40
0.5
100
AcDbArc
 50
274.9999999999998
 51
3.999999999996512
  0
ARC
  5
E4D
330
23
100
AcDbEntity
  8
0
100
AcDbCircle
 10
515.1698386889705
 20
-56.54306932682721
 30
0.0
 40
0.955834865165902
100
AcDbArc
 50
98.66663394858312
 51
265.9055724643945
  0
LINE
  5
E4E
330
23
100
AcDbEntity
  8
0
100
AcDbLine
 10
518.8452622995713
 20
-58.05301346104386
 30
0.0
 11
518.8452622995713
 21
-58.37287560823847
 31
0.0
  0
ARC
  5
E4F
330
23
100
AcDbEntity
  8
0
100
AcDbCircle
 10
518.3452622995712
 20
-58.05301346104386
 30
0.0
 40
0.5
100
AcDbArc
 50
359.9999999999947
 51
88.99999999999172
  0
LINE
  5
E50
330
23
100
AcDbEntity
  8
0
100
AcDbLine
 10
514.9299175201861
 20
-54.16804710398526
 30
0.0
 11
518.1837400447829
 21
-53.9975214912904
 31
0.0
  0
LINE
  5
E51
330
23
100
AcDbEntity
  8
0
100
AcDbLine
 10
514.7210132244184
 20
-52.28070707599795
 30
0.0
 11
517.9495505202301
 21
-51.76935700333388
 31
0.0
  0
ARC
  5
E52
330
23
100
AcDbEntity
  8
0
100
AcDbCircle
 10
517.8713332877099
 20
-51.27551283303628
 30
0.0
 40
0.5
100
AcDbArc
 50
278.9999999999986
 51
7.999999999996843
  0
ARC
  5
E53
330
23
100
AcDbEntity
  8
0
100
AcDbCircle
 10
514.9368912062691
 20
-53.21207662619189
 30
0.0
 40
0.955834865165902
100
AcDbArc
 50
102.6666339485798
 51
269.9055724643929
  0
LINE
  5
E54
330
23
100
AcDbEntity
  8
0
100
AcDbLine
 10
518.7086900480342
 20
-54.46195802179568
 30
0.0
 11
518.7310025035066
 21
-54.78104100087591
 31
0.0
  0
ARC
  5
E55
330
23
100
AcDbEntity
  8
0
100
AcDbCircle
 10
518.2099080229042
 20
-54.49683625866775
 30
0.0
 40
0.5
100
AcDbArc
 50
3.999999999994481
 51
92.99999999999256
  0
LINE
  5
E56
330
23
100
AcDbEntity
  8
0
100
AcDbLine
 10
514.531881298064
 20
-50.8595758928277
 30
0.0
 11
517.7658824091025
 21
-50.46249048644972
 31
0.0
  0
LINE
  5
E57
330
23
100
AcDbEntity
  8
0
100
AcDbLine
 10
514.1918316975526
 20
-48.99140575731394
 30
0.0
 11
517.3768344608596
 21
-48.25608993061917
 31
0.0
  0
ARC
  5
E58
330
23
100
AcDbEntity
  8
0
100
AcDbCircle
 10
517.2643589336876
 20
-47.76890489822654
 30
0.0
 40
0.5
100
AcDbArc
 50
283.000000000004
 51
11.999999999997
  0
ARC
  5
E59
330
23
100
AcDbEntity
  8
0
100
AcDbCircle
 10
514.4721528670638
 20
-49.90544765132106
 30
0.0
 40
0.955834865165902
100
AcDbArc
 50
106.6666339485818
 51
273.9055724643968
  0
LINE
  5
E5A
330
23
100
AcDbEntity
  8
0
100
AcDbLine
 10
518.3219511151759
 20
-50.88917701179036
 30
0.0
 11
518.3664673220806
 21
-51.20592628255633
 31
0.0
  0
ARC
  5
E5B
330
23
100
AcDbEntity
  8
0
100
AcDbCircle
 10
517.8268170808052
 20
-50.95876356227032
 30
0.0
 40
0.5
100
AcDbArc
 50
7.99999999999523
 51
96.99999999999288
  0
LINE
  5
E5C
330
23
100
AcDbEntity
  8
0
100
AcDbLine
 10
513.9040273869994
 20
-47.58692955453489
 30
0.0
 11
517.1024513561477
 21
-46.96521891465875
 31
0.0
  0
LINE
  5
E5D
330
23
100
AcDbEntity
  8
0
100
AcDbLine
 10
513.4344891692165
 20
-45.74703084860698
 30
0.0
 11
516.5604403867113
 21
-44.7913316526758
 31
0.0
  0
ARC
  5
E5E
330
23
100
AcDbEntity
  8
0
100
AcDbCircle
 10
516.41425453435
 20
-44.31317927469422
 30
0.0
 40
0.5
100
AcDbArc
 50
287.0000000000019
 51
15.99999999999652
  0
ARC
  5
E5F
330
23
100
AcDbEntity
  8
0
100
AcDbCircle
 10
513.7778878298282
 20
-46.6392919661991
 30
0.0
 40
0.955834865165902
100
AcDbArc
 50
110.6666339485786
 51
277.9055724643974
  0
LINE
  5
E60
330
23
100
AcDbEntity
  8
0
100
AcDbLine
 10
517.6869296542029
 20
-47.35207666097369
 30
0.0
 11
517.7534327340546
 21
-47.66494905281763
 31
0.0
  0
ARC
  5
E61
330
23
100
AcDbEntity
  8
0
100
AcDbCircle
 10
517.197855853836
 20
-47.45603250638256
 30
0.0
 40
0.5
100
AcDbArc
 50
11.99999999999473
 51
100.9999999999923
  0
LINE
  5
E62
330
23
100
AcDbEntity
  8
0
100
AcDbLine
 10
513.0494146281355
 20
-44.36605209310175
 30
0.0
 11
516.1966790553202
 21
-43.52274513147086
 31
0.0
  0
LINE
  5
E63
330
23
100
AcDbEntity
  8
0
100
AcDbLine
 10
512.4526753360804
 20
-42.56338861830932
 30
0.0
 11
515.5043456876508
 21
-41.3919621235575
 31
0.0
  0
ARC
  5
E64
330
23
100
AcDbEntity
  8
0
100
AcDbCircle
 10
515.3251617128781
 20
-40.92517191030885
 30
0.0
 40
0.5
100
AcDbArc
 50
291.0000000000041
 51
19.99999999999724
  0
ARC
  5
E65
330
23
100
AcDbEntity
  8
0
100
AcDbCircle
 10
512.8574784840359
 20
-43.42952195301108
 30
0.0
 40
0.955834865165902
100
AcDbArc
 50
114.6666339485786
 51
281.9055724643929
  0
LINE
  5
E66
330
23
100
AcDbEntity
  8
0
100
AcDbLine
 10
516.8067194258405
 20
-43.867889366707
 30
0.0
 11
516.8948853823192
 21
-44.1753605967857
 31
0.0
  0
ARC
  5
E67
330
23
100
AcDbEntity
  8
0
100
AcDbCircle
 10
516.3260885778714
 20
-44.00570804461546
 30
0.0
 40
0.5
100
AcDbArc
 50
15.99999999999495
 51
104.9999999999944
  0
LINE
  5
E68
330
23
100
AcDbEntity
  8
0
100
AcDbLine
 10
511.9722066089279
 20
-41.21263529975919
 30
0.0
 11
515.0529783382218
 21
-40.15184052312156
 31
0.0
  0
LINE
  5
E69
330
23
100
AcDbEntity
  8
0
100
AcDbLine
 10
511.2511734964474
 20
-39.45598945134804
 30
0.0
 11
514.2136955508934
 21
-38.07454272990674
 31
0.0
  0
ARC
  5
E6A
330
23
100
AcDbEntity
  8
0
100
AcDbCircle
 10
514.002386420023
 20
-37.62138883638844
 30
0.0
 40
0.5
100
AcDbArc
 50
294.9999999999997
 51
23.99999999999726
  0
ARC
  5
E6B
330
23
100
AcDbEntity
  8
0
100
AcDbCircle
 10
511.7154089715008
 20
-40.2917752886164
 30
0.0
 40
0.955834865165902
100
AcDbArc
 50
118.6666339485809
 51
285.9055724643912
  0
LINE
  5
E6C
330
23
100
AcDbEntity
  8
0
100
AcDbLine
 10
515.6856087258432
 20
-40.45358973925852
 30
0.0
 11
515.7950080232711
 21
-40.75416183864592
 31
0.0
  0
ARC
  5
E6D
330
23
100
AcDbEntity
  8
0
100
AcDbCircle
 10
515.2157624154503
 20
-40.62459981092141
 30
0.0
 40
0.5
100
AcDbArc
 50
19.9999999999938
 51
108.9999999999949
  0
LINE
  5
E6E
330
23
100
AcDbEntity
  8
0
100
AcDbLine
 10
510.6776513785657
 20
-38.14204230414373
 30
0.0
 11
513.6769211997814
 21
-36.86892779802065
 31
0.0
  0
LINE
  5
E6F
330
23
100
AcDbEntity
  8
0
100
AcDbLine
 10
509.8358372465058
 20
-36.43997228411001
 30
0.0
 11
512.6947778941699
 21
-34.85523560554361
 31
0.0
  0
ARC
  5
E70
330
23
100
AcDbEntity
  8
0
100
AcDbCircle
 10
512.4523730840468
 20
-34.41792575197377
 30
0.0
 40
0.5
100
AcDbArc
 50
298.9999999999994
 51
27.99999999999676
  0
ARC
  5
E71
330
23
100
AcDbEntity
  8
0
100
AcDbCircle
 10
510.3572433400876
 20
-37.24133875935848
 30
0.0
 40
0.955834865165902
100
AcDbArc
 50
122.6666339485809
 51
289.905572464397
  0
LINE
  5
E72
330
23
100
AcDbEntity
  8
0
100
AcDbLine
 10
514.3290594928474
 20
-37.12581190320907
 30
0.0
 11
514.4591591488444
 21
-37.41802051485047
 31
0.0
  0
ARC
  5
E73
330
23
100
AcDbEntity
  8
0
100
AcDbCircle
 10
513.8722867640261
 20
-37.32918022474689
 30
0.0
 40
0.5
100
AcDbArc
 50
23.99999999999577
 51
112.9999999999932
  0
LINE
  5
E74
330
23
100
AcDbEntity
  8
0
100
AcDbLine
 10
509.172055880003
 20
-35.16923272667532
 30
0.0
 11
512.0752116520576
 21
-33.69000097696744
 31
0.0
  0
LINE
  5
E75
330
23
100
AcDbEntity
  8
0
100
AcDbLine
 10
508.2135619621961
 20
-33.53003084906504
 30
0.0
 11
510.9549927316228
 21
-31.7497248911742
 31
0.0
  0
ARC
  5
E76
330
23
100
AcDbEntity
  8
0
100
AcDbCircle
 10
510.6826732141152
 20
-31.33038960720148
 30
0.0
 40
0.5
100
AcDbArc
 50
303.0000000000018
 51
31.99999999999603
  0
ARC
  5
E77
330
23
100
AcDbEntity
  8
0
100
AcDbCircle
 10
508.7895984362299
 20
-34.29307378537948
 30
0.0
 40
0.955834865165902
100
AcDbArc
 50
126.6666339485809
 51
293.9055724643915
  0
LINE
  5
E78
330
23
100
AcDbEntity
  8
0
100
AcDbLine
 10
512.7436806983568
 20
-33.90076845766862
 30
0.0
 11
512.8938468804761
 21
-34.18318997058089
 31
0.0
  0
ARC
  5
E79
330
23
100
AcDbEntity
  8
0
100
AcDbCircle
 10
512.3022069019273
 20
-34.13550423906162
 30
0.0
 40
0.5
100
AcDbArc
 50
27.99999999999532
 51
116.9999999999944
  0
LINE
  5
E7A
330
23
100
AcDbEntity
  8
0
100
AcDbLine
 10
507.4627552231669
 20
-32.3086897967894
 30
0.0
 11
510.2556530629628
 21
-30.63054747188937
 31
0.0
  0
LINE
  5
E7B
330
23
100
AcDbEntity
  8
0
100
AcDbLine
 10
506.3922512056333
 20
-30.74034208837856
 30
0.0
 11
509.0028161216812
 21
-28.77314032283436
 31
0.0
  0
ARC
  5
E7C
330
23
100
AcDbEntity
  8
0
100
AcDbCircle
 10
508.7019086101053
 20
-28.37382256781058
 30
0.0
 40
0.5
100
AcDbArc
 50
307.0000000000025
 51
35.99999999999757
  0
ARC
  5
E7D
330
23
100
AcDbEntity
  8
0
100
AcDbCircle
 10
507.0201116683205
 20
-31.4613440172738
 30
0.0
 40
0.955834865165902
100
AcDbArc
 50
130.666633948579
 51
297.9055724643925
  0
LINE
  5
E7E
330
23
100
AcDbEntity
  8
0
100
AcDbLine
 10
510.9371961484961
 20
-30.79417149012397
 30
0.0
 11
511.1066972621935
 21
-31.0654299750849
 31
0.0
  0
ARC
  5
E7F
330
23
100
AcDbEntity
  8
0
100
AcDbCircle
 10
510.5131721004179
 20
-31.0591311222405
 30
0.0
 40
0.5
100
AcDbArc
 50
31.99999999999328
 51
120.9999999999941
  0
LINE
  5
E80
330
23
100
AcDbEntity
  8
0
100
AcDbLine
 10
505.5580769490392
 20
-29.5743497920999
 30
0.0
 11
508.2271101390422
 21
-27.70547263272846
 31
0.0
  0
LINE
  5
E81
330
23
100
AcDbEntity
  8
0
100
AcDbLine
 10
504.3807782197456
 20
-28.08449708527382
 30
0.0
 11
506.8477588725569
 21
-25.93998352133559
 31
0.0
  0
ARC
  5
E82
330
23
100
AcDbEntity
  8
0
100
AcDbCircle
 10
506.5197293580617
 20
-25.56262873122427
 30
0.0
 40
0.5
100
AcDbArc
 50
311.0000000000007
 51
39.99999999999916
  0
ARC
  5
E83
330
23
100
AcDbEntity
  8
0
100
AcDbCircle
 10
505.0574037980242
 20
-28.75994535782741
 30
0.0
 40
0.955834865165902
100
AcDbArc
 50
134.666633948579
 51
301.9055724643923
  0
LINE
  5
E84
330
23
100
AcDbEntity
  8
0
100
AcDbLine
 10
508.9184068544051
 20
-27.82115602872676
 30
0.0
 11
509.1064171072927
 21
-28.07992994166443
 31
0.0
  0
ARC
  5
E85
330
23
100
AcDbEntity
  8
0
100
AcDbCircle
 10
508.5138983572177
 20
-28.11504865487302
 30
0.0
 40
0.5
100
AcDbArc
 50
35.99999999999237
 51
124.9999999999966
  0
LINE
  5
E86
330
23
100
AcDbEntity
  8
0
100
AcDbLine
 10
503.4673004587139
 20
-26.97953414225435
 30
0.0
 11
505.9994657375124
 21
-24.92902713007306
 31
0.0
  0
LINE
  5
E87
330
23
100
AcDbEntity
  8
0
100
AcDbLine
 10
502.1889426987276
 20
-25.57543484964134
 30
0.0
 11
504.500320206542
 21
-23.26405734182691
 31
0.0
  0
ARC
  5
E88
330
23
100
AcDbEntity
  8
0
100
AcDbCircle
 10
504.1467668159486
 20
-22.91050395123352
 30
0.0
 40
0.5
100
AcDbArc
 50
315.0000000000009
 51
43.99999999999443
  0
ARC
  5
E89
330
23
100
AcDbEntity
  8
0
100
AcDbCircle
 10
502.9110369407946
 20
-26.202038749765
 30
0.0
 40
0.955834865165902
100
AcDbArc
 50
138.6666339485842
 51
305.9055724643956
  0
LINE
  5
E8A
330
23
100
AcDbEntity
  8
0
100
AcDbLine
 10
506.6971481545968
 20
-24.99620630595837
 30
0.0
 11
506.9027515796212
 21
-25.24123492638091
 31
0.0
  0
ARC
  5
E8B
330
23
100
AcDbEntity
  8
0
100
AcDbCircle
 10
506.3141259330373
 20
-25.31760011080144
 30
0.0
 40
0.5
100
AcDbArc
 50
39.99999999999185
 51
128.9999999999941
  0
LINE
  5
E8C
330
23
100
AcDbEntity
  8
0
100
AcDbLine
 10
501.2006118050875
 20
-24.53688452826913
 30
0.0
 11
503.5835727179756
 21
-22.31473752732506
 31
0.0
  0
LINE
  5
E8D
330
23
100
AcDbEntity
  8
0
100
AcDbLine
 10
499.8274230449152
 20
-23.2253792804832
 30
0.0
 11
501.9719366088535
 21
-20.7583986276718
 31
0.0
  0
ARC
  5
E8E
330
23
100
AcDbEntity
  8
0
100
AcDbCircle
 10
501.5945818187421
 20
-20.43036911317648
 30
0.0
 40
0.5
100
AcDbArc
 50
319.0000000000002
 51
47.99999999999899
  0
ARC
  5
E8F
330
23
100
AcDbEntity
  8
0
100
AcDbCircle
 10
500.5914679802077
 20
-23.80008605696162
 30
0.0
 40
0.955834865165902
100
AcDbArc
 50
142.666633948583
 51
309.9055724643966
  0
LINE
  5
E90
330
23
100
AcDbEntity
  8
0
100
AcDbLine
 10
504.2842417981764
 20
-22.33308519290529
 30
0.0
 11
504.5064367161179
 21
-22.56317476600413
 31
0.0
  0
ARC
  5
E91
330
23
100
AcDbEntity
  8
0
100
AcDbCircle
 10
503.924571898007
 20
-22.68041437813474
 30
0.0
 40
0.5
100
AcDbArc
 50
43.99999999999385
 51
132.9999999999914
  0
LINE
  5
E92
330
23
100
AcDbEntity
  8
0
100
AcDbLine
 10
498.7690540674341
 20
-22.2583012935292
 30
0.0
 11
500.9912010683787
 21
-19.87534038064154
 31
0.0
  0
LINE
  5
E93
330
23
100
AcDbEntity
  8
0
100
AcDbLine
 10
497.3077243446829
 20
-21.04577961230552
 30
0.0
 11
499.274926110227
 21
-18.43521469625762
 31
0.0
  0
ARC
  5
E94
330
23
100
AcDbEntity
  8
0
100
AcDbCircle
 10
498.8756083552033
 20
-18.13430718468157
 30
0.0
 40
0.5
100
AcDbArc
 50
323.0000000000038
 51
51.99999999999462
  0
ARC
  5
E95
330
23
100
AcDbEntity
  8
0
100
AcDbCircle
 10
498.1099976230778
 20
-21.56578935149315
 30
0.0
 40
0.955834865165902
100
AcDbArc
 50
146.6666339485819
 51
313.905572464396
  0
LINE
  5
E96
330
23
100
AcDbEntity
  8
0
100
AcDbLine
 10
501.6914432223678
 20
-19.84476714793419
 30
0.0
 11
501.9291471219214
 21
-20.05879670043777
 31
0.0
  0
ARC
  5
E97
330
23
100
AcDbEntity
  8
0
100
AcDbCircle
 10
501.3568779191882
 20
-20.21633956067296
 30
0.0
 40
0.5
100
AcDbArc
 50
47.99999999999169
 51
136.9999999999955
  0
LINE
  5
E98
330
23
100
AcDbEntity
  8
0
100
AcDbLine
 10
496.1844735506319
 20
-20.15488546651193
 30
0.0
 11
498.2349805628138
 21
-17.62272018771392
 31
0.0
  0
LINE
  5
E99
330
23
100
AcDbEntity
  8
0
100
AcDbLine
 10
494.6421223168186
 20
-19.04725463559924
 30
0.0
 11
496.4224282747095
 21
-16.3058238661726
 31
0.0
  0
ARC
  5
E9A
330
23
100
AcDbEntity
  8
0
100
AcDbCircle
 10
496.0030929907369
 20
-16.03350434866507
 30
0.0
 40
0.5
100
AcDbArc
 50
327.000000000001
 51
55.99999999999456
  0
ARC
  5
E9B
330
23
100
AcDbEntity
  8
0
100
AcDbCircle
 10
495.4787153435479
 20
-19.51003390231767
 30
0.0
 40
0.955834865165902
100
AcDbArc
 50
150.6666339485831
 51
317.9055724643945
  0
LINE
  5
E9C
330
23
100
AcDbEntity
  8
0
100
AcDbLine
 10
498.9313842812051
 20
-17.54337500643561
 30
0.0
 11
499.1834390928662
 21
-17.74030180787821
 31
0.0
  0
ARC
  5
E9D
330
23
100
AcDbEntity
  8
0
100
AcDbCircle
 10
498.6235535435424
 20
-17.93738038323892
 30
0.0
 40
0.5
100
AcDbArc
 50
51.99999999999437
 51
140.9999999999926
  0
LINE
  5
E9E
330
23
100
AcDbEntity
  8
0
100
AcDbLine
 10
493.4594620711578
 20
-18.23688467769176
 30
0.0
 11
495.3283392305299
 21
-15.56785148768932
 31
0.0
  0
LINE
  5
E9F
330
23
100
AcDbEntity
  8
0
100
AcDbLine
 10
491.843603506457
 20
-17.23954096315952
 30
0.0
 11
493.4283401850235
 21
-14.38060031549537
 31
0.0
  0
ARC
  5
EA0
330
23
100
AcDbEntity
  8
0
100
AcDbCircle
 10
492.9910303314537
 20
-14.13819550537221
 30
0.0
 40
0.5
100
AcDbArc
 50
331.0000000000026
 51
59.99999999999986
  0
ARC
  5
EA1
330
23
100
AcDbEntity
  8
0
100
AcDbCircle
 10
492.7104404843884
 20
-17.64283514334005
 30
0.0
 40
0.955834865165902
100
AcDbArc
 50
154.6666339485825
 51
321.9055724643961
  0
LINE
  5
EA2
330
23
100
AcDbEntity
  8
0
100
AcDbLine
 10
496.0175117044098
 20
-15.44012091958746
 30
0.0
 11
496.2826894424721
 21
-15.61898556238759
 31
0.0
  0
ARC
  5
EA3
330
23
100
AcDbEntity
  8
0
100
AcDbCircle
 10
495.7379152526743
 20
-15.854639705865
 30
0.0
 40
0.5
100
AcDbArc
 50
55.99999999999432
 51
144.9999999999922
  0
LINE
  5
EA4
330
23
100
AcDbEntity
  8
0
100
AcDbLine
 10
490.6072956110225
 20
-16.51364323411519
 30
0.0
 11
492.2854379359232
 21
-13.72074539431969
 31
0.0
  0
LINE
  5
EA5
330
23
100
AcDbEntity
  8
0
100
AcDbLine
 10
488.925802015936
 20
-15.63144559428804
 30
0.0
 11
490.3072487373773
 21
-12.6689235398419
 31
0.0
  0
ARC
  5
EA6
330
23
100
AcDbEntity
  8
0
100
AcDbCircle
 10
489.854094843859
 20
-12.45761440897155
 30
0.0
 40
0.5
100
AcDbArc
 50
335.0000000000018
 51
63.99999999999799
  0
ARC
  5
EA7
330
23
100
AcDbEntity
  8
0
100
AcDbCircle
 10
489.818659802447
 20
-15.97328987922356
 30
0.0
 40
0.955834865165902
100
AcDbArc
 50
158.6666339485822
 51
325.9055724643951
  0
LINE
  5
EA8
330
23
100
AcDbEntity
  8
0
100
AcDbLine
 10
492.9640215862743
 20
-13.54525172988263
 30
0.0
 11
493.2410303314538
 21
-13.70518280347994
 31
0.0
  0
ARC
  5
EA9
330
23
100
AcDbEntity
  8
0
100
AcDbCircle
 10
492.7140215862744
 20
-13.97826443177484
 30
0.0
 40
0.5
100
AcDbArc
 50
59.99999999999259
 51
148.9999999999924
  0
LINE
  5
EAA
330
23
100
AcDbEntity
  8
0
100
AcDbLine
 10
487.6418696385211
 20
-14.99355659487565
 30
0.0
 11
489.1211013882297
 21
-12.09040082282155
 31
0.0
  0
LINE
  5
EAB
330
23
100
AcDbEntity
  8
0
100
AcDbLine
 10
485.9029330808209
 20
-14.23080300797662
 30
0.0
 11
487.0743595755727
 21
-11.17913265640615
 31
0.0
  0
ARC
  5
EAC
330
23
100
AcDbEntity
  8
0
100
AcDbCircle
 10
486.607569362324
 20
-10.99994868163341
 30
0.0
 40
0.5
100
AcDbArc
 50
339.0000000000013
 51
67.99999999999866
  0
ARC
  5
EAD
330
23
100
AcDbEntity
  8
0
100
AcDbCircle
 10
486.8174617625256
 20
-14.50953196667302
 30
0.0
 40
0.955834865165902
100
AcDbArc
 50
162.6666339485815
 51
329.9055724643928
  0
LINE
  5
EAE
330
23
100
AcDbEntity
  8
0
100
AcDbLine
 10
489.7857902237185
 20
-11.86799904954182
 30
0.0
 11
490.0732804172535
 21
-12.00821738582198
 31
0.0
  0
ARC
  5
EAF
330
23
100
AcDbEntity
  8
0
100
AcDbCircle
 10
489.566604650324
 20
-12.31739607269136
 30
0.0
 40
0.5
100
AcDbArc
 50
63.99999999999781
 51
152.9999999999942
  0
LINE
  5
EB0
330
23
100
AcDbEntity
  8
0
100
AcDbLine
 10
484.577631410908
 20
-13.684030469281
 30
0.0
 11
485.8507459170319
 21
-10.68476064806546
 31
0.0
  0
LINE
  5
EB1
330
23
100
AcDbEntity
  8
0
100
AcDbLine
 10
482.7897238147061
 20
-13.04443699411362
 30
0.0
 11
483.7454230106372
 21
-9.918485776618865
 31
0.0
  0
ARC
  5
EB2
330
23
100
AcDbEntity
  8
0
100
AcDbCircle
 10
483.2672706326558
 20
-9.772299924257453
 30
0.0
 40
0.5
100
AcDbArc
 50
343.0000000000021
 51
71.99999999999433
  0
ARC
  5
EB3
330
23
100
AcDbEntity
  8
0
100
AcDbCircle
 10
483.7214678997952
 20
-13.25869268710192
 30
0.0
 40
0.955834865165902
100
AcDbArc
 50
166.6666339485812
 51
333.9055724643935
  0
LINE
  5
EB4
330
23
100
AcDbEntity
  8
0
100
AcDbLine
 10
486.4983016404663
 20
-10.41653428502675
 30
0.0
 11
486.7948726590322
 21
-10.53635675435006
 31
0.0
  0
ARC
  5
EB5
330
23
100
AcDbEntity
  8
0
100
AcDbCircle
 10
486.3109983437582
 20
-10.88012621231016
 30
0.0
 40
0.5
100
AcDbArc
 50
67.99999999999172
 51
156.9999999999929
  0
LINE
  5
EB6
330
23
100
AcDbEntity
  8
0
100
AcDbLine
 10
481.429509588812
 20
-12.59144473698194
 30
0.0
 11
482.4903043654503
 21
-9.51067300768841
 31
0.0
  0
LINE
  5
EB7
330
23
100
AcDbEntity
  8
0
100
AcDbLine
 10
479.601341460197
 20
-12.07812740866561
 30
0.0
 11
480.3366572868915
 21
-8.893124645358653
 31
0.0
  0
ARC
  5
EB8
330
23
100
AcDbEntity
  8
0
100
AcDbCircle
 10
479.8494722544989
 20
-8.780649118186744
 30
0.0
 40
0.5
100
AcDbArc
 50
347.0000000000021
 51
75.99999999999713
  0
ARC
  5
EB9
330
23
100
AcDbEntity
  8
0
100
AcDbCircle
 10
480.5457615851467
 20
-12.22686600374655
 30
0.0
 40
0.955834865165902
100
AcDbArc
 50
170.6666339485823
 51
337.9055724643949
  0
LINE
  5
EBA
330
23
100
AcDbEntity
  8
0
100
AcDbLine
 10
483.1175721504376
 20
-9.197928826769498
 30
0.0
 11
483.421779129843
 21
-9.29677166610989
 31
0.0
  0
ARC
  5
EBB
330
23
100
AcDbEntity
  8
0
100
AcDbCircle
 10
482.9630636532502
 20
-9.673457084917089
 30
0.0
 40
0.5
100
AcDbArc
 50
71.99999999999433
 51
160.9999999999944
  0
LINE
  5
EBC
330
23
100
AcDbEntity
  8
0
100
AcDbLine
 10
478.2128415053023
 20
-11.72112236583993
 30
0.0
 11
479.056148466934
 21
-8.573857938655464
 31
0.0
  0
LINE
  5
EBD
330
23
100
AcDbEntity
  8
0
100
AcDbLine
 10
476.3533194956301
 20
-11.33658201479974
 30
0.0
 11
476.864669568294
 21
-8.108044718988082
 31
0.0
  0
ARC
  5
EBE
330
23
100
AcDbEntity
  8
0
100
AcDbCircle
 10
476.3708253979965
 20
-8.029827486468008
 30
0.0
 40
0.5
100
AcDbArc
 50
351.0000000000013
 51
79.99999999999483
  0
ARC
  5
EBF
330
23
100
AcDbEntity
  8
0
100
AcDbCircle
 10
477.3058145405242
 20
-11.41907887248919
 30
0.0
 40
0.955834865165902
100
AcDbArc
 50
174.6666339485817
 51
341.9055724643945
  0
LINE
  5
EC0
330
23
100
AcDbEntity
  8
0
100
AcDbLine
 10
479.6600723278784
 20
-8.218119598068795
 30
0.0
 11
479.9704332022988
 21
-8.295501255048719
 31
0.0
  0
ARC
  5
EC1
330
23
100
AcDbEntity
  8
0
100
AcDbCircle
 10
479.5391113800786
 20
-8.70326746120682
 30
0.0
 40
0.5
100
AcDbArc
 50
75.99999999999713
 51
164.9999999999949
  0
LINE
  5
EC2
330
23
100
AcDbEntity
  8
0
100
AcDbLine
 10
474.9432984439433
 20
-11.0773034789627
 30
0.0
 11
475.5650090838202
 21
-7.878879509814602
 31
0.0
  0
LINE
  5
EC3
330
23
100
AcDbEntity
  8
0
100
AcDbLine
 10
473.0614819575265
 20
-10.82341354713505
 30
0.0
 11
473.3463750300066
 21
-7.567070827992409
 31
0.0
  0
ARC
  5
EC4
330
23
100
AcDbEntity
  8
0
100
AcDbCircle
 10
472.8482776809608
 20
-7.523492956618596
 30
0.0
 40
0.5
100
AcDbArc
 50
355.0000000000015
 51
83.99999999999826
  0
ARC
  5
EC5
330
23
100
AcDbEntity
  8
0
100
AcDbCircle
 10
474.0174114622509
 20
-10.83926675103487
 30
0.0
 40
0.955834865165902
100
AcDbArc
 50
178.6666339485821
 51
345.905572464394
  0
LINE
  5
EC6
330
23
100
AcDbEntity
  8
0
100
AcDbLine
 10
476.1426467643777
 20
-7.48188013099682
 30
0.0
 11
476.45764948683
 21
-7.537423609961827
 31
0.0
  0
ARC
  5
EC7
330
23
100
AcDbEntity
  8
0
100
AcDbCircle
 10
476.0558226755441
 20
-7.974284007502916
 30
0.0
 40
0.5
100
AcDbArc
 50
79.99999999999483
 51
168.9999999999947
  0
LINE
  5
EC8
330
23
100
AcDbEntity
  8
0
100
AcDbLine
 10
471.6368092898768
 20
-10.66312469725066
 30
0.0
 11
472.0338946962556
 21
-7.429123586212156
 31
0.0
  0
LINE
  5
EC9
330
23
100
AcDbEntity
  8
0
100
AcDbLine
 10
469.7418663474777
 20
-10.54112211086247
 30
0.0
 11
469.7989144493622
 21
-7.272838542790104
 31
0.0
  0
ARC
  5
ECA
330
23
100
AcDbEntity
  8
0
100
AcDbCircle
 10
469.298990601784
 20
-7.264112339571475
 30
0.0
 40
0.5
100
AcDbArc
 50
359.0000000000019
 51
87.99999999999634
  0
ARC
  5
ECB
330
23
100
AcDbEntity
  8
0
100
AcDbCircle
 10
470.696573119575
 20
-10.49025442575681
 30
0.0
 40
0.955834865165902
100
AcDbArc
 50
182.666633948582
 51
349.9055724643942
  0
LINE
  5
ECC
330
23
100
AcDbEntity
  8
0
100
AcDbLine
 10
472.5824320037101
 20
-6.992797310230649
 30
0.0
 11
472.9005419125947
 21
-7.026232008934428
 31
0.0
  0
ARC
  5
ECD
330
23
100
AcDbEntity
  8
0
100
AcDbCircle
 10
472.5301677720763
 20
-7.490058257914789
 30
0.0
 40
0.5
100
AcDbArc
 50
83.9999999999917
 51
172.9999999999944
  0
LINE
  5
EDA
330
23
100
AcDbEntity
  8
0
100
AcDbLine
 10
381.3842060789309
 20
0.1509518038246824
 30
0.0
 11
381.3842060789309
 21
-9.849048196175317
 31
0.0
  0
LINE
  5
EDB
330
23
100
AcDbEntity
  8
0
100
AcDbLine
 10
391.3842060789309
 20
0.1509518038246824
 30
0.0
 11
391.3842060789309
 21
-9.849048196175317
 31
0.0
  0
MTEXT
  5
EDC
330
23
100
AcDbEntity
  8
0
100
AcDbMText
 10
383.2766532666592
 20
-3.370294845756916
 30
0.0
 40
2.5
 41
6.061158979433912
 71
     1
 72
     5
  1
{\f@Arial Unicode MS|b0|i0|c0|p34;1cm}
 73
     1
 44
1.0
1001
ACAD
1000
MTEXTBEGIN
1070
    73
1070
     1
1070
    44
1040
1.0
1070
    74
1070
     0
1000
MTEXTEND
  0
LINE
  5
EDF
330
23
100
AcDbEntity
  8
0
100
AcDbLine
 10
380.3842060789309
 20
-6.991217267782531
 30
0.0
 11
392.384206078931
 21
-6.991217267782531
 31
0.0
  0
CIRCLE
  5
EEA
330
23
100
AcDbEntity
  8
0
100
AcDbCircle
 10
423.5469292408489
 20
-28.48299265983744
 30
0.0
 40
0.5
  0
CIRCLE
  5
EEB
330
23
100
AcDbEntity
  8
0
100
AcDbCircle
 10
477.3635549062197
 20
-28.48957915321173
 30
0.0
 40
0.5
  0
CIRCLE
  5
EEC
330
23
100
AcDbEntity
  8
0
100
AcDbCircle
 10
423.5469292408489
 20
-87.94289640943956
 30
0.0
 40
0.5
  0
CIRCLE
  5
EED
330
23
100
AcDbEntity
  8
0
100
AcDbCircle
 10
477.3635549062197
 20
-87.94948290281386
 30
0.0
 40
0.5
  0
MTEXT
  5
EF8
330
23
100
AcDbEntity
  8
0
100
AcDbMText
 10
258.4157646452684
 20
3.319823199044776
 30
0.0
 40
2.5
 41
32.81677237727229
 71
     1
 72
     5
  1
{\f@Arial Unicode MS|b0|i0|c0|p34;40columns}
 73
     1
 44
1.0
1001
ACAD
1000
MTEXTBEGIN
1070
    73
1070
     1
1070
    44
1040
1.0
1070
    74
1070
     0
1000
MTEXTEND
  0
ARC
  5
FE4
330
23
100
AcDbEntity
  8
0
100
AcDbCircle
 10
283.8135334482317
 20
0.0
 30
0.0
 40
23.0
100
AcDbArc
 50
272.3880154632673
 51
87.61198453673584
  0
ARC
  5
FE5
330
23
100
AcDbEntity
  8
0
100
AcDbCircle
 10
284.8135334482311
 20
-23.97915761656363
 30
0.0
 40
1.0
100
AcDbArc
 50
92.3880154632666
 51
179.9999999999945
  0
LINE
  5
FE6
330
23
100
AcDbEntity
  8
0
100
AcDbLine
 10
285.8449677650426
 20
44.93006260226411
 30
0.0
 11
286.1608874112645
 21
48.94420230733967
 31
0.0
  0
LINE
  5
FE7
330
23
100
AcDbEntity
  8
0
100
AcDbLine
 10
283.8135334482311
 20
-23.97915761656353
 30
0.0
 11
283.8135334482292
 21
-42.25962765243981
 31
0.0
  0
LINE
  5
FE8
330
23
100
AcDbEntity
  8
0
100
AcDbLine
 10
288.8357197662417
 20
44.69468531507458
 30
0.0
 11
289.151639412464
 21
48.70882502015594
 31
0.0
  0
LINE
  5
FE9
330
23
100
AcDbEntity
  8
0
100
AcDbLine
 10
288.2331811744587
 20
49.78420144961693
 30
0.0
 11
287.2362638407255
 21
49.86266054534478
 31
0.0
  0
ARC
  5
FEA
330
23
100
AcDbEntity
  8
0
100
AcDbCircle
 10
288.1547220787309
 20
48.78728411588379
 30
0.0
 40
1.0
100
AcDbArc
 50
355.4999999999999
 51
85.49999999999991
  0
LINE
  5
FEB
330
23
100
AcDbEntity
  8
0
100
AcDbLine
 10
292.84856774504
 20
44.05911263385102
 30
0.0
 11
293.7885476935385
 21
47.97441089722172
 31
0.0
  0
ARC
  5
FEC
330
23
100
AcDbEntity
  8
0
100
AcDbCircle
 10
290.8737299020233
 20
44.57632605403034
 30
0.0
 40
2.041444152609609
100
AcDbArc
 50
174.3237701701739
 51
347.6762298296836
  0
ARC
  5
FED
330
23
100
AcDbEntity
  8
0
100
AcDbCircle
 10
287.1578047449978
 20
48.86574321161164
 30
0.0
 40
1.0
100
AcDbArc
 50
85.50000000000006
 51
175.4999999999998
  0
LINE
  5
FEE
330
23
100
AcDbEntity
  8
0
100
AcDbLine
 10
295.7656775062318
 20
43.35877654227743
 30
0.0
 11
296.7056574547316
 21
47.27407480565379
 31
0.0
  0
LINE
  5
FEF
330
23
100
AcDbEntity
  8
0
100
AcDbLine
 10
295.9667328981898
 20
48.4798900899074
 30
0.0
 11
294.9943629777921
 21
48.71333545376332
 31
0.0
  0
ARC
  5
FF0
330
23
100
AcDbEntity
  8
0
100
AcDbCircle
 10
295.733287534334
 20
47.50752016950971
 30
0.0
 40
1.0
100
AcDbArc
 50
346.4999999999999
 51
76.49999999999991
  0
LINE
  5
FF1
330
23
100
AcDbEntity
  8
0
100
AcDbLine
 10
299.6296951950902
 20
42.10328108858106
 30
0.0
 11
301.1705900199188
 21
45.82333027287278
 31
0.0
  0
ARC
  5
FF2
330
23
100
AcDbEntity
  8
0
100
AcDbCircle
 10
297.760080887674
 20
42.923059454805
 30
0.0
 40
2.041444152609609
100
AcDbArc
 50
165.3237701701738
 51
338.6762298296836
  0
ARC
  5
FF3
330
23
100
AcDbEntity
  8
0
100
AcDbCircle
 10
294.7609176139362
 20
47.74096553336563
 30
0.0
 40
1.0
100
AcDbArc
 50
76.50000000000005
 51
166.4999999999999
  0
LINE
  5
FF4
330
23
100
AcDbEntity
  8
0
100
AcDbLine
 10
302.4013337926218
 20
40.95523079148017
 30
0.0
 11
303.9422286174527
 21
44.6752799757773
 31
0.0
  0
LINE
  5
FF5
330
23
100
AcDbEntity
  8
0
100
AcDbLine
 10
303.4010325173065
 20
45.9818429406537
 30
0.0
 11
302.4771529847951
 21
46.3645263730188
 31
0.0
  0
ARC
  5
FF6
330
23
100
AcDbEntity
  8
0
100
AcDbCircle
 10
303.0183490849414
 20
45.0579634081424
 30
0.0
 40
1.0
100
AcDbArc
 50
337.4999999999999
 51
67.49999999999992
  0
LINE
  5
FF7
330
23
100
AcDbEntity
  8
0
100
AcDbLine
 10
306.0213762521013
 20
39.11072703013153
 30
0.0
 11
308.1252440087359
 21
42.54392717829157
 31
0.0
  0
ARC
  5
FF8
330
23
100
AcDbEntity
  8
0
100
AcDbCircle
 10
304.3030215894283
 20
40.21288467833526
 30
0.0
 40
2.041444152609609
100
AcDbArc
 50
156.3237701701738
 51
329.6762298296836
  0
ARC
  5
FF9
330
23
100
AcDbEntity
  8
0
100
AcDbCircle
 10
302.09446955243
 20
45.44064684050751
 30
0.0
 40
1.0
100
AcDbArc
 50
67.50000000000006
 51
157.4999999999998
  0
LINE
  5
FFA
330
23
100
AcDbEntity
  8
0
100
AcDbLine
 10
308.5792967451605
 20
37.5432313359785
 30
0.0
 11
310.6831645017982
 21
40.97643148414351
 31
0.0
  0
LINE
  5
FFB
330
23
100
AcDbEntity
  8
0
100
AcDbLine
 10
310.35302290216
 20
42.35157021321356
 30
0.0
 11
309.5003827378059
 21
42.87406877792958
 31
0.0
  0
ARC
  5
FFC
330
23
100
AcDbEntity
  8
0
100
AcDbCircle
 10
309.830524337444
 20
41.49893004885946
 30
0.0
 40
1.0
100
AcDbArc
 50
328.4999999999999
 51
58.4999999999999
  0
LINE
  5
FFD
330
23
100
AcDbEntity
  8
0
100
AcDbLine
 10
311.8662265156765
 20
35.15513707113894
 30
0.0
 11
314.4812629976119
 21
38.21695140138161
 31
0.0
  0
ARC
  5
FFE
330
23
100
AcDbEntity
  8
0
100
AcDbCircle
 10
310.3414430924338
 20
36.51253522217215
 30
0.0
 40
2.041444152609609
100
AcDbArc
 50
147.3237701701738
 51
320.6762298296836
  0
ARC
  5
FFF
330
23
100
AcDbEntity
  8
0
100
AcDbCircle
 10
308.97788417309
 20
42.02142861357545
 30
0.0
 40
1.0
100
AcDbArc
 50
58.50000000000006
 51
148.4999999999999
  0
LINE
  5
1000
330
23
100
AcDbEntity
  8
0
100
AcDbLine
 10
314.1474444124727
 20
33.20679292614372
 30
0.0
 11
316.762480894412
 21
36.26860725639085
 31
0.0
  0
LINE
  5
1001
330
23
100
AcDbEntity
  8
0
100
AcDbLine
 10
316.6515229771421
 20
37.67846127032107
 30
0.0
 11
315.8911170115421
 21
38.32790931865128
 31
0.0
  0
ARC
  5
1002
330
23
100
AcDbEntity
  8
0
100
AcDbCircle
 10
316.002074928812
 20
36.91805530472102
 30
0.0
 40
1.0
100
AcDbArc
 50
319.4999999999999
 51
49.49999999999991
  0
LINE
  5
1003
330
23
100
AcDbEntity
  8
0
100
AcDbLine
 10
317.0203263743805
 20
30.33391096424413
 30
0.0
 11
320.0821407046232
 21
32.94894744617963
 31
0.0
  0
ARC
  5
1004
330
23
100
AcDbEntity
  8
0
100
AcDbCircle
 10
315.7266594189144
 20
31.91312597068221
 30
0.0
 40
2.041444152609609
100
AcDbArc
 50
138.3237701701738
 51
311.6762298296836
  0
ARC
  5
1005
330
23
100
AcDbEntity
  8
0
100
AcDbCircle
 10
315.2416689632119
 20
37.56750335305124
 30
0.0
 40
1.0
100
AcDbArc
 50
49.50000000000005
 51
139.4999999999999
  0
LINE
  5
1006
330
23
100
AcDbEntity
  8
0
100
AcDbLine
 10
318.9686705193665
 20
28.05269306744006
 30
0.0
 11
322.0304848496136
 21
30.66772954937937
 31
0.0
  0
LINE
  5
1007
330
23
100
AcDbEntity
  8
0
100
AcDbLine
 10
322.1414427668835
 20
32.07758356330959
 30
0.0
 11
321.4919947185533
 21
32.83798952890967
 31
0.0
  0
ARC
  5
1008
330
23
100
AcDbEntity
  8
0
100
AcDbCircle
 10
321.3810368012834
 20
31.4281355149794
 30
0.0
 40
1.0
100
AcDbArc
 50
310.4999999999999
 51
40.4999999999999
  0
LINE
  5
1009
330
23
100
AcDbEntity
  8
0
100
AcDbLine
 10
321.3567647842154
 20
24.76576329693094
 30
0.0
 11
324.7899649323755
 21
26.86963105356557
 31
0.0
  0
ARC
  5
100A
330
23
100
AcDbEntity
  8
0
100
AcDbCircle
 10
320.3260686704041
 20
26.52790964420127
 30
0.0
 40
2.041444152609609
100
AcDbArc
 50
129.3237701701738
 51
302.6762298296836
  0
ARC
  5
100B
330
23
100
AcDbEntity
  8
0
100
AcDbCircle
 10
320.7315887529532
 20
32.18854148057949
 30
0.0
 40
1.0
100
AcDbArc
 50
40.50000000000006
 51
130.4999999999998
  0
LINE
  5
100C
330
23
100
AcDbEntity
  8
0
100
AcDbLine
 10
322.9242604783582
 20
22.20784280386545
 30
0.0
 11
326.3574606265232
 21
24.31171056050315
 31
0.0
  0
LINE
  5
100D
330
23
100
AcDbEntity
  8
0
100
AcDbLine
 10
326.6876022261614
 20
25.68684928957316
 30
0.0
 11
326.1651036614454
 21
26.53948945392733
 31
0.0
  0
ARC
  5
100E
330
23
100
AcDbEntity
  8
0
100
AcDbCircle
 10
325.8349620618073
 20
25.1643507248572
 30
0.0
 40
1.0
100
AcDbArc
 50
301.4999999999999
 51
31.49999999999993
  0
LINE
  5
100F
330
23
100
AcDbEntity
  8
0
100
AcDbLine
 10
324.7687642397173
 20
18.58780034439127
 30
0.0
 11
328.488813424009
 21
20.12869516921987
 31
0.0
  0
ARC
  5
1010
330
23
100
AcDbEntity
  8
0
100
AcDbCircle
 10
324.0264181265668
 20
20.48948814119556
 30
0.0
 40
2.041444152609609
100
AcDbArc
 50
120.3237701701738
 51
293.6762298296836
  0
ARC
  5
1011
330
23
100
AcDbEntity
  8
0
100
AcDbCircle
 10
325.3124634970914
 20
26.01699088921133
 30
0.0
 40
1.0
100
AcDbArc
 50
31.50000000000008
 51
121.4999999999999
  0
LINE
  5
1012
330
23
100
AcDbEntity
  8
0
100
AcDbLine
 10
325.916814536807
 20
15.81616174685499
 30
0.0
 11
329.6368637211041
 21
17.35705657168583
 31
0.0
  0
LINE
  5
1013
330
23
100
AcDbEntity
  8
0
100
AcDbLine
 10
330.1780598212503
 20
18.66361953656223
 30
0.0
 11
329.7953763888852
 21
19.58749906907354
 31
0.0
  0
ARC
  5
1014
330
23
100
AcDbEntity
  8
0
100
AcDbCircle
 10
329.2541802887389
 20
18.28093610419714
 30
0.0
 40
1.0
100
AcDbArc
 50
292.4999999999999
 51
22.49999999999993
  0
LINE
  5
1015
330
23
100
AcDbEntity
  8
0
100
AcDbLine
 10
327.1723099905143
 20
11.95214405800013
 30
0.0
 11
331.0876082538851
 21
12.8921240064987
 31
0.0
  0
ARC
  5
1016
330
23
100
AcDbEntity
  8
0
100
AcDbCircle
 10
326.7365929030362
 20
13.94654743944119
 30
0.0
 40
2.041444152609609
100
AcDbArc
 50
111.3237701701738
 51
284.6762298296836
  0
ARC
  5
1017
330
23
100
AcDbEntity
  8
0
100
AcDbCircle
 10
328.8714968563739
 20
19.20481563670847
 30
0.0
 40
1.0
100
AcDbArc
 50
22.50000000000008
 51
112.4999999999998
  0
LINE
  5
1018
330
23
100
AcDbEntity
  8
0
100
AcDbLine
 10
327.8726460820763
 20
9.035034296805577
 30
0.0
 11
331.7879443454526
 21
9.975014245305573
 31
0.0
  0
LINE
  5
1019
330
23
100
AcDbEntity
  8
0
100
AcDbLine
 10
332.5268689019944
 20
11.18082952955913
 30
0.0
 11
332.2934235381385
 21
12.15319944995687
 31
0.0
  0
ARC
  5
101A
330
23
100
AcDbEntity
  8
0
100
AcDbCircle
 10
331.5544989815967
 20
10.94738416570324
 30
0.0
 40
1.0
100
AcDbArc
 50
283.4999999999999
 51
13.49999999999993
  0
LINE
  5
101B
330
23
100
AcDbEntity
  8
0
100
AcDbLine
 10
328.5082187633113
 20
5.022186318009119
 30
0.0
 11
332.5223584683868
 21
5.338105964231033
 31
0.0
  0
ARC
  5
101C
330
23
100
AcDbEntity
  8
0
100
AcDbCircle
 10
328.3898595022612
 20
7.060196453790492
 30
0.0
 40
2.041444152609609
100
AcDbArc
 50
102.3237701701738
 51
275.6762298296836
  0
ARC
  5
101D
330
23
100
AcDbEntity
  8
0
100
AcDbCircle
 10
331.3210536177408
 20
11.91975408610096
 30
0.0
 40
1.0
100
AcDbArc
 50
13.50000000000008
 51
103.4999999999999
  0
LINE
  5
101E
330
23
100
AcDbEntity
  8
0
100
AcDbLine
 10
328.7435960504888
 20
2.031434316809111
 30
0.0
 11
332.7577357555702
 21
2.347353963031508
 31
0.0
  0
LINE
  5
101F
330
23
100
AcDbEntity
  8
0
100
AcDbLine
 10
333.6761939935755
 20
3.422730392492496
 30
0.0
 11
333.5977348978476
 21
4.419647726225662
 31
0.0
  0
ARC
  5
1020
330
23
100
AcDbEntity
  8
0
100
AcDbCircle
 10
332.6792766598424
 20
3.344271296764645
 30
0.0
 40
1.0
100
AcDbArc
 50
274.4999999999999
 51
4.49999999999993
  0
LINE
  5
1021
330
23
100
AcDbEntity
  8
0
100
AcDbLine
 10
328.7435960504946
 20
-2.031434316812124
 30
0.0
 11
332.7577357555701
 21
-2.347353963034038
 31
0.0
  0
ARC
  5
1022
330
23
100
AcDbEntity
  8
0
100
AcDbCircle
 10
328.9455090136915
 20
-0.0000000000012233
 30
0.0
 40
2.041444152609609
100
AcDbArc
 50
93.32377017017384
 51
266.6762298296836
  0
ARC
  5
1023
330
23
100
AcDbEntity
  8
0
100
AcDbCircle
 10
332.6008175641145
 20
4.341188630497811
 30
0.0
 40
1.0
100
AcDbArc
 50
4.500000000000083
 51
94.4999999999999
  0
LINE
  5
1024
330
23
100
AcDbEntity
  8
0
100
AcDbLine
 10
328.5082187633051
 20
-5.022186318011137
 30
0.0
 11
332.5223584683864
 21
-5.338105964233477
 31
0.0
  0
LINE
  5
1025
330
23
100
AcDbEntity
  8
0
100
AcDbLine
 10
333.5977348978474
 20
-4.419647726228191
 30
0.0
 11
333.6761939935753
 21
-3.422730392495026
 31
0.0
  0
ARC
  5
1026
330
23
100
AcDbEntity
  8
0
100
AcDbCircle
 10
332.6008175641143
 20
-4.341188630500361
 30
0.0
 40
1.0
100
AcDbArc
 50
265.4999999999999
 51
355.5
  0
LINE
  5
1027
330
23
100
AcDbEntity
  8
0
100
AcDbLine
 10
327.8726460820815
 20
-9.035034296809413
 30
0.0
 11
331.7879443454522
 21
-9.975014245308017
 31
0.0
  0
ARC
  5
1028
330
23
100
AcDbEntity
  8
0
100
AcDbCircle
 10
328.3898595022608
 20
-7.060196453792876
 30
0.0
 40
2.041444152609609
100
AcDbArc
 50
84.32377017017385
 51
257.6762298296836
  0
ARC
  5
1029
330
23
100
AcDbEntity
  8
0
100
AcDbCircle
 10
332.6792766598421
 20
-3.344271296767203
 30
0.0
 40
1.0
100
AcDbArc
 50
355.5000000000001
 51
85.49999999999988
  0
LINE
  5
102A
330
23
100
AcDbEntity
  8
0
100
AcDbLine
 10
327.1723099905079
 20
-11.95214405800118
 30
0.0
 11
331.0876082538843
 21
-12.89212400650109
 31
0.0
  0
LINE
  5
102B
330
23
100
AcDbEntity
  8
0
100
AcDbLine
 10
332.2934235381379
 20
-12.15319944995931
 30
0.0
 11
332.5268689019938
 21
-11.1808295295616
 31
0.0
  0
ARC
  5
102C
330
23
100
AcDbEntity
  8
0
100
AcDbCircle
 10
331.3210536177402
 20
-11.91975408610334
 30
0.0
 40
1.0
100
AcDbArc
 50
256.4999999999999
 51
346.4999999999999
  0
LINE
  5
102D
330
23
100
AcDbEntity
  8
0
100
AcDbLine
 10
325.9168145368116
 20
-15.81616174685962
 30
0.0
 11
329.6368637211033
 21
-17.35705657168822
 31
0.0
  0
ARC
  5
102E
330
23
100
AcDbEntity
  8
0
100
AcDbCircle
 10
326.7365929030355
 20
-13.94654743944342
 30
0.0
 40
2.041444152609609
100
AcDbArc
 50
75.32377017017381
 51
248.6762298296837
  0
ARC
  5
102F
330
23
100
AcDbEntity
  8
0
100
AcDbCircle
 10
331.5544989815961
 20
-10.94738416570563
 30
0.0
 40
1.0
100
AcDbArc
 50
346.5000000000001
 51
76.4999999999999
  0
LINE
  5
1030
330
23
100
AcDbEntity
  8
0
100
AcDbLine
 10
324.7687642397107
 20
-18.5878003443913
 30
0.0
 11
328.4888134240079
 21
-20.12869516922208
 31
0.0
  0
LINE
  5
1031
330
23
100
AcDbEntity
  8
0
100
AcDbLine
 10
329.7953763888842
 20
-19.5874990690759
 30
0.0
 11
330.1780598212494
 21
-18.66361953656457
 31
0.0
  0
ARC
  5
1032
330
23
100
AcDbEntity
  8
0
100
AcDbCircle
 10
328.8714968563729
 20
-19.20481563671079
 30
0.0
 40
1.0
100
AcDbArc
 50
247.4999999999999
 51
337.5
  0
LINE
  5
1033
330
23
100
AcDbEntity
  8
0
100
AcDbLine
 10
322.9242604783621
 20
-22.20784280387073
 30
0.0
 11
326.3574606265221
 21
-24.31171056050533
 31
0.0
  0
ARC
  5
1034
330
23
100
AcDbEntity
  8
0
100
AcDbCircle
 10
324.0264181265658
 20
-20.48948814119775
 30
0.0
 40
2.041444152609609
100
AcDbArc
 50
66.32377017017384
 51
239.6762298296836
  0
ARC
  5
1035
330
23
100
AcDbEntity
  8
0
100
AcDbCircle
 10
329.2541802887381
 20
-18.28093610419948
 30
0.0
 40
1.0
100
AcDbArc
 50
337.5
 51
67.49999999999983
  0
LINE
  5
1036
330
23
100
AcDbEntity
  8
0
100
AcDbLine
 10
321.356764784209
 20
-24.76576329692998
 30
0.0
 11
324.7899649323741
 21
-26.86963105356759
 31
0.0
  0
LINE
  5
1037
330
23
100
AcDbEntity
  8
0
100
AcDbLine
 10
326.1651036614441
 20
-26.53948945392946
 30
0.0
 11
326.6876022261601
 21
-25.68684928957532
 31
0.0
  0
ARC
  5
1038
330
23
100
AcDbEntity
  8
0
100
AcDbCircle
 10
325.31246349709
 20
-26.01699088921349
 30
0.0
 40
1.0
100
AcDbArc
 50
238.4999999999999
 51
328.5
  0
LINE
  5
1039
330
23
100
AcDbEntity
  8
0
100
AcDbLine
 10
318.9686705193694
 20
-28.05269306744589
 30
0.0
 11
322.0304848496121
 21
-30.66772954938139
 31
0.0
  0
ARC
  5
103A
330
23
100
AcDbEntity
  8
0
100
AcDbCircle
 10
320.3260686704027
 20
-26.52790964420322
 30
0.0
 40
2.041444152609609
100
AcDbArc
 50
57.32377017017379
 51
230.6762298296837
  0
ARC
  5
103B
330
23
100
AcDbEntity
  8
0
100
AcDbCircle
 10
325.834962061806
 20
-25.16435072485939
 30
0.0
 40
1.0
100
AcDbArc
 50
328.5000000000001
 51
58.49999999999996
  0
LINE
  5
103C
330
23
100
AcDbEntity
  8
0
100
AcDbLine
 10
317.0203263743742
 20
-30.33391096424217
 30
0.0
 11
320.0821407046213
 21
-32.94894744618145
 31
0.0
  0
LINE
  5
103D
330
23
100
AcDbEntity
  8
0
100
AcDbLine
 10
321.4919947185516
 20
-32.83798952891161
 30
0.0
 11
322.1414427668818
 21
-32.07758356331155
 31
0.0
  0
ARC
  5
103E
330
23
100
AcDbEntity
  8
0
100
AcDbCircle
 10
320.7315887529516
 20
-32.18854148058139
 30
0.0
 40
1.0
100
AcDbArc
 50
229.4999999999999
 51
319.4999999999999
  0
LINE
  5
103F
330
23
100
AcDbEntity
  8
0
100
AcDbLine
 10
314.1474444124747
 20
-33.20679292614997
 30
0.0
 11
316.7624808944101
 21
-36.26860725639261
 31
0.0
  0
ARC
  5
1040
330
23
100
AcDbEntity
  8
0
100
AcDbCircle
 10
315.7266594189128
 20
-31.91312597068392
 30
0.0
 40
2.041444152609609
100
AcDbArc
 50
48.3237701701739
 51
221.6762298296837
  0
ARC
  5
1041
330
23
100
AcDbEntity
  8
0
100
AcDbCircle
 10
321.3810368012818
 20
-31.42813551498135
 30
0.0
 40
1.0
100
AcDbArc
 50
319.5000000000001
 51
49.49999999999991
  0
LINE
  5
1042
330
23
100
AcDbEntity
  8
0
100
AcDbLine
 10
311.8662265156706
 20
-35.15513707113601
 30
0.0
 11
314.4812629976099
 21
-38.21695140138309
 31
0.0
  0
LINE
  5
1043
330
23
100
AcDbEntity
  8
0
100
AcDbLine
 10
315.8911170115402
 20
-38.32790931865293
 30
0.0
 11
316.6515229771402
 21
-37.67846127032271
 31
0.0
  0
ARC
  5
1044
330
23
100
AcDbEntity
  8
0
100
AcDbCircle
 10
315.2416689632099
 20
-37.56750335305291
 30
0.0
 40
1.0
100
AcDbArc
 50
220.4999999999999
 51
310.4999999999999
  0
LINE
  5
1045
330
23
100
AcDbEntity
  8
0
100
AcDbLine
 10
308.5792967451614
 20
-37.54323133598493
 30
0.0
 11
310.6831645017961
 21
-40.97643148414498
 31
0.0
  0
ARC
  5
1046
330
23
100
AcDbEntity
  8
0
100
AcDbCircle
 10
310.3414430924318
 20
-36.5125352221736
 30
0.0
 40
2.041444152609609
100
AcDbArc
 50
39.32377017017387
 51
212.6762298296836
  0
ARC
  5
1047
330
23
100
AcDbEntity
  8
0
100
AcDbCircle
 10
316.00207492881
 20
-36.91805530472273
 30
0.0
 40
1.0
100
AcDbArc
 50
310.5
 51
40.49999999999993
  0
LINE
  5
1048
330
23
100
AcDbEntity
  8
0
100
AcDbLine
 10
306.021376252096
 20
-39.1107270301277
 30
0.0
 11
308.1252440087337
 21
-42.54392717829271
 31
0.0
  0
LINE
  5
1049
330
23
100
AcDbEntity
  8
0
100
AcDbLine
 10
309.5003827378038
 20
-42.87406877793086
 30
0.0
 11
310.3530229021579
 21
-42.35157021321491
 31
0.0
  0
ARC
  5
104A
330
23
100
AcDbEntity
  8
0
100
AcDbCircle
 10
308.9778841730878
 20
-42.02142861357674
 30
0.0
 40
1.0
100
AcDbArc
 50
211.4999999999999
 51
301.5
  0
LINE
  5
104B
330
23
100
AcDbEntity
  8
0
100
AcDbLine
 10
302.4013337926218
 20
-40.95523079148671
 30
0.0
 11
303.9422286174505
 21
-44.67527997577842
 31
0.0
  0
ARC
  5
104C
330
23
100
AcDbEntity
  8
0
100
AcDbCircle
 10
304.3030215894262
 20
-40.21288467833633
 30
0.0
 40
2.041444152609609
100
AcDbArc
 50
30.3237701701739
 51
203.6762298296837
  0
ARC
  5
104D
330
23
100
AcDbEntity
  8
0
100
AcDbCircle
 10
309.830524337442
 20
-41.49893004886078
 30
0.0
 40
1.0
100
AcDbArc
 50
301.5000000000001
 51
31.49999999999991
  0
LINE
  5
104E
330
23
100
AcDbEntity
  8
0
100
AcDbLine
 10
299.6296951950855
 20
-42.10328108857646
 30
0.0
 11
301.1705900199164
 21
-45.82333027287356
 31
0.0
  0
LINE
  5
104F
330
23
100
AcDbEntity
  8
0
100
AcDbLine
 10
302.4771529847928
 20
-46.36452637301974
 30
0.0
 11
303.4010325173041
 21
-45.98184294065466
 31
0.0
  0
ARC
  5
1050
330
23
100
AcDbEntity
  8
0
100
AcDbCircle
 10
302.0944695524276
 20
-45.44064684050847
 30
0.0
 40
1.0
100
AcDbArc
 50
202.4999999999999
 51
292.4999999999999
  0
LINE
  5
1051
330
23
100
AcDbEntity
  8
0
100
AcDbLine
 10
295.7656775062306
 20
-43.35877654228386
 30
0.0
 11
296.7056574547292
 21
-47.27407480565456
 31
0.0
  0
ARC
  5
1052
330
23
100
AcDbEntity
  8
0
100
AcDbCircle
 10
297.7600808876717
 20
-42.92305945480577
 30
0.0
 40
2.041444152609609
100
AcDbArc
 50
21.32377017017385
 51
194.6762298296837
  0
ARC
  5
1053
330
23
100
AcDbEntity
  8
0
100
AcDbCircle
 10
303.018349084939
 20
-45.05796340814338
 30
0.0
 40
1.0
100
AcDbArc
 50
292.5000000000001
 51
22.49999999999993
  0
LINE
  5
1054
330
23
100
AcDbEntity
  8
0
100
AcDbLine
 10
292.8485677450361
 20
-44.05911263384576
 30
0.0
 11
293.7885476935361
 21
-47.97441089722213
 31
0.0
  0
LINE
  5
1055
330
23
100
AcDbEntity
  8
0
100
AcDbLine
 10
294.9943629777897
 20
-48.71333545376391
 30
0.0
 11
295.9667328981874
 21
-48.47989008990801
 31
0.0
  0
ARC
  5
1056
330
23
100
AcDbEntity
  8
0
100
AcDbCircle
 10
294.7609176139338
 20
-47.74096553336621
 30
0.0
 40
1.0
100
AcDbArc
 50
193.4999999999999
 51
283.4999999999999
  0
LINE
  5
1057
330
23
100
AcDbEntity
  8
0
100
AcDbLine
 10
288.8357197662397
 20
-44.69468531508076
 30
0.0
 11
289.1516394124616
 21
-48.70882502015632
 31
0.0
  0
ARC
  5
1058
330
23
100
AcDbEntity
  8
0
100
AcDbCircle
 10
290.8737299020209
 20
-44.57632605403072
 30
0.0
 40
2.041444152609609
100
AcDbArc
 50
12.32377017017387
 51
185.6762298296836
  0
ARC
  5
1059
330
23
100
AcDbEntity
  8
0
100
AcDbCircle
 10
295.7332875343315
 20
-47.50752016951031
 30
0.0
 40
1.0
100
AcDbArc
 50
283.5
 51
13.49999999999988
  0
LINE
  5
105A
330
23
100
AcDbEntity
  8
0
100
AcDbLine
 10
285.8449677650396
 20
-44.93006260225831
 30
0.0
 11
286.160887411262
 21
-48.94420230733968
 31
0.0
  0
LINE
  5
105B
330
23
100
AcDbEntity
  8
0
100
AcDbLine
 10
287.236263840723
 20
-49.86266054534496
 30
0.0
 11
288.2331811744562
 21
-49.78420144961713
 31
0.0
  0
ARC
  5
105C
330
23
100
AcDbEntity
  8
0
100
AcDbCircle
 10
287.1578047449952
 20
-48.86574321161184
 30
0.0
 40
1.0
100
AcDbArc
 50
184.4999999999999
 51
274.5
  0
ARC
  5
105D
330
23
100
AcDbEntity
  8
0
100
AcDbCircle
 10
288.1547220787283
 20
-48.787284115884
 30
0.0
 40
1.0
100
AcDbArc
 50
274.5
 51
4.499999999999904
  0
ARC
  5
105E
330
23
100
AcDbEntity
  8
0
100
AcDbCircle
 10
283.813533448227
 20
45.13197556546105
 30
0.0
 40
2.041444152609609
100
AcDbArc
 50
289.1954212233622
 51
356.6762298298262
  0
ARC
  5
105F
330
23
100
AcDbEntity
  8
0
100
AcDbCircle
 10
284.8135334482296
 20
42.25962765243981
 30
0.0
 40
1.0
100
AcDbArc
 50
109.1954212233625
 51
179.9999999999984
  0
ARC
  5
1060
330
23
100
AcDbEntity
  8
0
100
AcDbCircle
 10
283.813533448227
 20
-45.13197556546105
 30
0.0
 40
2.041444152609609
100
AcDbArc
 50
3.323770170173848
 51
70.80457877663777
  0
ARC
  5
1061
330
23
100
AcDbEntity
  8
0
100
AcDbCircle
 10
284.8135334482296
 20
-42.25962765243981
 30
0.0
 40
1.0
100
AcDbArc
 50
180.0000000000016
 51
250.8045787766374
  0
ARC
  5
1062
330
23
100
AcDbEntity
  8
0
100
AcDbCircle
 10
284.8135334482311
 20
23.97915761656363
 30
0.0
 40
1.0
100
AcDbArc
 50
180.0000000000055
 51
267.6119845367334
  0
LINE
  5
1063
330
23
100
AcDbEntity
  8
0
100
AcDbLine
 10
283.8135334482311
 20
23.97915761656354
 30
0.0
 11
283.8135334482292
 21
42.25962765243983
 31
0.0
  0
CIRCLE
  5
1064
330
23
100
AcDbEntity
  8
0
100
AcDbCircle
 10
293.8135334482305
 20
29.72995187480004
 30
0.0
 40
2.0
  0
ARC
  5
1065
330
23
100
AcDbEntity
  8
0
100
AcDbCircle
 10
249.0000000000012
 20
-96.02084238343643
 30
0.0
 40
1.0
100
AcDbArc
 50
272.3880154632698
 51
0.0000000000057066
  0
LINE
  5
1066
330
23
100
AcDbEntity
  8
0
100
AcDbLine
 10
250.0000000000012
 20
-96.02084238343644
 30
0.0
 11
250.0000000000018
 21
-75.40943122073873
 31
0.0
  0
LINE
  5
1067
330
23
100
AcDbEntity
  8
0
100
AcDbLine
 10
248.8580289565192
 20
-74.32574116425937
 30
0.0
 11
248.7346489751354
 21
-71.97151087494749
 31
0.0
  0
ARC
  5
1068
330
23
100
AcDbEntity
  8
0
100
AcDbCircle
 10
247.7360194403809
 20
-72.02384683119049
 30
0.0
 40
1.0
100
AcDbArc
 50
3.000000000003153
 51
93.00000000000235
  0
ARC
  5
1069
330
23
100
AcDbEntity
  8
0
100
AcDbCircle
 10
250.0000000000018
 20
-74.26589299786485
 30
0.0
 40
1.14353822287388
100
AcDbArc
 50
183.0000000000032
 51
270.0
  0
LINE
  5
106A
330
23
100
AcDbEntity
  8
0
100
AcDbLine
 10
248.8580289565243
 20
-165.674258835741
 30
0.0
 11
248.7346489751408
 21
-168.0284891250526
 31
0.0
  0
ARC
  5
106B
330
23
100
AcDbEntity
  8
0
100
AcDbCircle
 10
247.7360194403861
 20
-167.9761531688098
 30
0.0
 40
1.0
100
AcDbArc
 50
267.0000000000043
 51
357.0000000000034
  0
LINE
  5
106C
330
23
100
AcDbEntity
  8
0
100
AcDbLine
 10
247.1843687167609
 20
-168.9486147254426
 30
0.0
 11
247.6836834841432
 21
-168.9747827035643
 31
0.0
  0
ARC
  5
106D
330
23
100
AcDbEntity
  8
0
100
AcDbCircle
 10
250.0000000000018
 20
-165.7341070021351
 30
0.0
 40
1.14353822287388
100
AcDbArc
 50
90.0
 51
177.0000000000033
  0
LINE
  5
106E
330
23
100
AcDbEntity
  8
0
100
AcDbLine
 10
246.3614551196329
 20
-165.5434189451333
 30
0.0
 11
246.2380751382493
 21
-167.8976492344451
 31
0.0
  0
ARC
  5
106F
330
23
100
AcDbEntity
  8
0
100
AcDbCircle
 10
247.2367046730038
 20
-167.949985190688
 30
0.0
 40
1.0
100
AcDbArc
 50
177.0000000000033
 51
267.0000000000043
  0
LINE
  5
1070
330
23
100
AcDbEntity
  8
0
100
AcDbLine
 10
244.0900247063979
 20
-165.3046819885913
 30
0.0
 11
243.7212365391419
 21
-167.633118838199
 31
0.0
  0
ARC
  5
1071
330
23
100
AcDbEntity
  8
0
100
AcDbCircle
 10
242.7335481985466
 20
-167.4766843731588
 30
0.0
 40
1.0
100
AcDbArc
 50
261.0000000000047
 51
351.0000000000029
  0
LINE
  5
1072
330
23
100
AcDbEntity
  8
0
100
AcDbLine
 10
242.0832695632039
 20
-168.3861554812331
 30
0.0
 11
242.5771137335065
 21
-168.4643727137539
 31
0.0
  0
ARC
  5
1073
330
23
100
AcDbEntity
  8
0
100
AcDbCircle
 10
245.2194840761503
 20
-165.4835707787388
 30
0.0
 40
1.14353822287388
100
AcDbArc
 50
357.000000000003
 51
171.0000000000033
  0
LINE
  5
1074
330
23
100
AcDbEntity
  8
0
100
AcDbLine
 10
241.6208038549049
 20
-164.9135958259899
 30
0.0
 11
241.2520156876488
 21
-167.2420326755977
 31
0.0
  0
ARC
  5
1075
330
23
100
AcDbEntity
  8
0
100
AcDbCircle
 10
242.2397040282441
 20
-167.3984671406379
 30
0.0
 40
1.0
100
AcDbArc
 50
171.0000000000029
 51
261.0000000000047
  0
LINE
  5
1076
330
23
100
AcDbEntity
  8
0
100
AcDbLine
 10
239.3867713823298
 20
-164.4387375649605
 30
0.0
 11
238.7766155495357
 21
-166.715870133483
 31
0.0
  0
ARC
  5
1077
330
23
100
AcDbEntity
  8
0
100
AcDbCircle
 10
237.8106897232468
 20
-166.4570510883806
 30
0.0
 40
1.0
100
AcDbArc
 50
255.0000000000022
 51
345.0000000000036
  0
LINE
  5
1078
330
23
100
AcDbEntity
  8
0
100
AcDbLine
 10
237.0689077649947
 20
-167.2935673921171
 30
0.0
 11
237.5518706781441
 21
-167.4229769146696
 31
0.0
  0
ARC
  5
1079
330
23
100
AcDbEntity
  8
0
100
AcDbCircle
 10
240.4913444851476
 20
-164.7347070358416
 30
0.0
 40
1.14353822287388
100
AcDbArc
 50
351.0000000000029
 51
165.0000000000036
  0
LINE
  5
107A
330
23
100
AcDbEntity
  8
0
100
AcDbLine
 10
236.9719568166023
 20
-163.7916899522028
 30
0.0
 11
236.3618009838082
 21
-166.0688225207256
 31
0.0
  0
ARC
  5
107B
330
23
100
AcDbEntity
  8
0
100
AcDbCircle
 10
237.3277268100973
 20
-166.3276415658281
 30
0.0
 40
1.0
100
AcDbArc
 50
165.0000000000036
 51
255.0000000000022
  0
LINE
  5
107C
330
23
100
AcDbEntity
  8
0
100
AcDbLine
 10
234.7997988119581
 20
-163.0859130331643
 30
0.0
 11
233.9549603086133
 21
-165.2867925796604
 31
0.0
  0
ARC
  5
107D
330
23
100
AcDbEntity
  8
0
100
AcDbCircle
 10
233.0213798821161
 20
-164.9284246301151
 30
0.0
 40
1.0
100
AcDbArc
 50
249.0000000000029
 51
339.0000000000024
  0
LINE
  5
107E
330
23
100
AcDbEntity
  8
0
100
AcDbLine
 10
232.1962217193175
 20
-165.6828210818379
 30
0.0
 11
232.6630119325708
 21
-165.8620050566123
 31
0.0
  0
ARC
  5
107F
330
23
100
AcDbEntity
  8
0
100
AcDbCircle
 10
235.8673837137798
 20
-163.4957204813205
 30
0.0
 40
1.14353822287388
100
AcDbArc
 50
345.0000000000036
 51
159.0000000000024
  0
LINE
  5
1080
330
23
100
AcDbEntity
  8
0
100
AcDbLine
 10
232.4658477457103
 20
-162.1899931592991
 30
0.0
 11
231.6210092423655
 21
-164.3908727057954
 31
0.0
  0
ARC
  5
1081
330
23
100
AcDbEntity
  8
0
100
AcDbCircle
 10
232.5545896688626
 20
-164.7492406553407
 30
0.0
 40
1.0
100
AcDbArc
 50
159.0000000000024
 51
249.0000000000029
  0
LINE
  5
1082
330
23
100
AcDbEntity
  8
0
100
AcDbLine
 10
230.379362826649
 20
-161.2610302218698
 30
0.0
 11
229.3090978801901
 21
-163.3615434494644
 31
0.0
  0
ARC
  5
1083
330
23
100
AcDbEntity
  8
0
100
AcDbCircle
 10
228.4180913560016
 20
-162.9075529497249
 30
0.0
 40
1.0
100
AcDbArc
 50
243.0000000000019
 51
333.0000000000041
  0
LINE
  5
1084
330
23
100
AcDbEntity
  8
0
100
AcDbLine
 10
227.5185975941633
 20
-163.5715642240412
 30
0.0
 11
227.964100856262
 21
-163.7985594739132
 31
0.0
  0
ARC
  5
1085
330
23
100
AcDbEntity
  8
0
100
AcDbCircle
 10
231.3982628438838
 20
-161.7801857111412
 30
0.0
 40
1.14353822287388
100
AcDbArc
 50
339.0000000000024
 51
153.0000000000044
  0
LINE
  5
1086
330
23
100
AcDbEntity
  8
0
100
AcDbLine
 10
228.1518465161736
 20
-160.1260539725185
 30
0.0
 11
227.0815815697146
 21
-162.2265672001133
 31
0.0
  0
ARC
  5
1087
330
23
100
AcDbEntity
  8
0
100
AcDbCircle
 10
227.9725880939028
 20
-162.6805576998527
 30
0.0
 40
1.0
100
AcDbArc
 50
153.000000000004
 51
243.0000000000019
  0
LINE
  5
1088
330
23
100
AcDbEntity
  8
0
100
AcDbLine
 10
226.1738946480936
 20
-158.9840829290388
 30
0.0
 11
224.8899293052411
 21
-160.9612161752497
 31
0.0
  0
ARC
  5
1089
330
23
100
AcDbEntity
  8
0
100
AcDbCircle
 10
224.0512587372955
 20
-160.4165771402346
 30
0.0
 40
1.0
100
AcDbArc
 50
237.0000000000024
 51
327.0000000000016
  0
LINE
  5
108A
330
23
100
AcDbEntity
  8
0
100
AcDbLine
 10
223.0872844183036
 20
-160.9829281906699
 30
0.0
 11
223.5066197022806
 21
-161.2552477081801
 31
0.0
  0
ARC
  5
108B
330
23
100
AcDbEntity
  8
0
100
AcDbCircle
 10
227.1329464989341
 20
-159.6068984832448
 30
0.0
 40
1.14353822287388
100
AcDbArc
 50
333.0000000000041
 51
147.0000000000047
  0
LINE
  5
108C
330
23
100
AcDbEntity
  8
0
100
AcDbLine
 10
224.0772182282258
 20
-157.6224853414983
 30
0.0
 11
222.7932528853731
 21
-159.5996185877094
 31
0.0
  0
ARC
  5
108D
330
23
100
AcDbEntity
  8
0
100
AcDbCircle
 10
223.6319234533186
 20
-160.1442576227243
 30
0.0
 40
1.0
100
AcDbArc
 50
147.0000000000016
 51
237.0000000000024
  0
LINE
  5
108E
330
23
100
AcDbEntity
  8
0
100
AcDbLine
 10
222.2294702657066
 20
-156.2800178656934
 30
0.0
 11
220.745871919444
 21
-158.1121092449333
 31
0.0
  0
ARC
  5
108F
330
23
100
AcDbEntity
  8
0
100
AcDbCircle
 10
219.968725957987
 20
-157.4827888538835
 30
0.0
 40
1.0
100
AcDbArc
 50
231.0000000000018
 51
321.0000000000024
  0
LINE
  5
1090
330
23
100
AcDbEntity
  8
0
100
AcDbLine
 10
218.9508325862048
 20
-157.9452746198125
 30
0.0
 11
219.3394055669372
 21
-158.2599348153405
 31
0.0
  0
ARC
  5
1091
330
23
100
AcDbEntity
  8
0
100
AcDbCircle
 10
223.1181663773808
 20
-156.9996697872896
 30
0.0
 40
1.14353822287388
100
AcDbArc
 50
327.0000000000016
 51
141.0000000000027
  0
LINE
  5
1092
330
23
100
AcDbEntity
  8
0
100
AcDbLine
 10
220.2866053620604
 20
-154.7067168880655
 30
0.0
 11
218.8030070157977
 21
-156.5388082673057
 31
0.0
  0
ARC
  5
1093
330
23
100
AcDbEntity
  8
0
100
AcDbCircle
 10
219.5801529772545
 20
-157.1681286583554
 30
0.0
 40
1.0
100
AcDbArc
 50
141.0000000000024
 51
231.0000000000018
  0
LINE
  5
1094
330
23
100
AcDbEntity
  8
0
100
AcDbLine
 10
218.5893056184457
 20
-153.1784613345297
 30
0.0
 11
216.9223288827175
 21
-154.8454380702581
 31
0.0
  0
ARC
  5
1095
330
23
100
AcDbEntity
  8
0
100
AcDbCircle
 10
216.2152221015308
 20
-154.1383312890714
 30
0.0
 40
1.0
100
AcDbArc
 50
225.000000000004
 51
315.0000000000046
  0
LINE
  5
1096
330
23
100
AcDbEntity
  8
0
100
AcDbLine
 10
215.1545619297475
 20
-154.4918846796612
 30
0.0
 11
215.5081153203444
 21
-154.8454380702581
 31
0.0
  0
ARC
  5
1097
330
23
100
AcDbEntity
  8
0
100
AcDbCircle
 10
219.3979092503822
 20
-153.987064966466
 30
0.0
 40
1.14353822287388
100
AcDbArc
 50
321.0000000000024
 51
135.0000000000046
  0
LINE
  5
1098
330
23
100
AcDbEntity
  8
0
100
AcDbLine
 10
216.8215386654757
 20
-151.4106943815597
 30
0.0
 11
215.1545619297474
 21
-153.0776711172882
 31
0.0
  0
ARC
  5
1099
330
23
100
AcDbEntity
  8
0
100
AcDbCircle
 10
215.8616687109339
 20
-153.7847778984746
 30
0.0
 40
1.0
100
AcDbArc
 50
135.0000000000046
 51
225.000000000004
  0
LINE
  5
109A
330
23
100
AcDbEntity
  8
0
100
AcDbLine
 10
215.2932831119393
 20
-149.7133946379454
 30
0.0
 11
213.4611917326995
 21
-151.1969929842082
 31
0.0
  0
ARC
  5
109B
330
23
100
AcDbEntity
  8
0
100
AcDbCircle
 10
212.8318713416496
 20
-150.4198470227513
 30
0.0
 40
1.0
100
AcDbArc
 50
219.0000000000031
 51
309.0000000000028
  0
LINE
  5
109C
330
23
100
AcDbEntity
  8
0
100
AcDbLine
 10
211.7400651846645
 20
-150.6605944330687
 30
0.0
 11
212.0547253801926
 21
-151.0491674138011
 31
0.0
  0
ARC
  5
109D
330
23
100
AcDbEntity
  8
0
100
AcDbCircle
 10
216.0129350335356
 20
-150.6020907496195
 30
0.0
 40
1.14353822287388
100
AcDbArc
 50
315.0000000000046
 51
129.0000000000027
  0
LINE
  5
109E
330
23
100
AcDbEntity
  8
0
100
AcDbLine
 10
213.7199821343116
 20
-147.770529734299
 30
0.0
 11
211.8878907550716
 21
-149.2541280805619
 31
0.0
  0
ARC
  5
109F
330
23
100
AcDbEntity
  8
0
100
AcDbCircle
 10
212.5172111461214
 20
-150.0312740420189
 30
0.0
 40
1.0
100
AcDbArc
 50
129.0000000000027
 51
219.0000000000031
  0
LINE
  5
10A0
330
23
100
AcDbEntity
  8
0
100
AcDbLine
 10
212.3775146585061
 20
-145.9227817717802
 30
0.0
 11
210.4003814122953
 21
-147.2067471146329
 31
0.0
  0
ARC
  5
10A1
330
23
100
AcDbEntity
  8
0
100
AcDbCircle
 10
209.8557423772802
 20
-146.3680765466876
 30
0.0
 40
1.0
100
AcDbArc
 50
213.0000000000042
 51
303.0000000000017
  0
LINE
  5
10A2
330
23
100
AcDbEntity
  8
0
100
AcDbLine
 10
208.7447522918245
 20
-146.4933802977256
 30
0.0
 11
209.0170718093347
 21
-146.9127155817026
 31
0.0
  0
ARC
  5
10A3
330
23
100
AcDbEntity
  8
0
100
AcDbCircle
 10
213.0003302127121
 20
-146.881833622621
 30
0.0
 40
1.14353822287388
100
AcDbArc
 50
309.0000000000028
 51
123.0000000000019
  0
LINE
  5
10A4
330
23
100
AcDbEntity
  8
0
100
AcDbLine
 10
211.0159170709658
 20
-143.8261053519124
 30
0.0
 11
209.0387838247548
 21
-145.1100706947651
 31
0.0
  0
ARC
  5
10A5
330
23
100
AcDbEntity
  8
0
100
AcDbCircle
 10
209.5834228597699
 20
-145.9487412627105
 30
0.0
 40
1.0
100
AcDbArc
 50
123.0000000000017
 51
213.0000000000042
  0
LINE
  5
10A6
330
23
100
AcDbEntity
  8
0
100
AcDbLine
 10
209.8739460274854
 20
-141.8481534838327
 30
0.0
 11
207.773432799891
 21
-142.9184184302918
 31
0.0
  0
ARC
  5
10A7
330
23
100
AcDbEntity
  8
0
100
AcDbCircle
 10
207.3194423001514
 20
-142.0274119061035
 30
0.0
 40
1.0
100
AcDbArc
 50
207.0000000000025
 51
297.0000000000019
  0
LINE
  5
10A8
330
23
100
AcDbEntity
  8
0
100
AcDbLine
 10
206.2014405260909
 20
-142.0358991437444
 30
0.0
 11
206.428435775963
 21
-142.4814024058431
 31
0.0
  0
ARC
  5
10A9
330
23
100
AcDbEntity
  8
0
100
AcDbCircle
 10
210.3931015167569
 20
-142.8670535010675
 30
0.0
 40
1.14353822287388
100
AcDbArc
 50
303.0000000000017
 51
117.0000000000019
  0
LINE
  5
10AA
330
23
100
AcDbEntity
  8
0
100
AcDbLine
 10
208.7389697781344
 20
-139.6206371733573
 30
0.0
 11
206.6384565505397
 21
-140.6909021198166
 31
0.0
  0
ARC
  5
10AB
330
23
100
AcDbEntity
  8
0
100
AcDbCircle
 10
207.0924470502794
 20
-141.5819086440049
 30
0.0
 40
1.0
100
AcDbArc
 50
117.0000000000019
 51
207.0000000000025
  0
LINE
  5
10AC
330
23
100
AcDbEntity
  8
0
100
AcDbLine
 10
207.8100068407043
 20
-137.5341522542962
 30
0.0
 11
205.6091272942083
 21
-138.3789907576412
 31
0.0
  0
ARC
  5
10AD
330
23
100
AcDbEntity
  8
0
100
AcDbCircle
 10
205.250759344663
 20
-137.4454103311441
 30
0.0
 40
1.0
100
AcDbArc
 50
201.0000000000025
 51
291.0000000000041
  0
LINE
  5
10AE
330
23
100
AcDbEntity
  8
0
100
AcDbLine
 10
204.1379949433913
 20
-137.336988067436
 30
0.0
 11
204.3171789181658
 21
-137.8037782806893
 31
0.0
  0
ARC
  5
10AF
330
23
100
AcDbEntity
  8
0
100
AcDbCircle
 10
208.2198142888606
 20
-138.6017371561179
 30
0.0
 40
1.14353822287388
100
AcDbArc
 50
297.0000000000019
 51
111.0000000000042
  0
LINE
  5
10B0
330
23
100
AcDbEntity
  8
0
100
AcDbLine
 10
206.9140869668394
 20
-135.2002011880484
 30
0.0
 11
204.7132074203432
 21
-136.0450396913935
 31
0.0
  0
ARC
  5
10B1
330
23
100
AcDbEntity
  8
0
100
AcDbCircle
 10
205.0715753698885
 20
-136.9786201178907
 30
0.0
 40
1.0
100
AcDbArc
 50
111.0000000000041
 51
201.0000000000025
  0
LINE
  5
10B2
330
23
100
AcDbEntity
  8
0
100
AcDbLine
 10
206.2083100478002
 20
-133.0280431834044
 30
0.0
 11
203.9311774792777
 21
-133.6381990161987
 31
0.0
  0
ARC
  5
10B3
330
23
100
AcDbEntity
  8
0
100
AcDbCircle
 10
203.6723584341751
 20
-132.6722731899097
 30
0.0
 40
1.0
100
AcDbArc
 50
195.0000000000036
 51
285.0000000000046
  0
LINE
  5
10B4
330
23
100
AcDbEntity
  8
0
100
AcDbLine
 10
202.5770230853335
 20
-132.4481293218628
 30
0.0
 11
202.7064326078861
 21
-132.9310922350121
 31
0.0
  0
ARC
  5
10B5
330
23
100
AcDbEntity
  8
0
100
AcDbCircle
 10
206.5042795186813
 20
-134.132616286222
 30
0.0
 40
1.14353822287388
100
AcDbArc
 50
291.0000000000041
 51
105.0000000000046
  0
LINE
  5
10B6
330
23
100
AcDbEntity
  8
0
100
AcDbLine
 10
205.5612624350427
 20
-130.6132286176768
 30
0.0
 11
203.28412986652
 21
-131.2233844504712
 31
0.0
  0
ARC
  5
10B7
330
23
100
AcDbEntity
  8
0
100
AcDbCircle
 10
203.5429489116226
 20
-132.1893102767602
 30
0.0
 40
1.0
100
AcDbArc
 50
105.0000000000046
 51
195.0000000000036
  0
LINE
  5
10B8
330
23
100
AcDbEntity
  8
0
100
AcDbLine
 10
205.0864041740126
 20
-128.3791961451019
 30
0.0
 11
202.757967324405
 21
-128.7479843123582
 31
0.0
  0
ARC
  5
10B9
330
23
100
AcDbEntity
  8
0
100
AcDbCircle
 10
202.6015328593647
 20
-127.760295971763
 30
0.0
 40
1.0
100
AcDbArc
 50
189.0000000000031
 51
279.0000000000019
  0
LINE
  5
10BA
330
23
100
AcDbEntity
  8
0
100
AcDbLine
 10
201.5356272862487
 20
-127.4228862665007
 30
0.0
 11
201.6138445187697
 21
-127.9167304368032
 31
0.0
  0
ARC
  5
10BB
330
23
100
AcDbEntity
  8
0
100
AcDbCircle
 10
205.2652929641602
 20
-129.5086555148543
 30
0.0
 40
1.14353822287388
100
AcDbArc
 50
285.0000000000046
 51
99.00000000000188
  0
LINE
  5
10BC
330
23
100
AcDbEntity
  8
0
100
AcDbLine
 10
204.6953180114114
 20
-125.909975293609
 30
0.0
 11
202.3668811618035
 21
-126.2787634608653
 31
0.0
  0
ARC
  5
10BD
330
23
100
AcDbEntity
  8
0
100
AcDbCircle
 10
202.5233156268437
 20
-127.2664518014603
 30
0.0
 40
1.0
100
AcDbArc
 50
99.00000000000188
 51
189.0000000000031
  0
LINE
  5
10BE
330
23
100
AcDbEntity
  8
0
100
AcDbLine
 10
204.4565810548686
 20
-123.6385448803741
 30
0.0
 11
202.102350765557
 21
-123.7619248617579
 31
0.0
  0
ARC
  5
10BF
330
23
100
AcDbEntity
  8
0
100
AcDbCircle
 10
202.050014809314
 20
-122.7632953270032
 30
0.0
 40
1.0
100
AcDbArc
 50
183.0000000000032
 51
273.0000000000023
  0
LINE
  5
10C0
330
23
100
AcDbEntity
  8
0
100
AcDbLine
 10
201.0252172964377
 20
-122.3163165158639
 30
0.0
 11
201.0513852745595
 21
-122.8156312832463
 31
0.0
  0
ARC
  5
10C1
330
23
100
AcDbEntity
  8
0
100
AcDbCircle
 10
204.5164292212629
 20
-124.7805159238515
 30
0.0
 40
1.14353822287388
100
AcDbArc
 50
279.0000000000019
 51
93.00000000000235
  0
LINE
  5
10C2
330
23
100
AcDbEntity
  8
0
100
AcDbLine
 10
204.3257411642612
 20
-121.1419710434826
 30
0.0
 11
201.9715108749494
 21
-121.2653510248664
 31
0.0
  0
ARC
  5
10C3
330
23
100
AcDbEntity
  8
0
100
AcDbCircle
 10
202.0238468311923
 20
-122.263980559621
 30
0.0
 40
1.0
100
AcDbArc
 50
93.00000000000235
 51
183.0000000000032
  0
LINE
  5
10C4
330
23
100
AcDbEntity
  8
0
100
AcDbLine
 10
204.3257411642608
 20
-118.8580289565225
 30
0.0
 11
201.9715108749492
 21
-118.7346489751389
 31
0.0
  0
ARC
  5
10C5
330
23
100
AcDbEntity
  8
0
100
AcDbCircle
 10
202.023846831192
 20
-117.7360194403843
 30
0.0
 40
1.0
100
AcDbArc
 50
177.0000000000033
 51
267.0000000000043
  0
LINE
  5
10C6
330
23
100
AcDbEntity
  8
0
100
AcDbLine
 10
201.0513852745592
 20
-117.1843687167591
 30
0.0
 11
201.0252172964375
 21
-117.6836834841414
 31
0.0
  0
ARC
  5
10C7
330
23
100
AcDbEntity
  8
0
100
AcDbCircle
 10
204.2658929978667
 20
-120.0
 30
0.0
 40
1.14353822287388
100
AcDbArc
 50
273.0000000000023
 51
87.0000000000042
  0
LINE
  5
10C8
330
23
100
AcDbEntity
  8
0
100
AcDbLine
 10
204.4565810548685
 20
-116.361455119631
 30
0.0
 11
202.1023507655566
 21
-116.2380751382474
 31
0.0
  0
ARC
  5
10C9
330
23
100
AcDbEntity
  8
0
100
AcDbCircle
 10
202.0500148093138
 20
-117.2367046730019
 30
0.0
 40
1.0
100
AcDbArc
 50
87.0000000000042
 51
177.0000000000033
  0
LINE
  5
10CA
330
23
100
AcDbEntity
  8
0
100
AcDbLine
 10
204.6953180114104
 20
-114.090024706396
 30
0.0
 11
202.3668811618029
 21
-113.7212365391401
 31
0.0
  0
ARC
  5
10CB
330
23
100
AcDbEntity
  8
0
100
AcDbCircle
 10
202.5233156268429
 20
-112.7335481985448
 30
0.0
 40
1.0
100
AcDbArc
 50
171.0000000000029
 51
261.0000000000047
  0
LINE
  5
10CC
330
23
100
AcDbEntity
  8
0
100
AcDbLine
 10
201.6138445187687
 20
-112.083269563202
 30
0.0
 11
201.5356272862478
 21
-112.5771137335047
 31
0.0
  0
ARC
  5
10CD
330
23
100
AcDbEntity
  8
0
100
AcDbCircle
 10
204.516429221263
 20
-115.2194840761484
 30
0.0
 40
1.14353822287388
100
AcDbArc
 50
267.0000000000043
 51
81.00000000000472
  0
LINE
  5
10CE
330
23
100
AcDbEntity
  8
0
100
AcDbLine
 10
205.0864041740119
 20
-111.6208038549032
 30
0.0
 11
202.757967324404
 21
-111.2520156876472
 31
0.0
  0
ARC
  5
10CF
330
23
100
AcDbEntity
  8
0
100
AcDbCircle
 10
202.6015328593639
 20
-112.2397040282423
 30
0.0
 40
1.0
100
AcDbArc
 50
81.00000000000472
 51
171.0000000000029
  0
LINE
  5
10D0
330
23
100
AcDbEntity
  8
0
100
AcDbLine
 10
205.5612624350412
 20
-109.3867713823281
 30
0.0
 11
203.2841298665187
 21
-108.7766155495341
 31
0.0
  0
ARC
  5
10D1
330
23
100
AcDbEntity
  8
0
100
AcDbCircle
 10
203.5429489116211
 20
-107.8106897232449
 30
0.0
 40
1.0
100
AcDbArc
 50
165.0000000000036
 51
255.0000000000022
  0
LINE
  5
10D2
330
23
100
AcDbEntity
  8
0
100
AcDbLine
 10
202.7064326078847
 20
-107.068907764993
 30
0.0
 11
202.5770230853321
 21
-107.5518706781425
 31
0.0
  0
ARC
  5
10D3
330
23
100
AcDbEntity
  8
0
100
AcDbCircle
 10
205.2652929641602
 20
-110.4913444851458
 30
0.0
 40
1.14353822287388
100
AcDbArc
 50
261.0000000000047
 51
75.0000000000022
  0
LINE
  5
10D4
330
23
100
AcDbEntity
  8
0
100
AcDbLine
 10
206.208310047799
 20
-106.9719568166006
 30
0.0
 11
203.9311774792762
 21
-106.3618009838064
 31
0.0
  0
ARC
  5
10D5
330
23
100
AcDbEntity
  8
0
100
AcDbCircle
 10
203.6723584341737
 20
-107.3277268100955
 30
0.0
 40
1.0
100
AcDbArc
 50
75.0000000000022
 51
165.0000000000036
  0
LINE
  5
10D6
330
23
100
AcDbEntity
  8
0
100
AcDbLine
 10
206.9140869668375
 20
-104.7997988119563
 30
0.0
 11
204.7132074203414
 21
-103.9549603086115
 31
0.0
  0
ARC
  5
10D7
330
23
100
AcDbEntity
  8
0
100
AcDbCircle
 10
205.0715753698866
 20
-103.0213798821143
 30
0.0
 40
1.0
100
AcDbArc
 50
159.0000000000024
 51
249.0000000000029
  0
LINE
  5
10D8
330
23
100
AcDbEntity
  8
0
100
AcDbLine
 10
204.3171789181639
 20
-102.1962217193157
 30
0.0
 11
204.1379949433895
 21
-102.663011932569
 31
0.0
  0
ARC
  5
10D9
330
23
100
AcDbEntity
  8
0
100
AcDbCircle
 10
206.5042795186813
 20
-105.867383713778
 30
0.0
 40
1.14353822287388
100
AcDbArc
 50
255.0000000000022
 51
69.00000000000289
  0
LINE
  5
10DA
330
23
100
AcDbEntity
  8
0
100
AcDbLine
 10
207.8100068407026
 20
-102.4658477457087
 30
0.0
 11
205.6091272942063
 21
-101.6210092423638
 31
0.0
  0
ARC
  5
10DB
330
23
100
AcDbEntity
  8
0
100
AcDbCircle
 10
205.2507593446611
 20
-102.554589668861
 30
0.0
 40
1.0
100
AcDbArc
 50
69.00000000000289
 51
159.0000000000024
  0
LINE
  5
10DC
330
23
100
AcDbEntity
  8
0
100
AcDbLine
 10
208.7389697781319
 20
-100.3793628266473
 30
0.0
 11
206.6384565505373
 21
-99.30909788018841
 31
0.0
  0
ARC
  5
10DD
330
23
100
AcDbEntity
  8
0
100
AcDbCircle
 10
207.0924470502768
 20
-98.41809135599994
 30
0.0
 40
1.0
100
AcDbArc
 50
153.000000000004
 51
243.0000000000019
  0
LINE
  5
10DE
330
23
100
AcDbEntity
  8
0
100
AcDbLine
 10
206.4284357759605
 20
-97.5185975941617
 30
0.0
 11
206.2014405260885
 21
-97.96410085626035
 31
0.0
  0
ARC
  5
10DF
330
23
100
AcDbEntity
  8
0
100
AcDbCircle
 10
208.2198142888606
 20
-101.3982628438822
 30
0.0
 40
1.14353822287388
100
AcDbArc
 50
249.0000000000029
 51
63.00000000000189
  0
LINE
  5
10E0
330
23
100
AcDbEntity
  8
0
100
AcDbLine
 10
209.8739460274833
 20
-98.15184651617194
 30
0.0
 11
207.7734327998884
 21
-97.08158156971286
 31
0.0
  0
ARC
  5
10E1
330
23
100
AcDbEntity
  8
0
100
AcDbCircle
 10
207.319442300149
 20
-97.97258809390122
 30
0.0
 40
1.0
100
AcDbArc
 50
63.00000000000189
 51
153.000000000004
  0
LINE
  5
10E2
330
23
100
AcDbEntity
  8
0
100
AcDbLine
 10
211.0159170709629
 20
-96.17389464809178
 30
0.0
 11
209.038783824752
 21
-94.88992930523943
 31
0.0
  0
ARC
  5
10E3
330
23
100
AcDbEntity
  8
0
100
AcDbCircle
 10
209.583422859767
 20
-94.05125873729392
 30
0.0
 40
1.0
100
AcDbArc
 50
147.000000000002
 51
237.0000000000024
  0
LINE
  5
10E4
330
23
100
AcDbEntity
  8
0
100
AcDbLine
 10
209.0170718093318
 20
-93.08728441830192
 30
0.0
 11
208.7447522918217
 21
-93.50661970227889
 31
0.0
  0
ARC
  5
10E5
330
23
100
AcDbEntity
  8
0
100
AcDbCircle
 10
210.393101516757
 20
-97.13294649893251
 30
0.0
 40
1.14353822287388
100
AcDbArc
 50
243.0000000000019
 51
57.00000000000231
  0
LINE
  5
10E6
330
23
100
AcDbEntity
  8
0
100
AcDbLine
 10
212.3775146585034
 20
-94.07721822822413
 30
0.0
 11
210.4003814122922
 21
-92.79325288537155
 31
0.0
  0
ARC
  5
10E7
330
23
100
AcDbEntity
  8
0
100
AcDbCircle
 10
209.8557423772772
 20
-93.63192345331695
 30
0.0
 40
1.0
100
AcDbArc
 50
57.00000000000231
 51
147.000000000002
  0
LINE
  5
10E8
330
23
100
AcDbEntity
  8
0
100
AcDbLine
 10
213.7199821343083
 20
-92.22947026570494
 30
0.0
 11
211.8878907550683
 21
-90.74587191944237
 31
0.0
  0
ARC
  5
10E9
330
23
100
AcDbEntity
  8
0
100
AcDbCircle
 10
212.517211146118
 20
-89.96872595798533
 30
0.0
 40
1.0
100
AcDbArc
 50
141.0000000000027
 51
231.0000000000018
  0
LINE
  5
10EA
330
23
100
AcDbEntity
  8
0
100
AcDbLine
 10
212.0547253801892
 20
-88.95083258620308
 30
0.0
 11
211.7400651846611
 21
-89.33940556693551
 31
0.0
  0
ARC
  5
10EB
330
23
100
AcDbEntity
  8
0
100
AcDbCircle
 10
213.0003302127121
 20
-93.1181663773791
 30
0.0
 40
1.14353822287388
100
AcDbArc
 50
237.0000000000024
 51
51.00000000000535
  0
LINE
  5
10EC
330
23
100
AcDbEntity
  8
0
100
AcDbLine
 10
215.2932831119362
 20
-90.28660536205865
 30
0.0
 11
213.461191732696
 21
-88.8030070157959
 31
0.0
  0
ARC
  5
10ED
330
23
100
AcDbEntity
  8
0
100
AcDbCircle
 10
212.8318713416462
 20
-89.58015297725285
 30
0.0
 40
1.0
100
AcDbArc
 50
51.00000000000181
 51
141.0000000000027
  0
LINE
  5
10EE
330
23
100
AcDbEntity
  8
0
100
AcDbLine
 10
216.821538665472
 20
-88.58930561844392
 30
0.0
 11
215.1545619297436
 21
-86.92232888271576
 31
0.0
  0
ARC
  5
10EF
330
23
100
AcDbEntity
  8
0
100
AcDbCircle
 10
215.8616687109302
 20
-86.21522210152908
 30
0.0
 40
1.0
100
AcDbArc
 50
135.0000000000046
 51
225.000000000004
  0
LINE
  5
10F0
330
23
100
AcDbEntity
  8
0
100
AcDbLine
 10
215.5081153203404
 20
-85.15456192974573
 30
0.0
 11
215.1545619297436
 21
-85.50811532034259
 31
0.0
  0
ARC
  5
10F1
330
23
100
AcDbEntity
  8
0
100
AcDbCircle
 10
216.0129350335355
 20
-89.39790925038044
 30
0.0
 40
1.14353822287388
100
AcDbArc
 50
231.0000000000018
 51
45.00000000000405
  0
LINE
  5
10F2
330
23
100
AcDbEntity
  8
0
100
AcDbLine
 10
218.589305618442
 20
-86.82153866547407
 30
0.0
 11
216.9223288827135
 21
-85.15456192974568
 31
0.0
  0
ARC
  5
10F3
330
23
100
AcDbEntity
  8
0
100
AcDbCircle
 10
216.215222101527
 20
-85.86166871093226
 30
0.0
 40
1.0
100
AcDbArc
 50
45.00000000000405
 51
135.0000000000046
  0
LINE
  5
10F4
330
23
100
AcDbEntity
  8
0
100
AcDbLine
 10
220.2866053620562
 20
-85.29328311193763
 30
0.0
 11
218.8030070157934
 21
-83.46119173269784
 31
0.0
  0
ARC
  5
10F5
330
23
100
AcDbEntity
  8
0
100
AcDbCircle
 10
219.5801529772503
 20
-82.83187134164789
 30
0.0
 40
1.0
100
AcDbArc
 50
129.0000000000027
 51
219.0000000000031
  0
LINE
  5
10F6
330
23
100
AcDbEntity
  8
0
100
AcDbLine
 10
219.3394055669329
 20
-81.74006518466285
 30
0.0
 11
218.9508325862005
 21
-82.05472538019098
 31
0.0
  0
ARC
  5
10F7
330
23
100
AcDbEntity
  8
0
100
AcDbCircle
 10
219.3979092503821
 20
-86.01293503353389
 30
0.0
 40
1.14353822287388
100
AcDbArc
 50
225.000000000004
 51
39.00000000000311
  0
LINE
  5
10F8
330
23
100
AcDbEntity
  8
0
100
AcDbLine
 10
222.2294702657027
 20
-83.71998213430993
 30
0.0
 11
220.7458719194397
 21
-81.88789075506994
 31
0.0
  0
ARC
  5
10F9
330
23
100
AcDbEntity
  8
0
100
AcDbCircle
 10
219.9687259579828
 20
-82.51721114611973
 30
0.0
 40
1.0
100
AcDbArc
 50
39.00000000000311
 51
129.0000000000027
  0
LINE
  5
10FA
330
23
100
AcDbEntity
  8
0
100
AcDbLine
 10
224.0772182282214
 20
-82.37751465850436
 30
0.0
 11
222.7932528853687
 21
-80.40038141229363
 31
0.0
  0
ARC
  5
10FB
330
23
100
AcDbEntity
  8
0
100
AcDbCircle
 10
223.631923453314
 20
-79.85574237727849
 30
0.0
 40
1.0
100
AcDbArc
 50
123.0000000000019
 51
213.0000000000046
  0
LINE
  5
10FC
330
23
100
AcDbEntity
  8
0
100
AcDbLine
 10
223.506619702276
 20
-78.74475229182284
 30
0.0
 11
223.0872844182991
 21
-79.01707180933311
 31
0.0
  0
ARC
  5
10FD
330
23
100
AcDbEntity
  8
0
100
AcDbCircle
 10
223.1181663773807
 20
-83.00033021271046
 30
0.0
 40
1.14353822287388
100
AcDbArc
 50
219.0000000000031
 51
33.00000000000457
  0
LINE
  5
10FE
330
23
100
AcDbEntity
  8
0
100
AcDbLine
 10
226.1738946480892
 20
-81.01591707096412
 30
0.0
 11
224.8899293052364
 21
-79.03878382475318
 31
0.0
  0
ARC
  5
10FF
330
23
100
AcDbEntity
  8
0
100
AcDbCircle
 10
224.0512587372911
 20
-79.58342285976823
 30
0.0
 40
1.0
100
AcDbArc
 50
33.00000000000457
 51
123.0000000000019
  0
LINE
  5
1100
330
23
100
AcDbEntity
  8
0
100
AcDbLine
 10
228.1518465161689
 20
-79.87394602748373
 30
0.0
 11
227.0815815697097
 21
-77.77343279988929
 31
0.0
  0
ARC
  5
1101
330
23
100
AcDbEntity
  8
0
100
AcDbCircle
 10
227.972588093898
 20
-77.31944230014966
 30
0.0
 40
1.0
100
AcDbArc
 50
117.0000000000019
 51
207.0000000000029
  0
LINE
  5
1102
330
23
100
AcDbEntity
  8
0
100
AcDbLine
 10
227.9641008562572
 20
-76.20144052608925
 30
0.0
 11
227.5185975941585
 21
-76.42843577596133
 31
0.0
  0
ARC
  5
1103
330
23
100
AcDbEntity
  8
0
100
AcDbCircle
 10
227.1329464989341
 20
-80.39310151675525
 30
0.0
 40
1.14353822287388
100
AcDbArc
 50
213.0000000000046
 51
27.00000000000287
  0
LINE
  5
1104
330
23
100
AcDbEntity
  8
0
100
AcDbLine
 10
230.3793628266444
 20
-78.73896977813268
 30
0.0
 11
229.3090978801851
 21
-76.63845655053799
 31
0.0
  0
ARC
  5
1105
330
23
100
AcDbEntity
  8
0
100
AcDbCircle
 10
228.4180913559968
 20
-77.09244705027751
 30
0.0
 40
1.0
100
AcDbArc
 50
27.00000000000287
 51
117.0000000000019
  0
LINE
  5
1106
330
23
100
AcDbEntity
  8
0
100
AcDbLine
 10
232.4658477457055
 20
-77.81000684070261
 30
0.0
 11
231.6210092423604
 21
-75.60912729420664
 31
0.0
  0
ARC
  5
1107
330
23
100
AcDbEntity
  8
0
100
AcDbCircle
 10
232.5545896688576
 20
-75.25075934466125
 30
0.0
 40
1.0
100
AcDbArc
 50
111.0000000000042
 51
201.0000000000025
  0
LINE
  5
1108
330
23
100
AcDbEntity
  8
0
100
AcDbLine
 10
232.6630119325656
 20
-74.13799494338957
 30
0.0
 11
232.1962217193123
 21
-74.31717891816408
 31
0.0
  0
ARC
  5
1109
330
23
100
AcDbEntity
  8
0
100
AcDbCircle
 10
231.3982628438838
 20
-78.2198142888588
 30
0.0
 40
1.14353822287388
100
AcDbArc
 50
207.0000000000025
 51
21.00000000000287
  0
LINE
  5
110A
330
23
100
AcDbEntity
  8
0
100
AcDbLine
 10
234.7997988119532
 20
-76.91408696683765
 30
0.0
 11
233.954960308608
 21
-74.71320742034143
 31
0.0
  0
ARC
  5
110B
330
23
100
AcDbEntity
  8
0
100
AcDbCircle
 10
233.021379882111
 20
-75.07157536988677
 30
0.0
 40
1.0
100
AcDbArc
 50
21.00000000000249
 51
111.0000000000042
  0
LINE
  5
110C
330
23
100
AcDbEntity
  8
0
100
AcDbLine
 10
236.9719568165972
 20
-76.20831004779839
 30
0.0
 11
236.3618009838028
 21
-73.93117747927596
 31
0.0
  0
ARC
  5
110D
330
23
100
AcDbEntity
  8
0
100
AcDbCircle
 10
237.327726810092
 20
-73.67235843417336
 30
0.0
 40
1.0
100
AcDbArc
 50
105.0000000000046
 51
195.000000000004
  0
LINE
  5
110E
330
23
100
AcDbEntity
  8
0
100
AcDbLine
 10
237.5518706781388
 20
-72.57702308533172
 30
0.0
 11
237.0689077649895
 21
-72.70643260788432
 31
0.0
  0
ARC
  5
110F
330
23
100
AcDbEntity
  8
0
100
AcDbCircle
 10
235.8673837137796
 20
-76.5042795186796
 30
0.0
 40
1.14353822287388
100
AcDbArc
 50
201.0000000000025
 51
15.00000000000434
  0
LINE
  5
1110
330
23
100
AcDbEntity
  8
0
100
AcDbLine
 10
239.3867713823248
 20
-75.5612624350409
 30
0.0
 11
238.7766155495304
 21
-73.28412986651821
 31
0.0
  0
ARC
  5
1111
330
23
100
AcDbEntity
  8
0
100
AcDbCircle
 10
237.8106897232413
 20
-73.54294891162078
 30
0.0
 40
1.0
100
AcDbArc
 50
15.00000000000396
 51
105.0000000000046
  0
LINE
  5
1112
330
23
100
AcDbEntity
  8
0
100
AcDbLine
 10
241.6208038548997
 20
-75.08640417401079
 30
0.0
 11
241.2520156876434
 21
-72.75796732440326
 31
0.0
  0
ARC
  5
1113
330
23
100
AcDbEntity
  8
0
100
AcDbCircle
 10
242.2397040282386
 20
-72.60153285936297
 30
0.0
 40
1.0
100
AcDbArc
 50
99.00000000000188
 51
189.0000000000035
  0
LINE
  5
1114
330
23
100
AcDbEntity
  8
0
100
AcDbLine
 10
242.5771137335009
 20
-71.53562728624689
 30
0.0
 11
242.0832695631983
 21
-71.61384451876782
 31
0.0
  0
ARC
  5
1115
330
23
100
AcDbEntity
  8
0
100
AcDbCircle
 10
240.4913444851473
 20
-75.26529296415839
 30
0.0
 40
1.14353822287388
100
AcDbArc
 50
195.000000000004
 51
9.000000000003925
  0
LINE
  5
1116
330
23
100
AcDbEntity
  8
0
100
AcDbLine
 10
244.0900247063926
 20
-74.69531801140954
 30
0.0
 11
243.7212365391363
 21
-72.36688116180173
 31
0.0
  0
ARC
  5
1117
330
23
100
AcDbEntity
  8
0
100
AcDbCircle
 10
242.7335481985412
 20
-72.52331562684202
 30
0.0
 40
1.0
100
AcDbArc
 50
9.000000000003543
 51
99.00000000000188
  0
LINE
  5
1118
330
23
100
AcDbEntity
  8
0
100
AcDbLine
 10
246.3614551196275
 20
-74.45658105486689
 30
0.0
 11
246.2380751382436
 21
-72.10235076555528
 31
0.0
  0
ARC
  5
1119
330
23
100
AcDbEntity
  8
0
100
AcDbCircle
 10
247.2367046729983
 20
-72.05001480931224
 30
0.0
 40
1.0
100
AcDbArc
 50
93.00000000000235
 51
183.0000000000036
  0
LINE
  5
111A
330
23
100
AcDbEntity
  8
0
100
AcDbLine
 10
247.6836834841376
 20
-71.02521729643592
 30
0.0
 11
247.1843687167553
 21
-71.05138527455768
 31
0.0
  0
ARC
  5
111B
330
23
100
AcDbEntity
  8
0
100
AcDbCircle
 10
245.2194840761499
 20
-74.51642922126115
 30
0.0
 40
1.14353822287388
100
AcDbArc
 50
189.0000000000035
 51
3.000000000003967
  0
ARC
  5
111C
330
23
100
AcDbEntity
  8
0
100
AcDbCircle
 10
249.0000000000012
 20
-143.9791576165636
 30
0.0
 40
1.0
100
AcDbArc
 50
359.9999999999943
 51
87.61198453673015
  0
LINE
  5
111D
330
23
100
AcDbEntity
  8
0
100
AcDbLine
 10
250.0000000000012
 20
-143.9791576165635
 30
0.0
 11
250.0000000000018
 21
-164.5905687792613
 31
0.0
  0
ARC
  5
111E
330
23
100
AcDbEntity
  8
0
100
AcDbCircle
 10
250.0000000000018
 20
-120.0
 30
0.0
 40
23.0
100
AcDbArc
 50
92.38801546326333
 51
267.6119845367334
  0
CIRCLE
  5
111F
330
23
100
AcDbEntity
  8
0
100
AcDbCircle
 10
293.8135334482305
 20
-29.72995187480003
 30
0.0
 40
2.0
  0
CIRCLE
  5
1120
330
23
100
AcDbEntity
  8
0
100
AcDbCircle
 10
240.0000000000014
 20
-90.27004812519894
 30
0.0
 40
2.0
  0
CIRCLE
  5
1121
330
23
100
AcDbEntity
  8
0
100
AcDbCircle
 10
240.0000000000014
 20
-149.729951874799
 30
0.0
 40
2.0
  0
LINE
  5
1122
102
{ACAD_REACTORS
330
11CA
102
}
330
23
100
AcDbEntity
  8
0
100
AcDbLine
 10
292.1757683539671
 20
44.34260997943115
 30
0.0
 11
289.5716914500796
 21
44.81004212862952
 31
0.0
  0
LINE
  5
1123
102
{ACAD_REACTORS
330
11CA
102
}
330
23
100
AcDbEntity
  8
0
100
AcDbLine
 10
291.1074459766226
 20
45.8783645059741
 30
0.0
 11
290.6400138274241
 21
43.2742876020866
 31
0.0
  0
CIRCLE
  5
1124
102
{ACAD_REACTORS
330
11CA
102
}
330
23
100
AcDbEntity
  8
0
100
AcDbCircle
 10
290.8737299020233
 20
44.57632605403035
 30
0.0
 40
0.7639434064771138
  0
LINE
  5
1125
102
{ACAD_REACTORS
330
11CB
102
}
330
23
100
AcDbEntity
  8
0
100
AcDbLine
 10
299.0095278365642
 20
42.4885371242223
 30
0.0
 11
296.5106339387838
 21
43.35758178538811
 31
0.0
  0
LINE
  5
1126
102
{ACAD_REACTORS
330
11CB
102
}
330
23
100
AcDbEntity
  8
0
100
AcDbLine
 10
298.1946032182569
 20
44.17250640369537
 30
0.0
 11
297.3255585570911
 21
41.67361250591507
 31
0.0
  0
CIRCLE
  5
1127
102
{ACAD_REACTORS
330
11CB
102
}
330
23
100
AcDbEntity
  8
0
100
AcDbCircle
 10
297.760080887674
 20
42.92305945480521
 30
0.0
 40
0.7639434064771138
  0
LINE
  5
1128
102
{ACAD_REACTORS
330
11CC
102
}
330
23
100
AcDbEntity
  8
0
100
AcDbLine
 10
305.4691115047065
 20
39.58825547364491
 30
0.0
 11
303.13693167415
 21
40.83751388302639
 31
0.0
  0
LINE
  5
1129
102
{ACAD_REACTORS
330
11CC
102
}
330
23
100
AcDbEntity
  8
0
100
AcDbLine
 10
304.927650794119
 20
41.37897459361385
 30
0.0
 11
303.6783923847376
 21
39.04679476305745
 31
0.0
  0
CIRCLE
  5
112A
102
{ACAD_REACTORS
330
11CC
102
}
330
23
100
AcDbEntity
  8
0
100
AcDbCircle
 10
304.3030215894284
 20
40.21288467833564
 30
0.0
 40
0.7639434064771138
  0
LINE
  5
112B
102
{ACAD_REACTORS
330
11CD
102
}
330
23
100
AcDbEntity
  8
0
100
AcDbLine
 10
311.3954629703554
 20
35.71317958741911
 30
0.0
 11
309.2874232145123
 21
37.31189085692636
 31
0.0
  0
LINE
  5
112C
102
{ACAD_REACTORS
330
11CD
102
}
330
23
100
AcDbEntity
  8
0
100
AcDbLine
 10
311.1407987271875
 20
37.5665551000943
 30
0.0
 11
309.5420874576802
 21
35.45851534425118
 31
0.0
  0
CIRCLE
  5
112D
102
{ACAD_REACTORS
330
11CD
102
}
330
23
100
AcDbEntity
  8
0
100
AcDbCircle
 10
310.3414430924338
 20
36.51253522217274
 30
0.0
 40
0.7639434064771138
  0
LINE
  5
112E
102
{ACAD_REACTORS
330
11CE
102
}
330
23
100
AcDbEntity
  8
0
100
AcDbLine
 10
316.6426557919937
 20
30.95872669450336
 30
0.0
 11
314.8106630458356
 21
32.86752524686256
 31
0.0
  0
LINE
  5
112F
102
{ACAD_REACTORS
330
11CE
102
}
330
23
100
AcDbEntity
  8
0
100
AcDbLine
 10
316.6810586950943
 20
32.82912234376201
 30
0.0
 11
314.772260142735
 21
30.9971295976039
 31
0.0
  0
CIRCLE
  5
1130
102
{ACAD_REACTORS
330
11CE
102
}
330
23
100
AcDbEntity
  8
0
100
AcDbCircle
 10
315.7266594189146
 20
31.91312597068296
 30
0.0
 40
0.7639434064771138
  0
LINE
  5
1131
102
{ACAD_REACTORS
330
11CF
102
}
330
23
100
AcDbEntity
  8
0
100
AcDbLine
 10
321.0814866679181
 20
25.44196720424571
 30
0.0
 11
319.5706506728907
 21
27.61385208415862
 31
0.0
  0
LINE
  5
1132
102
{ACAD_REACTORS
330
11CF
102
}
330
23
100
AcDbEntity
  8
0
100
AcDbLine
 10
321.4120111103609
 20
27.28332764171586
 30
0.0
 11
319.240126230448
 21
25.77249164668851
 31
0.0
  0
CIRCLE
  5
1133
102
{ACAD_REACTORS
330
11CF
102
}
330
23
100
AcDbEntity
  8
0
100
AcDbCircle
 10
320.3260686704044
 20
26.52790964420218
 30
0.0
 40
0.7639434064771138
  0
LINE
  5
1134
102
{ACAD_REACTORS
330
11D0
102
}
330
23
100
AcDbEntity
  8
0
100
AcDbLine
 10
324.6026568503283
 20
19.29874204437141
 30
0.0
 11
323.4501794028064
 21
21.68023423802188
 31
0.0
  0
LINE
  5
1135
102
{ACAD_REACTORS
330
11D0
102
}
330
23
100
AcDbEntity
  8
0
100
AcDbLine
 10
325.2171642233926
 20
21.06572686495756
 30
0.0
 11
322.8356720297421
 21
19.9132494174357
 31
0.0
  0
CIRCLE
  5
1136
102
{ACAD_REACTORS
330
11D0
102
}
330
23
100
AcDbEntity
  8
0
100
AcDbCircle
 10
324.0264181265674
 20
20.48948814119662
 30
0.0
 40
0.7639434064771138
  0
LINE
  5
1137
102
{ACAD_REACTORS
330
11D1
102
}
330
23
100
AcDbEntity
  8
0
100
AcDbLine
 10
327.1194634432394
 20
12.68031780651188
 30
0.0
 11
326.3537223628345
 21
15.2127770723728
 31
0.0
  0
LINE
  5
1138
102
{ACAD_REACTORS
330
11D1
102
}
330
23
100
AcDbEntity
  8
0
100
AcDbLine
 10
328.0028225359674
 20
14.3294179796448
 30
0.0
 11
325.4703632701065
 21
13.56367689923985
 31
0.0
  0
CIRCLE
  5
1139
102
{ACAD_REACTORS
330
11D1
102
}
330
23
100
AcDbEntity
  8
0
100
AcDbCircle
 10
326.7365929030369
 20
13.94654743944234
 30
0.0
 40
0.7639434064771138
  0
LINE
  5
113A
102
{ACAD_REACTORS
330
11D2
102
}
330
23
100
AcDbEntity
  8
0
100
AcDbLine
 10
328.5699343155319
 20
5.749662060693992
 30
0.0
 11
328.2097846889923
 21
8.370730846889415
 31
0.0
  0
LINE
  5
113B
102
{ACAD_REACTORS
330
11D2
102
}
330
23
100
AcDbEntity
  8
0
100
AcDbLine
 10
329.7003938953598
 20
7.240271267061473
 30
0.0
 11
327.0793251091644
 21
6.880121640521906
 31
0.0
  0
CIRCLE
  5
113C
102
{ACAD_REACTORS
330
11D2
102
}
330
23
100
AcDbEntity
  8
0
100
AcDbCircle
 10
328.3898595022621
 20
7.060196453791689
 30
0.0
 40
0.7639434064771138
  0
LINE
  5
113D
102
{ACAD_REACTORS
330
11D3
102
}
330
23
100
AcDbEntity
  8
0
100
AcDbLine
 10
328.9183540604929
 20
-1.322569447092575
 30
0.0
 11
328.9726639668923
 21
1.322569447092661
 31
0.0
  0
LINE
  5
113E
102
{ACAD_REACTORS
330
11D3
102
}
330
23
100
AcDbEntity
  8
0
100
AcDbLine
 10
330.2680784607852
 20
-0.0271549531996129
 30
0.0
 11
327.6229395665999
 21
0.0271549531996982
 31
0.0
  0
CIRCLE
  5
113F
102
{ACAD_REACTORS
330
11D3
102
}
330
23
100
AcDbEntity
  8
0
100
AcDbCircle
 10
328.9455090136925
 20
0.0000000000000213
 30
0.0
 40
0.7639434064771138
  0
LINE
  5
1140
102
{ACAD_REACTORS
330
11D4
102
}
330
23
100
AcDbEntity
  8
0
100
AcDbLine
 10
328.1561434276629
 20
-8.362234905735363
 30
0.0
 11
328.6235755768613
 21
-5.758158001847846
 31
0.0
  0
LINE
  5
1141
102
{ACAD_REACTORS
330
11D4
102
}
330
23
100
AcDbEntity
  8
0
100
AcDbLine
 10
329.6918979542058
 20
-7.293912528390791
 30
0.0
 11
327.0878210503183
 21
-6.826480379192418
 31
0.0
  0
CIRCLE
  5
1142
102
{ACAD_REACTORS
330
11D4
102
}
330
23
100
AcDbEntity
  8
0
100
AcDbCircle
 10
328.3898595022621
 20
-7.060196453791606
 30
0.0
 40
0.7639434064771138
  0
LINE
  5
1143
102
{ACAD_REACTORS
330
11D5
102
}
330
23
100
AcDbEntity
  8
0
100
AcDbLine
 10
326.302070572454
 20
-15.19599438833242
 30
0.0
 11
327.1711152336199
 21
-12.69710049055209
 31
0.0
  0
LINE
  5
1144
102
{ACAD_REACTORS
330
11D5
102
}
330
23
100
AcDbEntity
  8
0
100
AcDbLine
 10
327.9860398519271
 20
-14.38106977002516
 30
0.0
 11
325.4871459541468
 21
-13.51202510885935
 31
0.0
  0
CIRCLE
  5
1145
102
{ACAD_REACTORS
330
11D5
102
}
330
23
100
AcDbEntity
  8
0
100
AcDbCircle
 10
326.7365929030369
 20
-13.94654743944225
 30
0.0
 40
0.7639434064771138
  0
LINE
  5
1146
102
{ACAD_REACTORS
330
11D6
102
}
330
23
100
AcDbEntity
  8
0
100
AcDbLine
 10
323.4017889218767
 20
-21.65557805647475
 30
0.0
 11
324.6510473312582
 21
-19.32339822591831
 31
0.0
  0
LINE
  5
1147
102
{ACAD_REACTORS
330
11D6
102
}
330
23
100
AcDbEntity
  8
0
100
AcDbLine
 10
325.1925080418456
 20
-21.11411734588731
 30
0.0
 11
322.8603282112893
 21
-19.86485893650578
 31
0.0
  0
CIRCLE
  5
1148
102
{ACAD_REACTORS
330
11D6
102
}
330
23
100
AcDbEntity
  8
0
100
AcDbCircle
 10
324.0264181265674
 20
-20.48948814119652
 30
0.0
 40
0.7639434064771138
  0
LINE
  5
1149
102
{ACAD_REACTORS
330
11D7
102
}
330
23
100
AcDbEntity
  8
0
100
AcDbLine
 10
319.5267130356508
 20
-27.58192952212366
 30
0.0
 11
321.1254243051581
 21
-25.47388976628054
 31
0.0
  0
LINE
  5
114A
102
{ACAD_REACTORS
330
11D7
102
}
330
23
100
AcDbEntity
  8
0
100
AcDbLine
 10
321.380088548326
 20
-27.32726527895571
 30
0.0
 11
319.2720487924829
 21
-25.72855400944846
 31
0.0
  0
CIRCLE
  5
114B
102
{ACAD_REACTORS
330
11D7
102
}
330
23
100
AcDbEntity
  8
0
100
AcDbCircle
 10
320.3260686704045
 20
-26.5279096442021
 30
0.0
 40
0.7639434064771138
  0
LINE
  5
114C
102
{ACAD_REACTORS
330
11D8
102
}
330
23
100
AcDbEntity
  8
0
100
AcDbLine
 10
314.7722601427351
 20
-32.82912234376195
 30
0.0
 11
316.6810586950943
 21
-30.99712959760385
 31
0.0
  0
LINE
  5
114D
102
{ACAD_REACTORS
330
11D8
102
}
330
23
100
AcDbEntity
  8
0
100
AcDbLine
 10
316.6426557919938
 20
-32.8675252468625
 30
0.0
 11
314.8106630458357
 21
-30.9587266945033
 31
0.0
  0
CIRCLE
  5
114E
102
{ACAD_REACTORS
330
11D8
102
}
330
23
100
AcDbEntity
  8
0
100
AcDbCircle
 10
315.7266594189147
 20
-31.91312597068292
 30
0.0
 40
0.7639434064771138
  0
LINE
  5
114F
102
{ACAD_REACTORS
330
11D9
102
}
330
23
100
AcDbEntity
  8
0
100
AcDbLine
 10
309.2555006524775
 20
-37.26795321968635
 30
0.0
 11
311.4273855323904
 21
-35.75711722465897
 31
0.0
  0
LINE
  5
1150
102
{ACAD_REACTORS
330
11D9
102
}
330
23
100
AcDbEntity
  8
0
100
AcDbLine
 10
311.0968610899476
 20
-37.59847766212911
 30
0.0
 11
309.5860250949203
 21
-35.42659278221623
 31
0.0
  0
CIRCLE
  5
1151
102
{ACAD_REACTORS
330
11D9
102
}
330
23
100
AcDbEntity
  8
0
100
AcDbCircle
 10
310.341443092434
 20
-36.5125352221727
 30
0.0
 40
0.7639434064771138
  0
LINE
  5
1152
102
{ACAD_REACTORS
330
11DA
102
}
330
23
100
AcDbEntity
  8
0
100
AcDbLine
 10
303.1122754926032
 20
-40.78912340209652
 30
0.0
 11
305.4937676862536
 21
-39.63664595457469
 31
0.0
  0
LINE
  5
1153
102
{ACAD_REACTORS
330
11DA
102
}
330
23
100
AcDbEntity
  8
0
100
AcDbLine
 10
304.8792603131893
 20
-41.40363077516084
 30
0.0
 11
303.7267828656675
 21
-39.02213858151039
 31
0.0
  0
CIRCLE
  5
1154
102
{ACAD_REACTORS
330
11DA
102
}
330
23
100
AcDbEntity
  8
0
100
AcDbCircle
 10
304.3030215894284
 20
-40.21288467833558
 30
0.0
 40
0.7639434064771138
  0
LINE
  5
1155
102
{ACAD_REACTORS
330
11DB
102
}
330
23
100
AcDbEntity
  8
0
100
AcDbLine
 10
296.4938512547436
 20
-43.30592999500765
 30
0.0
 11
299.0263105206045
 21
-42.54018891460269
 31
0.0
  0
LINE
  5
1156
102
{ACAD_REACTORS
330
11DB
102
}
330
23
100
AcDbEntity
  8
0
100
AcDbLine
 10
298.1429514278766
 20
-44.18928908773565
 30
0.0
 11
297.3772103474716
 21
-41.65682982187473
 31
0.0
  0
CIRCLE
  5
1157
102
{ACAD_REACTORS
330
11DB
102
}
330
23
100
AcDbEntity
  8
0
100
AcDbCircle
 10
297.760080887674
 20
-42.92305945480516
 30
0.0
 40
0.7639434064771138
  0
LINE
  5
1158
102
{ACAD_REACTORS
330
11DC
102
}
330
23
100
AcDbEntity
  8
0
100
AcDbLine
 10
289.5631955089257
 20
-44.75640086730012
 30
0.0
 11
292.1842642951212
 21
-44.39625124076052
 31
0.0
  0
LINE
  5
1159
102
{ACAD_REACTORS
330
11DC
102
}
330
23
100
AcDbEntity
  8
0
100
AcDbLine
 10
291.0538047152932
 20
-45.88686044712805
 30
0.0
 11
290.6936550887536
 21
-43.26579166093263
 31
0.0
  0
CIRCLE
  5
115A
102
{ACAD_REACTORS
330
11DC
102
}
330
23
100
AcDbEntity
  8
0
100
AcDbCircle
 10
290.8737299020235
 20
-44.57632605403035
 30
0.0
 40
0.7639434064771138
  0
LINE
  5
115B
102
{ACAD_REACTORS
330
11DD
102
}
330
23
100
AcDbEntity
  8
0
100
AcDbLine
 10
282.4909640011392
 20
-45.10482061226122
 30
0.0
 11
285.1361028953244
 21
-45.1591305186605
 31
0.0
  0
LINE
  5
115C
102
{ACAD_REACTORS
330
11DD
102
}
330
23
100
AcDbEntity
  8
0
100
AcDbLine
 10
283.7863784950322
 20
-46.45454501255348
 30
0.0
 11
283.8406884014315
 21
-43.80940611836826
 31
0.0
  0
CIRCLE
  5
115D
102
{ACAD_REACTORS
330
11DD
102
}
330
23
100
AcDbEntity
  8
0
100
AcDbCircle
 10
283.8135334482318
 20
-45.13197556546088
 30
0.0
 40
0.7639434064771138
  0
LINE
  5
115E
102
{ACAD_REACTORS
330
11DE
102
}
330
23
100
AcDbEntity
  8
0
100
AcDbLine
 10
285.1361028953243
 20
45.10482061226121
 30
0.0
 11
282.490964001139
 21
45.15913051866049
 31
0.0
  0
LINE
  5
115F
102
{ACAD_REACTORS
330
11DE
102
}
330
23
100
AcDbEntity
  8
0
100
AcDbLine
 10
283.8406884014313
 20
46.45454501255348
 30
0.0
 11
283.786378495032
 21
43.80940611836826
 31
0.0
  0
CIRCLE
  5
1160
102
{ACAD_REACTORS
330
11DE
102
}
330
23
100
AcDbEntity
  8
0
100
AcDbCircle
 10
283.8135334482316
 20
45.13197556546086
 30
0.0
 40
0.7639434064771138
  0
LINE
  5
1161
102
{ACAD_REACTORS
330
11DF
102
}
330
23
100
AcDbEntity
  8
0
100
AcDbLine
 10
295.1361028953231
 20
29.7027969216004
 30
0.0
 11
292.4909640011378
 21
29.75710682799968
 31
0.0
  0
LINE
  5
1162
102
{ACAD_REACTORS
330
11DF
102
}
330
23
100
AcDbEntity
  8
0
100
AcDbLine
 10
293.8406884014302
 20
31.05252132189266
 30
0.0
 11
293.7863784950308
 21
28.40738242770744
 31
0.0
  0
CIRCLE
  5
1163
102
{ACAD_REACTORS
330
11DF
102
}
330
23
100
AcDbEntity
  8
0
100
AcDbCircle
 10
293.8135334482305
 20
29.72995187480004
 30
0.0
 40
0.7639434064771138
  0
LINE
  5
1164
102
{ACAD_REACTORS
330
11E0
102
}
330
23
100
AcDbEntity
  8
0
100
AcDbLine
 10
295.1361028953231
 20
-29.75710682799967
 30
0.0
 11
292.4909640011378
 21
-29.70279692160039
 31
0.0
  0
LINE
  5
1165
102
{ACAD_REACTORS
330
11E0
102
}
330
23
100
AcDbEntity
  8
0
100
AcDbLine
 10
293.8406884014302
 20
-28.4073824277074
 30
0.0
 11
293.7863784950308
 21
-31.05252132189263
 31
0.0
  0
CIRCLE
  5
1166
102
{ACAD_REACTORS
330
11E0
102
}
330
23
100
AcDbEntity
  8
0
100
AcDbCircle
 10
293.8135334482305
 20
-29.72995187480002
 30
0.0
 40
0.7639434064771138
  0
LINE
  5
1167
102
{ACAD_REACTORS
330
11E1
102
}
330
23
100
AcDbEntity
  8
0
100
AcDbLine
 10
241.322569447094
 20
-90.29720307839857
 30
0.0
 11
238.6774305529088
 21
-90.24289317199929
 31
0.0
  0
LINE
  5
1168
102
{ACAD_REACTORS
330
11E1
102
}
330
23
100
AcDbEntity
  8
0
100
AcDbLine
 10
240.0271549532011
 20
-88.94747867810631
 30
0.0
 11
239.9728450468018
 21
-91.59261757229154
 31
0.0
  0
CIRCLE
  5
1169
102
{ACAD_REACTORS
330
11E1
102
}
330
23
100
AcDbEntity
  8
0
100
AcDbCircle
 10
240.0000000000014
 20
-90.27004812519894
 30
0.0
 40
0.7639434064771138
  0
LINE
  5
116A
102
{ACAD_REACTORS
330
11E2
102
}
330
23
100
AcDbEntity
  8
0
100
AcDbLine
 10
241.322569447094
 20
-149.7571068279986
 30
0.0
 11
238.6774305529088
 21
-149.7027969215993
 31
0.0
  0
LINE
  5
116B
102
{ACAD_REACTORS
330
11E2
102
}
330
23
100
AcDbEntity
  8
0
100
AcDbLine
 10
240.0271549532011
 20
-148.4073824277064
 30
0.0
 11
239.9728450468018
 21
-151.0525213218916
 31
0.0
  0
CIRCLE
  5
116C
102
{ACAD_REACTORS
330
11E2
102
}
330
23
100
AcDbEntity
  8
0
100
AcDbCircle
 10
240.0000000000014
 20
-149.729951874799
 30
0.0
 40
0.7639434064771138
  0
LINE
  5
116D
102
{ACAD_REACTORS
330
11E3
102
}
330
23
100
AcDbEntity
  8
0
100
AcDbLine
 10
250.9522500019085
 20
-74.28544456416858
 30
0.0
 11
249.0477499980951
 21
-74.24634143156112
 31
0.0
  0
LINE
  5
116E
102
{ACAD_REACTORS
330
11E3
102
}
330
23
100
AcDbEntity
  8
0
100
AcDbLine
 10
250.0195515663055
 20
-73.31364299595816
 30
0.0
 11
249.980448433698
 21
-75.21814299977151
 31
0.0
  0
CIRCLE
  5
116F
102
{ACAD_REACTORS
330
11E3
102
}
330
23
100
AcDbEntity
  8
0
100
AcDbCircle
 10
250.0000000000018
 20
-74.26589299786485
 30
0.0
 40
0.5500392526635221
  0
LINE
  5
1170
102
{ACAD_REACTORS
330
11E4
102
}
330
23
100
AcDbEntity
  8
0
100
AcDbLine
 10
249.0477499980952
 20
-165.7145554358314
 30
0.0
 11
250.9522500019086
 21
-165.7536585684389
 31
0.0
  0
LINE
  5
1171
102
{ACAD_REACTORS
330
11E4
102
}
330
23
100
AcDbEntity
  8
0
100
AcDbLine
 10
249.9804484336982
 20
-166.6863570040418
 30
0.0
 11
250.0195515663057
 21
-164.7818570002284
 31
0.0
  0
CIRCLE
  5
1172
102
{ACAD_REACTORS
330
11E4
102
}
330
23
100
AcDbEntity
  8
0
100
AcDbCircle
 10
250.0000000000019
 20
-165.7341070021351
 30
0.0
 40
0.5500392526635221
  0
LINE
  5
1173
102
{ACAD_REACTORS
330
11E5
102
}
330
23
100
AcDbEntity
  8
0
100
AcDbLine
 10
244.2744942945698
 20
-165.3645890886151
 30
0.0
 11
246.1644738577307
 21
-165.6025524688626
 31
0.0
  0
LINE
  5
1174
102
{ACAD_REACTORS
330
11E5
102
}
330
23
100
AcDbEntity
  8
0
100
AcDbLine
 10
245.1005023860265
 20
-166.4285605603193
 30
0.0
 11
245.338465766274
 21
-164.5385809971584
 31
0.0
  0
CIRCLE
  5
1175
102
{ACAD_REACTORS
330
11E5
102
}
330
23
100
AcDbEntity
  8
0
100
AcDbCircle
 10
245.2194840761503
 20
-165.4835707787388
 30
0.0
 40
0.5500392526635221
  0
LINE
  5
1176
102
{ACAD_REACTORS
330
11E6
102
}
330
23
100
AcDbEntity
  8
0
100
AcDbLine
 10
239.5639684296921
 20
-164.5175988101934
 30
0.0
 11
241.418720540603
 21
-164.9518152614898
 31
0.0
  0
LINE
  5
1177
102
{ACAD_REACTORS
330
11E6
102
}
330
23
100
AcDbEntity
  8
0
100
AcDbLine
 10
240.2742362594993
 20
-165.662083091297
 30
0.0
 11
240.7084527107958
 21
-163.8073309803862
 31
0.0
  0
CIRCLE
  5
1178
102
{ACAD_REACTORS
330
11E6
102
}
330
23
100
AcDbEntity
  8
0
100
AcDbCircle
 10
240.4913444851477
 20
-164.7347070358416
 30
0.0
 40
0.5500392526635221
  0
LINE
  5
1179
102
{ACAD_REACTORS
330
11E7
102
}
330
23
100
AcDbEntity
  8
0
100
AcDbLine
 10
234.9677819105789
 20
-163.1828644033007
 30
0.0
 11
236.7669855169808
 21
-163.8085765593402
 31
0.0
  0
LINE
  5
117A
102
{ACAD_REACTORS
330
11E7
102
}
330
23
100
AcDbEntity
  8
0
100
AcDbLine
 10
235.5545276357602
 20
-164.3953222845214
 30
0.0
 11
236.1802397917996
 21
-162.5961186781195
 31
0.0
  0
CIRCLE
  5
117B
102
{ACAD_REACTORS
330
11E7
102
}
330
23
100
AcDbEntity
  8
0
100
AcDbCircle
 10
235.8673837137799
 20
-163.4957204813204
 30
0.0
 40
0.5500392526635221
  0
LINE
  5
117C
102
{ACAD_REACTORS
330
11E8
102
}
330
23
100
AcDbEntity
  8
0
100
AcDbLine
 10
230.5362915185473
 20
-161.3750094974102
 30
0.0
 11
232.2602341692208
 21
-162.1853619248722
 31
0.0
  0
LINE
  5
117D
102
{ACAD_REACTORS
330
11E8
102
}
330
23
100
AcDbEntity
  8
0
100
AcDbLine
 10
230.993086630153
 20
-162.642157036478
 30
0.0
 11
231.8034390576151
 21
-160.9182143858045
 31
0.0
  0
CIRCLE
  5
117E
102
{ACAD_REACTORS
330
11E8
102
}
330
23
100
AcDbEntity
  8
0
100
AcDbCircle
 10
231.398262843884
 20
-161.7801857111411
 30
0.0
 40
0.5500392526635221
  0
LINE
  5
117F
102
{ACAD_REACTORS
330
11E9
102
}
330
23
100
AcDbEntity
  8
0
100
AcDbLine
 10
226.3180495896811
 20
-159.1138413291886
 30
0.0
 11
227.9478434081874
 21
-160.0999556373009
 31
0.0
  0
LINE
  5
1180
102
{ACAD_REACTORS
330
11E9
102
}
330
23
100
AcDbEntity
  8
0
100
AcDbLine
 10
226.6398893448781
 20
-160.4217953924979
 30
0.0
 11
227.6260036529905
 21
-158.7920015739918
 31
0.0
  0
CIRCLE
  5
1181
102
{ACAD_REACTORS
330
11E9
102
}
330
23
100
AcDbEntity
  8
0
100
AcDbCircle
 10
227.1329464989342
 20
-159.6068984832448
 30
0.0
 40
0.5500392526635221
  0
LINE
  5
1182
102
{ACAD_REACTORS
330
11EA
102
}
330
23
100
AcDbEntity
  8
0
100
AcDbLine
 10
222.3592720652774
 20
-156.424133730267
 30
0.0
 11
223.8770606894844
 21
-157.5752058443122
 31
0.0
  0
LINE
  5
1183
102
{ACAD_REACTORS
330
11EA
102
}
330
23
100
AcDbEntity
  8
0
100
AcDbLine
 10
222.5426303203583
 20
-157.7585640993931
 30
0.0
 11
223.6937024344036
 21
-156.240775475186
 31
0.0
  0
CIRCLE
  5
1184
102
{ACAD_REACTORS
330
11EA
102
}
330
23
100
AcDbEntity
  8
0
100
AcDbCircle
 10
223.1181663773809
 20
-156.9996697872896
 30
0.0
 40
0.5500392526635221
  0
LINE
  5
1185
102
{ACAD_REACTORS
330
11EB
102
}
330
23
100
AcDbEntity
  8
0
100
AcDbLine
 10
218.7033321403205
 20
-153.3353556999565
 30
0.0
 11
220.092486360444
 21
-154.6387742329758
 31
0.0
  0
LINE
  5
1186
102
{ACAD_REACTORS
330
11EB
102
}
330
23
100
AcDbEntity
  8
0
100
AcDbLine
 10
218.7461999838726
 20
-154.6816420765279
 30
0.0
 11
220.0496185168919
 21
-153.2924878564045
 31
0.0
  0
CIRCLE
  5
1187
102
{ACAD_REACTORS
330
11EB
102
}
330
23
100
AcDbEntity
  8
0
100
AcDbCircle
 10
219.3979092503822
 20
-153.9870649664662
 30
0.0
 40
0.5500392526635221
  0
LINE
  5
1188
102
{ACAD_REACTORS
330
11EC
102
}
330
23
100
AcDbEntity
  8
0
100
AcDbLine
 10
215.3902850576832
 20
-149.8813485367257
 30
0.0
 11
216.6355850093881
 21
-151.3228329625134
 31
0.0
  0
LINE
  5
1189
102
{ACAD_REACTORS
330
11EC
102
}
330
23
100
AcDbEntity
  8
0
100
AcDbLine
 10
215.2921928206418
 20
-151.224740725472
 30
0.0
 11
216.7336772464295
 21
-149.9794407737672
 31
0.0
  0
CIRCLE
  5
118A
102
{ACAD_REACTORS
330
11EC
102
}
330
23
100
AcDbEntity
  8
0
100
AcDbCircle
 10
216.0129350335356
 20
-150.6020907496196
 30
0.0
 40
0.5500392526635221
  0
LINE
  5
118B
102
{ACAD_REACTORS
330
11ED
102
}
330
23
100
AcDbEntity
  8
0
100
AcDbLine
 10
212.4564292545024
 20
-146.0999550658522
 30
0.0
 11
213.5442311709222
 21
-147.6637121793895
 31
0.0
  0
LINE
  5
118C
102
{ACAD_REACTORS
330
11ED
102
}
330
23
100
AcDbEntity
  8
0
100
AcDbLine
 10
212.2184516559437
 20
-147.4257345808308
 30
0.0
 11
213.782208769481
 21
-146.3379326644111
 31
0.0
  0
CIRCLE
  5
118D
102
{ACAD_REACTORS
330
11ED
102
}
330
23
100
AcDbEntity
  8
0
100
AcDbCircle
 10
213.0003302127122
 20
-146.881833622621
 30
0.0
 40
0.5500392526635221
  0
LINE
  5
118E
102
{ACAD_REACTORS
330
11EE
102
}
330
23
100
AcDbEntity
  8
0
100
AcDbLine
 10
209.9339086689066
 20
-142.0326050255107
 30
0.0
 11
210.8522943646076
 21
-143.7015019766244
 31
0.0
  0
LINE
  5
118F
102
{ACAD_REACTORS
330
11EE
102
}
330
23
100
AcDbEntity
  8
0
100
AcDbLine
 10
209.5586530412003
 20
-143.326246348918
 30
0.0
 11
211.2275499923139
 21
-142.407860653217
 31
0.0
  0
CIRCLE
  5
1190
102
{ACAD_REACTORS
330
11EE
102
}
330
23
100
AcDbEntity
  8
0
100
AcDbCircle
 10
210.3931015167571
 20
-142.8670535010676
 30
0.0
 40
0.5500392526635221
  0
LINE
  5
1191
102
{ACAD_REACTORS
330
11EF
102
}
330
23
100
AcDbEntity
  8
0
100
AcDbLine
 10
207.8503605643028
 20
-137.7238611538906
 30
0.0
 11
208.5892680134186
 21
-139.4796131583451
 31
0.0
  0
LINE
  5
1192
102
{ACAD_REACTORS
330
11EF
102
}
330
23
100
AcDbEntity
  8
0
100
AcDbLine
 10
207.3419382866334
 20
-138.9711908806757
 30
0.0
 11
209.0976902910879
 21
-138.23228343156
 31
0.0
  0
CIRCLE
  5
1193
102
{ACAD_REACTORS
330
11EF
102
}
330
23
100
AcDbEntity
  8
0
100
AcDbCircle
 10
208.2198142888607
 20
-138.6017371561179
 30
0.0
 40
0.5500392526635221
  0
LINE
  5
1194
102
{ACAD_REACTORS
330
11F0
102
}
330
23
100
AcDbEntity
  8
0
100
AcDbLine
 10
206.2286127297357
 20
-133.2209309505121
 30
0.0
 11
206.7799463076272
 21
-135.044301621932
 31
0.0
  0
LINE
  5
1195
102
{ACAD_REACTORS
330
11F0
102
}
330
23
100
AcDbEntity
  8
0
100
AcDbLine
 10
205.5925941829715
 20
-134.4082830751678
 30
0.0
 11
207.4159648543914
 21
-133.8569494972762
 31
0.0
  0
CIRCLE
  5
1196
102
{ACAD_REACTORS
330
11F0
102
}
330
23
100
AcDbEntity
  8
0
100
AcDbCircle
 10
206.5042795186814
 20
-134.1326162862221
 30
0.0
 40
0.5500392526635221
  0
LINE
  5
1197
102
{ACAD_REACTORS
330
11F1
102
}
330
23
100
AcDbEntity
  8
0
100
AcDbLine
 10
205.0864333738532
 20
-128.5731494609821
 30
0.0
 11
205.4441525544673
 21
-130.4441615687264
 31
0.0
  0
LINE
  5
1198
102
{ACAD_REACTORS
330
11F1
102
}
330
23
100
AcDbEntity
  8
0
100
AcDbLine
 10
204.3297869102881
 20
-129.6875151051613
 30
0.0
 11
206.2007990180323
 21
-129.3297959245473
 31
0.0
  0
CIRCLE
  5
1199
102
{ACAD_REACTORS
330
11F1
102
}
330
23
100
AcDbEntity
  8
0
100
AcDbCircle
 10
205.2652929641602
 20
-129.5086555148543
 30
0.0
 40
0.5500392526635221
  0
LINE
  5
119A
102
{ACAD_REACTORS
330
11F2
102
}
330
23
100
AcDbEntity
  8
0
100
AcDbLine
 10
204.4363364526949
 20
-123.8314387519108
 30
0.0
 11
204.5965219898311
 21
-125.7295930957925
 31
0.0
  0
LINE
  5
119B
102
{ACAD_REACTORS
330
11F2
102
}
330
23
100
AcDbEntity
  8
0
100
AcDbLine
 10
203.5673520493221
 20
-124.8606086924198
 30
0.0
 11
205.4655063932038
 21
-124.7004231552836
 31
0.0
  0
CIRCLE
  5
119C
102
{ACAD_REACTORS
330
11F2
102
}
330
23
100
AcDbEntity
  8
0
100
AcDbCircle
 10
204.5164292212629
 20
-124.7805159238517
 30
0.0
 40
0.5500392526635221
  0
LINE
  5
119D
102
{ACAD_REACTORS
330
11F3
102
}
330
23
100
AcDbEntity
  8
0
100
AcDbLine
 10
204.2854445641705
 20
-119.0477499980933
 30
0.0
 11
204.246341431563
 21
-120.9522500019067
 31
0.0
  0
LINE
  5
119E
102
{ACAD_REACTORS
330
11F3
102
}
330
23
100
AcDbEntity
  8
0
100
AcDbLine
 10
203.31364299596
 20
-119.9804484336963
 30
0.0
 11
205.2181429997734
 21
-120.0195515663038
 31
0.0
  0
CIRCLE
  5
119F
102
{ACAD_REACTORS
330
11F3
102
}
330
23
100
AcDbEntity
  8
0
100
AcDbCircle
 10
204.2658929978667
 20
-120.0
 30
0.0
 40
0.5500392526635221
  0
LINE
  5
11A0
102
{ACAD_REACTORS
330
11F4
102
}
330
23
100
AcDbEntity
  8
0
100
AcDbLine
 10
204.6354109113868
 20
-114.274494294568
 30
0.0
 11
204.3974475311393
 21
-116.1644738577289
 31
0.0
  0
LINE
  5
11A1
102
{ACAD_REACTORS
330
11F4
102
}
330
23
100
AcDbEntity
  8
0
100
AcDbLine
 10
203.5714394396825
 20
-115.1005023860247
 30
0.0
 11
205.4614190028435
 21
-115.3384657662723
 31
0.0
  0
CIRCLE
  5
11A2
102
{ACAD_REACTORS
330
11F4
102
}
330
23
100
AcDbEntity
  8
0
100
AcDbCircle
 10
204.516429221263
 20
-115.2194840761485
 30
0.0
 40
0.5500392526635221
  0
LINE
  5
11A3
102
{ACAD_REACTORS
330
11F5
102
}
330
23
100
AcDbEntity
  8
0
100
AcDbLine
 10
205.4824011898085
 20
-109.5639684296904
 30
0.0
 11
205.048184738512
 21
-111.4187205406012
 31
0.0
  0
LINE
  5
11A4
102
{ACAD_REACTORS
330
11F5
102
}
330
23
100
AcDbEntity
  8
0
100
AcDbLine
 10
204.3379169087048
 20
-110.2742362594976
 30
0.0
 11
206.1926690196156
 21
-110.7084527107941
 31
0.0
  0
CIRCLE
  5
11A5
102
{ACAD_REACTORS
330
11F5
102
}
330
23
100
AcDbEntity
  8
0
100
AcDbCircle
 10
205.2652929641602
 20
-110.4913444851458
 30
0.0
 40
0.5500392526635221
  0
LINE
  5
11A6
102
{ACAD_REACTORS
330
11F6
102
}
330
23
100
AcDbEntity
  8
0
100
AcDbLine
 10
206.817135596701
 20
-104.9677819105771
 30
0.0
 11
206.1914234406617
 21
-106.766985516979
 31
0.0
  0
LINE
  5
11A7
102
{ACAD_REACTORS
330
11F6
102
}
330
23
100
AcDbEntity
  8
0
100
AcDbLine
 10
205.6046777154805
 20
-105.5545276357583
 30
0.0
 11
207.4038813218823
 21
-106.1802397917977
 31
0.0
  0
CIRCLE
  5
11A8
102
{ACAD_REACTORS
330
11F6
102
}
330
23
100
AcDbEntity
  8
0
100
AcDbCircle
 10
206.5042795186814
 20
-105.867383713778
 30
0.0
 40
0.5500392526635221
  0
LINE
  5
11A9
102
{ACAD_REACTORS
330
11F7
102
}
330
23
100
AcDbEntity
  8
0
100
AcDbLine
 10
208.6249905025916
 20
-100.5362915185454
 30
0.0
 11
207.8146380751296
 21
-102.2602341692189
 31
0.0
  0
LINE
  5
11AA
102
{ACAD_REACTORS
330
11F7
102
}
330
23
100
AcDbEntity
  8
0
100
AcDbLine
 10
207.3578429635238
 20
-100.9930866301512
 30
0.0
 11
209.0817856141973
 21
-101.8034390576133
 31
0.0
  0
CIRCLE
  5
11AB
102
{ACAD_REACTORS
330
11F7
102
}
330
23
100
AcDbEntity
  8
0
100
AcDbCircle
 10
208.2198142888606
 20
-101.3982628438822
 30
0.0
 40
0.5500392526635221
  0
LINE
  5
11AC
102
{ACAD_REACTORS
330
11F8
102
}
330
23
100
AcDbEntity
  8
0
100
AcDbLine
 10
210.8861586708132
 20
-96.31804958967945
 30
0.0
 11
209.9000443627009
 21
-97.94784340818569
 31
0.0
  0
LINE
  5
11AD
102
{ACAD_REACTORS
330
11F8
102
}
330
23
100
AcDbEntity
  8
0
100
AcDbLine
 10
209.5782046075039
 20
-96.6398893448764
 30
0.0
 11
211.20799842601
 21
-97.62600365298874
 31
0.0
  0
CIRCLE
  5
11AE
102
{ACAD_REACTORS
330
11F8
102
}
330
23
100
AcDbEntity
  8
0
100
AcDbCircle
 10
210.393101516757
 20
-97.13294649893255
 30
0.0
 40
0.5500392526635221
  0
LINE
  5
11AF
102
{ACAD_REACTORS
330
11F9
102
}
330
23
100
AcDbEntity
  8
0
100
AcDbLine
 10
213.5758662697348
 20
-92.35927206527561
 30
0.0
 11
212.4247941556896
 21
-93.87706068948267
 31
0.0
  0
LINE
  5
11B0
102
{ACAD_REACTORS
330
11F9
102
}
330
23
100
AcDbEntity
  8
0
100
AcDbLine
 10
212.2414359006086
 20
-92.54263032035652
 30
0.0
 11
213.7592245248157
 21
-93.69370243440176
 31
0.0
  0
CIRCLE
  5
11B1
102
{ACAD_REACTORS
330
11F9
102
}
330
23
100
AcDbEntity
  8
0
100
AcDbCircle
 10
213.0003302127121
 20
-93.1181663773791
 30
0.0
 40
0.5500392526635221
  0
LINE
  5
11B2
102
{ACAD_REACTORS
330
11FA
102
}
330
23
100
AcDbEntity
  8
0
100
AcDbLine
 10
216.6646443000452
 20
-88.70333214031882
 30
0.0
 11
215.3612257670259
 21
-90.09248636044219
 31
0.0
  0
LINE
  5
11B3
102
{ACAD_REACTORS
330
11FA
102
}
330
23
100
AcDbEntity
  8
0
100
AcDbLine
 10
215.3183579234738
 20
-88.74619998387084
 30
0.0
 11
216.7075121435972
 21
-90.04961851689017
 31
0.0
  0
CIRCLE
  5
11B4
102
{ACAD_REACTORS
330
11FA
102
}
330
23
100
AcDbEntity
  8
0
100
AcDbCircle
 10
216.0129350335355
 20
-89.39790925038051
 30
0.0
 40
0.5500392526635221
  0
LINE
  5
11B5
102
{ACAD_REACTORS
330
11FB
102
}
330
23
100
AcDbEntity
  8
0
100
AcDbLine
 10
220.118651463276
 20
-85.39028505768147
 30
0.0
 11
218.6771670374882
 21
-86.63558500938634
 31
0.0
  0
LINE
  5
11B6
102
{ACAD_REACTORS
330
11FB
102
}
330
23
100
AcDbEntity
  8
0
100
AcDbLine
 10
218.7752592745297
 20
-85.29219282064003
 30
0.0
 11
220.0205592262345
 21
-86.73367724642785
 31
0.0
  0
CIRCLE
  5
11B7
102
{ACAD_REACTORS
330
11FB
102
}
330
23
100
AcDbEntity
  8
0
100
AcDbCircle
 10
219.3979092503821
 20
-86.01293503353394
 30
0.0
 40
0.5500392526635221
  0
LINE
  5
11B8
102
{ACAD_REACTORS
330
11FC
102
}
330
23
100
AcDbEntity
  8
0
100
AcDbLine
 10
223.9000449341495
 20
-82.45642925450065
 30
0.0
 11
222.3362878206121
 21
-83.54423117092037
 31
0.0
  0
LINE
  5
11B9
102
{ACAD_REACTORS
330
11FC
102
}
330
23
100
AcDbEntity
  8
0
100
AcDbLine
 10
222.5742654191709
 20
-82.21845165594183
 30
0.0
 11
223.6620673355905
 21
-83.78220876947915
 31
0.0
  0
CIRCLE
  5
11BA
102
{ACAD_REACTORS
330
11FC
102
}
330
23
100
AcDbEntity
  8
0
100
AcDbCircle
 10
223.1181663773808
 20
-83.00033021271048
 30
0.0
 40
0.5500392526635221
  0
LINE
  5
11BB
102
{ACAD_REACTORS
330
11FD
102
}
330
23
100
AcDbEntity
  8
0
100
AcDbLine
 10
227.967394974491
 20
-79.93390866890476
 30
0.0
 11
226.2984980233773
 21
-80.85229436460585
 31
0.0
  0
LINE
  5
11BC
102
{ACAD_REACTORS
330
11FD
102
}
330
23
100
AcDbEntity
  8
0
100
AcDbLine
 10
226.6737536510837
 20
-79.55865304119845
 30
0.0
 11
227.5921393467847
 21
-81.22754999231213
 31
0.0
  0
CIRCLE
  5
11BD
102
{ACAD_REACTORS
330
11FD
102
}
330
23
100
AcDbEntity
  8
0
100
AcDbCircle
 10
227.1329464989341
 20
-80.39310151675531
 30
0.0
 40
0.5500392526635221
  0
LINE
  5
11BE
102
{ACAD_REACTORS
330
11FE
102
}
330
23
100
AcDbEntity
  8
0
100
AcDbLine
 10
232.2761388461111
 20
-77.85036056430098
 30
0.0
 11
230.5203868416565
 21
-78.58926801341675
 31
0.0
  0
LINE
  5
11BF
102
{ACAD_REACTORS
330
11FE
102
}
330
23
100
AcDbEntity
  8
0
100
AcDbLine
 10
231.0288091193259
 20
-77.3419382866316
 30
0.0
 11
231.7677165684417
 21
-79.09769029108614
 31
0.0
  0
CIRCLE
  5
11C0
102
{ACAD_REACTORS
330
11FE
102
}
330
23
100
AcDbEntity
  8
0
100
AcDbCircle
 10
231.3982628438838
 20
-78.21981428885883
 30
0.0
 40
0.5500392526635221
  0
LINE
  5
11C1
102
{ACAD_REACTORS
330
11FF
102
}
330
23
100
AcDbEntity
  8
0
100
AcDbLine
 10
236.7790690494896
 20
-76.22861272973381
 30
0.0
 11
234.9556983780697
 21
-76.77994630762544
 31
0.0
  0
LINE
  5
11C2
102
{ACAD_REACTORS
330
11FF
102
}
330
23
100
AcDbEntity
  8
0
100
AcDbLine
 10
235.5917169248338
 20
-75.59259418296969
 30
0.0
 11
236.1430505027254
 21
-77.41596485438956
 31
0.0
  0
CIRCLE
  5
11C3
102
{ACAD_REACTORS
330
11FF
102
}
330
23
100
AcDbEntity
  8
0
100
AcDbCircle
 10
235.8673837137796
 20
-76.50427951867965
 30
0.0
 40
0.5500392526635221
  0
LINE
  5
11C4
102
{ACAD_REACTORS
330
1200
102
}
330
23
100
AcDbEntity
  8
0
100
AcDbLine
 10
241.4268505390195
 20
-75.08643337385137
 30
0.0
 11
239.5558384312752
 21
-75.44415255446546
 31
0.0
  0
LINE
  5
11C5
102
{ACAD_REACTORS
330
1200
102
}
330
23
100
AcDbEntity
  8
0
100
AcDbLine
 10
240.3124848948404
 20
-74.32978691028629
 30
0.0
 11
240.6702040754544
 21
-76.20079901803055
 31
0.0
  0
CIRCLE
  5
11C6
102
{ACAD_REACTORS
330
1200
102
}
330
23
100
AcDbEntity
  8
0
100
AcDbCircle
 10
240.4913444851473
 20
-75.26529296415842
 30
0.0
 40
0.5500392526635221
  0
LINE
  5
11C7
102
{ACAD_REACTORS
330
1201
102
}
330
23
100
AcDbEntity
  8
0
100
AcDbLine
 10
246.1685612480909
 20
-74.43633645269304
 30
0.0
 11
244.2704069042091
 21
-74.59652198982928
 31
0.0
  0
LINE
  5
11C8
102
{ACAD_REACTORS
330
1201
102
}
330
23
100
AcDbEntity
  8
0
100
AcDbLine
 10
245.1393913075819
 20
-73.56735204932028
 30
0.0
 11
245.2995768447181
 21
-75.46550639320201
 31
0.0
  0
CIRCLE
  5
11C9
102
{ACAD_REACTORS
330
1201
102
}
330
23
100
AcDbEntity
  8
0
100
AcDbCircle
 10
245.2194840761499
 20
-74.51642922126115
 30
0.0
 40
0.5500392526635221
  0
MTEXT
  5
1203
330
23
100
AcDbEntity
  8
0
100
AcDbMText
 10
259.0648724947498
 20
-117.6762829046437
 30
0.0
 40
2.5
 41
32.81677237727229
 71
     1
 72
     5
  1
{\f@Arial Unicode MS|b0|i0|c0|p34;60columns}
 73
     1
 44
1.0
1001
ACAD
1000
MTEXTBEGIN
1070
    73
1070
     1
1070
    44
1040
1.0
1070
    74
1070
     0
1000
MTEXTEND
  0
MTEXT
  5
1205
330
23
100
AcDbEntity
  8
0
100
AcDbMText
 10
442.4378133177278
 20
-56.04287797181758
 30
0.0
 40
2.5
 41
32.81677237727229
 71
     1
 72
     5
  1
{\f@Arial Unicode MS|b0|i0|c0|p34;90columns}
 73
     1
 44
1.0
1001
ACAD
1000
MTEXTBEGIN
1070
    73
1070
     1
1070
    44
1040
1.0
1070
    74
1070
     0
1000
MTEXTEND
  0
ENDSEC
  0
SECTION
  2
OBJECTS
  0
DICTIONARY
  5
C
330
0
100
AcDbDictionary
281
     1
  3
ACAD_COLOR
350
1C
  3
ACAD_GROUP
350
D
  3
ACAD_LAYOUT
350
1A
  3
ACAD_MATERIAL
350
1B
  3
ACAD_MLINESTYLE
350
17
  3
ACAD_PLOTSETTINGS
350
19
  3
ACAD_PLOTSTYLENAME
350
E
  3
ACAD_TABLESTYLE
350
1D
  3
ACDBHEADERROUNDTRIPXREC
350
1224
  3
AcDbVariableDictionary
350
282
  0
DICTIONARY
  5
3C
330
23
100
AcDbDictionary
280
     1
281
     1
  3
ACAD_SORTENTS
360
3D
  0
DICTIONARY
  5
1C
102
{ACAD_REACTORS
330
C
102
}
330
C
100
AcDbDictionary
281
     1
  0
DICTIONARY
  5
D
102
{ACAD_REACTORS
330
C
102
}
330
C
100
AcDbDictionary
281
     1
  3
*A1
350
36
  3
*A10
350
805
  3
*A100
350
4E6
  3
*A101
350
566
  3
*A102
350
4EA
  3
*A103
350
4EE
  3
*A104
350
4F2
  3
*A105
350
4F6
  3
*A106
350
4FA
  3
*A107
350
4FE
  3
*A108
350
B6
  3
*A109
350
502
  3
*A11
350
806
  3
*A110
350
506
  3
*A111
350
50A
  3
*A112
350
BA
  3
*A113
350
56A
  3
*A114
350
50E
  3
*A115
350
512
  3
*A116
350
516
  3
*A117
350
51A
  3
*A118
350
51E
  3
*A119
350
522
  3
*A12
350
807
  3
*A120
350
526
  3
*A121
350
C8E
  3
*A122
350
C8F
  3
*A123
350
C98
  3
*A124
350
56E
  3
*A125
350
C99
  3
*A126
350
ED6
  3
*A127
350
ED7
  3
*A128
350
FCB
  3
*A129
350
FCC
  3
*A13
350
54A
  3
*A130
350
FCD
  3
*A131
350
FCE
  3
*A132
350
FCF
  3
*A133
350
572
  3
*A134
350
FD0
  3
*A135
350
FD1
  3
*A136
350
FD2
  3
*A137
350
FD3
  3
*A138
350
FD4
  3
*A139
350
FD5
  3
*A14
350
808
  3
*A140
350
FD6
  3
*A141
350
FD7
  3
*A142
350
FD8
  3
*A143
350
FD9
  3
*A144
350
576
  3
*A145
350
FDA
  3
*A146
350
FDB
  3
*A147
350
FDC
  3
*A148
350
FDD
  3
*A149
350
FDE
  3
*A15
350
809
  3
*A150
350
FDF
  3
*A151
350
FE0
  3
*A152
350
FE1
  3
*A153
350
11CA
  3
*A154
350
11CB
  3
*A155
350
86
  3
*A156
350
11CC
  3
*A157
350
11CD
  3
*A158
350
11CE
  3
*A159
350
11CF
  3
*A16
350
A2
  3
*A160
350
11D0
  3
*A161
350
11D1
  3
*A162
350
11D2
  3
*A163
350
11D3
  3
*A164
350
11D4
  3
*A165
350
11D5
  3
*A166
350
57A
  3
*A167
350
11D6
  3
*A168
350
11D7
  3
*A169
350
11D8
  3
*A17
350
DA
  3
*A170
350
11D9
  3
*A171
350
11DA
  3
*A172
350
11DB
  3
*A173
350
11DC
  3
*A174
350
11DD
  3
*A175
350
11DE
  3
*A176
350
11DF
  3
*A177
350
57E
  3
*A178
350
11E0
  3
*A179
350
11E1
  3
*A18
350
80A
  3
*A180
350
11E2
  3
*A181
350
11E3
  3
*A182
350
11E4
  3
*A183
350
11E5
  3
*A184
350
11E6
  3
*A185
350
11E7
  3
*A186
350
11E8
  3
*A187
350
11E9
  3
*A188
350
582
  3
*A189
350
11EA
  3
*A19
350
80B
  3
*A190
350
11EB
  3
*A191
350
11EC
  3
*A192
350
11ED
  3
*A193
350
11EE
  3
*A194
350
11EF
  3
*A195
350
11F0
  3
*A196
350
11F1
  3
*A197
350
11F2
  3
*A198
350
11F3
  3
*A199
350
586
  3
*A2
350
546
  3
*A20
350
80C
  3
*A200
350
11F4
  3
*A201
350
11F5
  3
*A202
350
11F6
  3
*A203
350
11F7
  3
*A204
350
11F8
  3
*A205
350
11F9
  3
*A206
350
11FA
  3
*A207
350
11FB
  3
*A208
350
11FC
  3
*A209
350
11FD
  3
*A21
350
80D
  3
*A210
350
58A
  3
*A211
350
11FE
  3
*A212
350
11FF
  3
*A213
350
1200
  3
*A214
350
1201
  3
*A215
350
52A
  3
*A216
350
58E
  3
*A217
350
592
  3
*A218
350
596
  3
*A219
350
59A
  3
*A22
350
80E
  3
*A220
350
59E
  3
*A221
350
C2
  3
*A222
350
5A2
  3
*A223
350
5A6
  3
*A224
350
5AA
  3
*A225
350
5AE
  3
*A226
350
52E
  3
*A227
350
5B2
  3
*A228
350
5B6
  3
*A229
350
5BA
  3
*A23
350
80F
  3
*A230
350
5BE
  3
*A231
350
5C2
  3
*A232
350
5C6
  3
*A233
350
C6
  3
*A234
350
5CA
  3
*A235
350
5CE
  3
*A236
350
5D2
  3
*A237
350
532
  3
*A238
350
5D6
  3
*A239
350
5DA
  3
*A24
350
54E
  3
*A240
350
5DE
  3
*A241
350
5E2
  3
*A242
350
5E6
  3
*A243
350
5EA
  3
*A244
350
5EE
  3
*A245
350
CA
  3
*A246
350
5F2
  3
*A247
350
7D9
  3
*A248
350
536
  3
*A249
350
7DA
  3
*A25
350
810
  3
*A250
350
7DB
  3
*A251
350
7DC
  3
*A252
350
7DD
  3
*A253
350
7DE
  3
*A254
350
7DF
  3
*A255
350
7E0
  3
*A256
350
7E1
  3
*A257
350
6A
  3
*A258
350
7E2
  3
*A259
350
53A
  3
*A26
350
4E
  3
*A260
350
7E3
  3
*A261
350
7E4
  3
*A262
350
7E5
  3
*A263
350
7E6
  3
*A264
350
7E7
  3
*A265
350
7E8
  3
*A266
350
7E9
  3
*A267
350
7EA
  3
*A268
350
7EB
  3
*A269
350
CE
  3
*A27
350
DE
  3
*A270
350
53E
  3
*A271
350
7EC
  3
*A272
350
7ED
  3
*A273
350
7EE
  3
*A274
350
7EF
  3
*A275
350
7F0
  3
*A276
350
7F1
  3
*A277
350
7F2
  3
*A278
350
7F3
  3
*A279
350
7F4
  3
*A28
350
8A
  3
*A280
350
7F5
  3
*A281
350
542
  3
*A282
350
D2
  3
*A283
350
7F6
  3
*A284
350
7F7
  3
*A285
350
7F8
  3
*A286
350
7F9
  3
*A287
350
7FA
  3
*A288
350
7FB
  3
*A289
350
7FC
  3
*A29
350
E2
  3
*A290
350
7FD
  3
*A291
350
7FE
  3
*A3
350
7FF
  3
*A30
350
10D
  3
*A31
350
21A
  3
*A32
350
241
  3
*A33
350
6E
  3
*A34
350
247
  3
*A35
350
BE
  3
*A36
350
A6
  3
*A37
350
248
  3
*A38
350
52
  3
*A39
350
56
  3
*A4
350
D6
  3
*A40
350
5A
  3
*A41
350
46
  3
*A42
350
5E
  3
*A43
350
62
  3
*A44
350
72
  3
*A45
350
76
  3
*A46
350
552
  3
*A47
350
7A
  3
*A48
350
66
  3
*A49
350
7E
  3
*A5
350
800
  3
*A50
350
82
  3
*A51
350
8E
  3
*A52
350
92
  3
*A53
350
96
  3
*A54
350
9A
  3
*A55
350
9E
  3
*A56
350
456
  3
*A57
350
556
  3
*A58
350
45A
  3
*A59
350
45E
  3
*A6
350
801
  3
*A60
350
AA
  3
*A61
350
462
  3
*A62
350
466
  3
*A63
350
46A
  3
*A64
350
46E
  3
*A65
350
472
  3
*A66
350
476
  3
*A67
350
47A
  3
*A68
350
55A
  3
*A69
350
47E
  3
*A7
350
802
  3
*A70
350
482
  3
*A71
350
486
  3
*A72
350
AE
  3
*A73
350
48A
  3
*A74
350
48E
  3
*A75
350
492
  3
*A76
350
496
  3
*A77
350
49A
  3
*A78
350
49E
  3
*A79
350
55E
  3
*A8
350
803
  3
*A80
350
4A2
  3
*A81
350
4A6
  3
*A82
350
4AA
  3
*A83
350
4AE
  3
*A84
350
B2
  3
*A85
350
4B2
  3
*A86
350
4B6
  3
*A87
350
4BA
  3
*A88
350
4BE
  3
*A89
350
4C2
  3
*A9
350
804
  3
*A90
350
562
  3
*A91
350
4C6
  3
*A92
350
4CA
  3
*A93
350
4CE
  3
*A94
350
4D2
  3
*A95
350
4D6
  3
*A96
350
4A
  3
*A97
350
4DA
  3
*A98
350
4DE
  3
*A99
350
4E2
  0
DICTIONARY
  5
1A
102
{ACAD_REACTORS
330
C
102
}
330
C
100
AcDbDictionary
281
     1
  3
Layout1
350
22
  3
Layout2
350
2A
  3
Model
350
26
  0
DICTIONARY
  5
1B
102
{ACAD_REACTORS
330
C
102
}
330
C
100
AcDbDictionary
281
     1
  0
DICTIONARY
  5
17
102
{ACAD_REACTORS
330
C
102
}
330
C
100
AcDbDictionary
281
     1
  3
Standard
350
18
  0
DICTIONARY
  5
19
102
{ACAD_REACTORS
330
C
102
}
330
C
100
AcDbDictionary
281
     1
  0
ACDBDICTIONARYWDFLT
  5
E
102
{ACAD_REACTORS
330
C
102
}
330
C
100
AcDbDictionary
281
     1
  3
Normal
350
F
100
AcDbDictionaryWithDefault
340
F
  0
DICTIONARY
  5
1D
102
{ACAD_REACTORS
330
C
102
}
330
C
100
AcDbDictionary
281
     1
  3
Standard
350
1E
  0
DICTIONARY
  5
1224
102
{ACAD_REACTORS
330
C
102
}
330
C
100
AcDbDictionary
281
     1
  0
DICTIONARY
  5
282
102
{ACAD_REACTORS
330
C
102
}
330
C
100
AcDbDictionary
281
     1
  3
CTABLESTYLE
350
283
  3
DIMASSOC
350
285
  3
HIDETEXT
350
284
  3
PROJECTNAME
350
286
  0
SORTENTSTABLE
  5
3D
102
{ACAD_REACTORS
330
3C
102
}
330
3C
100
AcDbSortentsTable
330
23
331
B59
  5
B5A
331
B3A
  5
B3B
331
AFC
  5
AFD
331
B1B
  5
B1C
331
AE5
  5
AE6
331
AC6
  5
AC7
331
A71
  5
A72
331
A88
  5
A89
331
5DD
  5
5DD
331
59F
  5
59F
331
4F5
  5
4F5
331
498
  5
498
331
40C
  5
40C
331
580
  5
580
331
AA7
  5
AA8
331
B70
  5
B71
331
B5A
  5
B5B
331
B3B
  5
B3C
331
AFD
  5
AFE
331
B1C
  5
B1D
331
AE6
  5
AE7
331
AC7
  5
AC8
331
A89
  5
A8A
331
AA8
  5
AA9
331
B71
  5
B72
331
5BF
  5
5BF
331
5A0
  5
5A0
331
499
  5
499
331
463
  5
463
331
40D
  5
40D
331
581
  5
581
331
A72
  5
A73
331
B5B
  5
B5C
331
B3C
  5
B3D
331
AFE
  5
AFF
331
B1D
  5
B1E
331
AE7
  5
AE8
331
AC8
  5
AC9
331
A8A
  5
A8B
331
AA9
  5
AAA
331
B72
  5
B73
331
5DF
  5
5DF
331
5C0
  5
5C0
331
4F7
  5
4F7
331
464
  5
464
331
40E
  5
40E
331
5A1
  5
5A1
331
A73
  5
A74
331
B5C
  5
B5D
331
B3D
  5
B3E
331
AFF
  5
B00
331
B1E
  5
B1F
331
AE8
  5
AE9
331
AC9
  5
ACA
331
A8B
  5
A8C
331
AAA
  5
AAB
331
B73
  5
B74
331
5E0
  5
5E0
331
5C1
  5
5C1
331
49B
  5
49B
331
465
  5
465
331
40F
  5
40F
331
583
  5
583
331
A74
  5
A75
331
B5D
  5
B5E
331
B3E
  5
B3F
331
B1F
  5
B20
331
B74
  5
B75
331
AE9
  5
AEA
331
ACA
  5
ACB
331
A8C
  5
A8D
331
AAB
  5
AAC
331
5E1
  5
5E1
331
5A3
  5
5A3
331
49C
  5
49C
331
584
  5
584
331
A75
  5
A76
331
B00
  5
B01
331
B5E
  5
B5F
331
B3F
  5
B40
331
B20
  5
B21
331
AEA
  5
AEB
331
ACB
  5
ACC
331
A8D
  5
A8E
331
AAC
  5
AAD
331
5C3
  5
5C3
331
5A4
  5
5A4
331
49D
  5
49D
331
467
  5
467
331
585
  5
585
331
A76
  5
A77
331
B01
  5
B02
331
B5F
  5
B60
331
B40
  5
B41
331
B21
  5
B22
331
AEB
  5
AEC
331
ACC
  5
ACD
331
A8E
  5
A8F
331
AAD
  5
AAE
331
A77
  5
A78
331
5E3
  5
5E3
331
5C4
  5
5C4
331
5A5
  5
5A5
331
A58
  5
A58
331
B02
  5
B03
331
B60
  5
B61
331
B41
  5
B42
331
B22
  5
B23
331
AEC
  5
AED
331
ACD
  5
ACE
331
A8F
  5
A90
331
AAE
  5
AAF
331
5E4
  5
5E4
331
5C5
  5
5C5
331
587
  5
587
331
A78
  5
A79
331
B03
  5
B04
331
49F
  5
49F
331
B78
  5
B7A
331
B42
  5
B43
331
B23
  5
B24
331
AED
  5
AEE
331
ACE
  5
ACF
331
AAF
  5
AB0
331
B04
  5
B05
331
5E5
  5
5E5
331
5A7
  5
5A7
331
588
  5
588
331
A79
  5
A7A
331
A90
  5
A91
331
B61
  5
B62
331
B79
  5
B7B
331
B62
  5
B63
331
B24
  5
B25
331
AEE
  5
AEF
331
ACF
  5
AD0
331
AB0
  5
AB1
331
B05
  5
B06
331
5C7
  5
5C7
331
5A8
  5
5A8
331
589
  5
589
331
A7A
  5
A7B
331
A91
  5
A92
331
B43
  5
B44
331
B63
  5
B64
331
B44
  5
B45
331
AEF
  5
AF0
331
AD0
  5
AD1
331
AB1
  5
AB2
331
B06
  5
B07
331
A7B
  5
A7C
331
A92
  5
A93
331
5C8
  5
5C8
331
5A9
  5
5A9
331
5E7
  5
5E7
331
B25
  5
B26
331
B64
  5
B65
331
B45
  5
B46
331
AF0
  5
AF1
331
AD1
  5
AD2
331
AB2
  5
AB3
331
B07
  5
B08
331
A7C
  5
A7D
331
A93
  5
A94
331
B26
  5
B27
331
58B
  5
58B
331
5C9
  5
5C9
331
B65
  5
B66
331
B46
  5
B47
331
B08
  5
B09
331
B27
  5
B28
331
AD2
  5
AD3
331
AB3
  5
AB4
331
A7D
  5
A7E
331
A5E
  5
A5E
331
A94
  5
A95
331
58C
  5
58C
331
5AB
  5
5AB
331
AF1
  5
AF2
331
B66
  5
B67
331
B47
  5
B48
331
B09
  5
B0A
331
B28
  5
B29
331
AF2
  5
AF3
331
AB4
  5
AB5
331
A7E
  5
A7F
331
A95
  5
A96
331
5CB
  5
5CB
331
5AC
  5
5AC
331
58D
  5
58D
331
AD3
  5
AD4
331
B67
  5
B68
331
B48
  5
B49
331
B0A
  5
B0B
331
B29
  5
B2A
331
AF3
  5
AF4
331
AD4
  5
AD5
331
A60
  5
A60
331
A7F
  5
A80
331
A96
  5
A97
331
5CC
  5
5CC
331
5AD
  5
5AD
331
AB5
  5
AB6
331
B68
  5
B69
331
B49
  5
B4A
331
B0B
  5
B0C
331
B2A
  5
B2B
331
AF4
  5
AF5
331
AD5
  5
AD6
331
A97
  5
A98
331
5CD
  5
5CD
331
58F
  5
58F
331
AB6
  5
AB7
331
B69
  5
B6A
331
B4A
  5
B4B
331
B0C
  5
B0D
331
B2B
  5
B2C
331
AF5
  5
AF6
331
AD6
  5
AD7
331
A98
  5
A99
331
AB7
  5
AB8
331
5AF
  5
5AF
331
A62
  5
A62
331
B6A
  5
B6B
331
B4B
  5
B4C
331
B0D
  5
B0E
331
B2C
  5
B2D
331
AF6
  5
AF7
331
AB8
  5
AB9
331
AD7
  5
AD8
331
A99
  5
A9A
331
5CF
  5
5CF
331
A63
  5
A63
331
140
  5
14A
331
121
  5
12E
331
B6B
  5
B6C
331
B4C
  5
B4D
331
B0E
  5
B0F
331
B2D
  5
B2E
331
AD8
  5
AD9
331
AF7
  5
AF8
331
AB9
  5
ABA
331
A9A
  5
A9B
331
A64
  5
A64
331
160
  5
16A
331
141
  5
14B
331
B6C
  5
B6D
331
B4D
  5
B4E
331
B2E
  5
B2F
331
AD9
  5
ADA
331
ABA
  5
ABB
331
A9B
  5
A9C
331
A65
  5
A66
331
B0F
  5
B10
331
180
  5
18A
331
161
  5
16B
331
142
  5
14C
331
B6D
  5
B6E
331
B4E
  5
B4F
331
B10
  5
B11
331
B2F
  5
B30
331
ADA
  5
ADB
331
ABB
  5
ABC
331
A9C
  5
A9D
331
181
  5
18B
331
162
  5
16C
331
143
  5
14D
331
198
  5
1A2
331
B6E
  5
B6F
331
B30
  5
B31
331
B4F
  5
B50
331
B11
  5
B12
331
ADB
  5
ADC
331
ABC
  5
ABD
331
A9D
  5
A9E
331
A67
  5
A68
331
228
  5
121
331
199
  5
1A3
331
163
  5
16D
331
144
  5
14E
331
182
  5
18C
331
B50
  5
B51
331
B6F
  5
B70
331
B31
  5
B32
331
B12
  5
B13
331
ADC
  5
ADD
331
ABD
  5
ABE
331
A9E
  5
A9F
331
229
  5
11F
331
19A
  5
1A4
331
183
  5
18D
331
145
  5
14F
331
164
  5
16E
331
B51
  5
B52
331
B32
  5
B33
331
B13
  5
B14
331
ADD
  5
ADE
331
ABE
  5
ABF
331
A9F
  5
AA0
331
19B
  5
1A5
331
184
  5
18E
331
165
  5
16F
331
146
  5
150
331
B33
  5
B34
331
B14
  5
B15
331
ADE
  5
ADF
331
ABF
  5
AC0
331
B52
  5
B53
331
378
  5
378
331
22B
  5
22D
331
19C
  5
1A6
331
185
  5
18F
331
166
  5
170
331
147
  5
151
331
B53
  5
B54
331
B15
  5
B16
331
ADF
  5
AE0
331
B34
  5
B35
331
398
  5
398
331
379
  5
379
331
22C
  5
22E
331
19D
  5
1A7
331
186
  5
190
331
167
  5
171
331
148
  5
152
331
B54
  5
B55
331
B35
  5
B36
331
B16
  5
B17
331
3B8
  5
3B8
331
399
  5
399
331
37A
  5
37A
331
19E
  5
1A8
331
187
  5
191
331
168
  5
172
331
149
  5
153
331
C9B
  5
B79
331
B55
  5
B56
331
B36
  5
B37
331
B17
  5
B18
331
3D8
  5
3D8
331
3B9
  5
3B9
331
39A
  5
39A
331
37B
  5
37B
331
19F
  5
1A9
331
188
  5
192
331
169
  5
173
331
14A
  5
154
331
B56
  5
B57
331
B37
  5
B38
331
3D9
  5
3D9
331
3BA
  5
3BA
331
39B
  5
39B
331
37C
  5
37C
331
22F
  5
242
331
1A0
  5
1AA
331
189
  5
193
331
16A
  5
174
331
14B
  5
155
331
B57
  5
B58
331
3BB
  5
3BB
331
39C
  5
39C
331
37D
  5
37D
331
366
  5
366
331
267
  5
267
331
230
  5
243
331
1A1
  5
1AC
331
18A
  5
194
331
16B
  5
175
331
14C
  5
156
331
12D
  5
137
331
3DA
  5
3DA
331
3DB
  5
3DB
331
39D
  5
39D
331
37E
  5
37E
331
367
  5
367
331
18B
  5
195
331
16C
  5
176
331
14D
  5
157
331
12E
  5
138
331
3BC
  5
3BC
331
3DC
  5
3DC
331
3BD
  5
3BD
331
37F
  5
37F
331
368
  5
368
331
269
  5
269
331
18C
  5
196
331
16D
  5
177
331
14E
  5
158
331
12F
  5
139
331
39E
  5
39E
331
3DD
  5
3DD
331
3BE
  5
3BE
331
39F
  5
39F
331
369
  5
369
331
1A4
  5
1AE
331
18D
  5
197
331
16E
  5
178
331
14F
  5
159
331
130
  5
13A
331
380
  5
380
331
3DE
  5
3DE
331
3BF
  5
3BF
331
3A0
  5
3A0
331
18E
  5
198
331
16F
  5
179
331
150
  5
15A
331
131
  5
13B
331
381
  5
381
331
3DF
  5
3DF
331
3C0
  5
3C0
331
3A1
  5
3A1
331
18F
  5
199
331
170
  5
17A
331
151
  5
15B
331
132
  5
13C
331
382
  5
382
331
3E0
  5
3E0
331
3C1
  5
3C1
331
3A2
  5
3A2
331
190
  5
19A
331
171
  5
17B
331
152
  5
15C
331
133
  5
13D
331
383
  5
383
331
3F0
  5
3F0
331
3E1
  5
3E1
331
3C2
  5
3C2
331
3A3
  5
3A3
331
384
  5
384
331
191
  5
19B
331
172
  5
17C
331
153
  5
15D
331
134
  5
13E
331
36D
  5
36D
331
410
  5
410
331
3F1
  5
3F1
331
3E2
  5
3E2
331
3C3
  5
3C3
331
3A4
  5
3A4
331
385
  5
385
331
173
  5
17D
331
154
  5
15E
331
135
  5
13F
331
192
  5
19C
331
411
  5
411
331
3F2
  5
3F2
331
3E3
  5
3E3
331
3C4
  5
3C4
331
3A5
  5
3A5
331
386
  5
386
331
193
  5
19D
331
155
  5
15F
331
136
  5
140
331
174
  5
17E
331
412
  5
412
331
3F3
  5
3F3
331
468
  5
468
331
3E4
  5
3E4
331
3C5
  5
3C5
331
3A6
  5
3A6
331
387
  5
387
331
194
  5
19E
331
175
  5
17F
331
137
  5
141
331
156
  5
160
331
480
  5
480
331
413
  5
413
331
3F4
  5
3F4
331
469
  5
469
331
3E5
  5
3E5
331
3C6
  5
3C6
331
3A7
  5
3A7
331
388
  5
388
331
371
  5
371
331
195
  5
19F
331
176
  5
180
331
157
  5
161
331
138
  5
142
331
4A0
  5
4A0
331
481
  5
481
331
3F5
  5
3F5
331
414
  5
414
331
3E6
  5
3E6
331
3C7
  5
3C7
331
3A8
  5
3A8
331
389
  5
389
331
372
  5
372
331
196
  5
1A0
331
177
  5
181
331
158
  5
162
331
139
  5
143
331
4A1
  5
4A1
331
46B
  5
46B
331
444
  5
444
331
415
  5
415
331
3F6
  5
3F6
331
3E7
  5
3E7
331
3C8
  5
3C8
331
3A9
  5
3A9
331
38A
  5
38A
331
373
  5
373
331
197
  5
1A1
331
178
  5
182
331
159
  5
163
331
13A
  5
144
331
483
  5
483
331
46C
  5
46C
331
445
  5
445
331
416
  5
416
331
3F7
  5
3F7
331
3E8
  5
3E8
331
3C9
  5
3C9
331
3AA
  5
3AA
331
38B
  5
38B
331
374
  5
374
331
179
  5
183
331
15A
  5
164
331
13B
  5
145
331
4F8
  5
4F8
331
484
  5
484
331
46D
  5
46D
331
446
  5
446
331
417
  5
417
331
3F8
  5
3F8
331
3CA
  5
3CA
331
3AB
  5
3AB
331
38C
  5
38C
331
375
  5
375
331
17A
  5
184
331
15B
  5
165
331
13C
  5
146
331
3E9
  5
3E9
331
4F9
  5
4F9
331
485
  5
485
331
418
  5
418
331
3F9
  5
3F9
331
3EA
  5
3EA
331
3AC
  5
3AC
331
38D
  5
38D
331
376
  5
376
331
17B
  5
185
331
15C
  5
166
331
13D
  5
147
331
3CB
  5
3CB
331
46F
  5
46F
331
419
  5
419
331
3FA
  5
3FA
331
3EB
  5
3EB
331
3CC
  5
3CC
331
38E
  5
38E
331
377
  5
377
331
17C
  5
186
331
15D
  5
167
331
13E
  5
148
331
3AD
  5
3AD
331
4FB
  5
4FB
331
487
  5
487
331
470
  5
470
331
41A
  5
41A
331
3FB
  5
3FB
331
3EC
  5
3EC
331
3CD
  5
3CD
331
3AE
  5
3AE
331
17D
  5
187
331
15E
  5
168
331
13F
  5
149
331
38F
  5
38F
331
4FC
  5
4FC
331
488
  5
488
331
471
  5
471
331
41B
  5
41B
331
3FC
  5
3FC
331
3ED
  5
3ED
331
3CE
  5
3CE
331
3AF
  5
3AF
331
28A
  5
28A
331
224
  5
133
331
17E
  5
188
331
15F
  5
169
331
390
  5
390
331
4FD
  5
4FD
331
489
  5
489
331
453
  5
453
331
41C
  5
41C
331
3FD
  5
3FD
331
590
  5
590
331
3EE
  5
3EE
331
3CF
  5
3CF
331
3B0
  5
3B0
331
17F
  5
189
331
391
  5
391
331
5B0
  5
5B0
331
473
  5
473
331
454
  5
454
331
41D
  5
41D
331
3FE
  5
3FE
331
591
  5
591
331
3EF
  5
3EF
331
3D0
  5
3D0
331
3B1
  5
3B1
331
392
  5
392
331
5D0
  5
5D0
331
5B1
  5
5B1
331
48B
  5
48B
331
474
  5
474
331
455
  5
455
331
41E
  5
41E
331
3FF
  5
3FF
331
4FF
  5
4FF
331
3D1
  5
3D1
331
3B2
  5
3B2
331
393
  5
393
331
5E8
  5
5E8
331
5D1
  5
5D1
331
593
  5
593
331
48C
  5
48C
331
475
  5
475
331
41F
  5
41F
331
400
  5
400
331
500
  5
500
331
3D2
  5
3D2
331
3B3
  5
3B3
331
394
  5
394
331
5E9
  5
5E9
331
5B3
  5
5B3
331
594
  5
594
331
48D
  5
48D
331
457
  5
457
331
420
  5
420
331
401
  5
401
331
501
  5
501
331
3D3
  5
3D3
331
3B4
  5
3B4
331
395
  5
395
331
5D3
  5
5D3
331
5B4
  5
5B4
331
477
  5
477
331
458
  5
458
331
421
  5
421
331
402
  5
402
331
595
  5
595
331
3D4
  5
3D4
331
3B5
  5
3B5
331
396
  5
396
331
5EB
  5
5EB
331
5D4
  5
5D4
331
5B5
  5
5B5
331
503
  5
503
331
48F
  5
48F
331
459
  5
459
331
422
  5
422
331
403
  5
403
331
478
  5
478
331
3D5
  5
3D5
331
3B6
  5
3B6
331
397
  5
397
331
5EC
  5
5EC
331
5D5
  5
5D5
331
597
  5
597
331
504
  5
504
331
490
  5
490
331
404
  5
404
331
479
  5
479
331
A80
  5
A81
331
3D6
  5
3D6
331
3B7
  5
3B7
331
AA0
  5
AA1
331
5ED
  5
5ED
331
5B7
  5
5B7
331
598
  5
598
331
505
  5
505
331
491
  5
491
331
45B
  5
45B
331
A81
  5
A82
331
405
  5
405
331
424
  5
424
331
3D7
  5
3D7
331
AC0
  5
AC1
331
AA1
  5
AA2
331
5D7
  5
5D7
331
5B8
  5
5B8
331
599
  5
599
331
4EF
  5
4EF
331
47B
  5
47B
331
45C
  5
45C
331
A82
  5
A83
331
425
  5
425
331
406
  5
406
331
AE0
  5
AE1
331
AC1
  5
AC2
331
AA2
  5
AA3
331
A6C
  5
A6D
331
A83
  5
A84
331
5EF
  5
5EF
331
5B9
  5
5B9
331
57B
  5
57B
331
4F0
  5
4F0
331
493
  5
493
331
47C
  5
47C
331
45D
  5
45D
331
426
  5
426
331
407
  5
407
331
5D8
  5
5D8
331
AE1
  5
AE2
331
AC2
  5
AC3
331
AA3
  5
AA4
331
AF8
  5
AF9
331
A6D
  5
A6E
331
A84
  5
A85
331
5F0
  5
5F0
331
59B
  5
59B
331
57C
  5
57C
331
4F1
  5
4F1
331
494
  5
494
331
47D
  5
47D
331
408
  5
408
331
5D9
  5
5D9
331
AF9
  5
AFA
331
B18
  5
B19
331
AC3
  5
AC4
331
AA4
  5
AA5
331
A6E
  5
A6F
331
A85
  5
A86
331
5F1
  5
5F1
331
5BB
  5
5BB
331
57D
  5
57D
331
495
  5
495
331
45F
  5
45F
331
409
  5
409
331
59C
  5
59C
331
AE2
  5
AE3
331
B38
  5
B39
331
AFA
  5
AFB
331
B19
  5
B1A
331
AE3
  5
AE4
331
AA5
  5
AA6
331
A6F
  5
A70
331
A86
  5
A87
331
5DB
  5
5DB
331
5BC
  5
5BC
331
4F3
  5
4F3
331
47F
  5
47F
331
460
  5
460
331
40A
  5
40A
331
59D
  5
59D
331
AC4
  5
AC5
331
B58
  5
B59
331
B39
  5
B3A
331
AFB
  5
AFC
331
B1A
  5
B1B
331
AE4
  5
AE5
331
AC5
  5
AC6
331
A70
  5
A71
331
A87
  5
A88
331
5DC
  5
5DC
331
5BD
  5
5BD
331
4F4
  5
4F4
331
497
  5
497
331
461
  5
461
331
40B
  5
40B
331
57F
  5
57F
331
AA6
  5
AA7
  0
GROUP
  5
36
102
{ACAD_REACTORS
330
D
102
}
330
D
100
AcDbGroup
300

 70
     1
 71
     1
  0
GROUP
  5
805
102
{ACAD_REACTORS
330
D
102
}
330
D
100
AcDbGroup
300

 70
     1
 71
     1
  0
GROUP
  5
4E6
102
{ACAD_REACTORS
330
D
102
}
330
D
100
AcDbGroup
300

 70
     1
 71
     1
  0
GROUP
  5
566
102
{ACAD_REACTORS
330
D
102
}
330
D
100
AcDbGroup
300

 70
     1
 71
     1
  0
GROUP
  5
4EA
102
{ACAD_REACTORS
330
D
102
}
330
D
100
AcDbGroup
300

 70
     1
 71
     1
  0
GROUP
  5
4EE
102
{ACAD_REACTORS
330
D
102
}
330
D
100
AcDbGroup
300

 70
     1
 71
     1
  0
GROUP
  5
4F2
102
{ACAD_REACTORS
330
D
102
}
330
D
100
AcDbGroup
300

 70
     1
 71
     1
340
4F0
340
4EF
340
4F1
  0
GROUP
  5
4F6
102
{ACAD_REACTORS
330
D
102
}
330
D
100
AcDbGroup
300

 70
     1
 71
     1
340
4F4
340
4F3
340
4F5
  0
GROUP
  5
4FA
102
{ACAD_REACTORS
330
D
102
}
330
D
100
AcDbGroup
300

 70
     1
 71
     1
340
4F8
340
4F7
340
4F9
  0
GROUP
  5
4FE
102
{ACAD_REACTORS
330
D
102
}
330
D
100
AcDbGroup
300

 70
     1
 71
     1
340
4FC
340
4FB
340
4FD
  0
GROUP
  5
B6
102
{ACAD_REACTORS
330
D
102
}
330
D
100
AcDbGroup
300

 70
     1
 71
     1
  0
GROUP
  5
502
102
{ACAD_REACTORS
330
D
102
}
330
D
100
AcDbGroup
300

 70
     1
 71
     1
340
500
340
4FF
340
501
  0
GROUP
  5
806
102
{ACAD_REACTORS
330
D
102
}
330
D
100
AcDbGroup
300

 70
     1
 71
     1
  0
GROUP
  5
506
102
{ACAD_REACTORS
330
D
102
}
330
D
100
AcDbGroup
300

 70
     1
 71
     1
340
504
340
503
340
505
  0
GROUP
  5
50A
102
{ACAD_REACTORS
330
D
102
}
330
D
100
AcDbGroup
300

 70
     1
 71
     1
  0
GROUP
  5
BA
102
{ACAD_REACTORS
330
D
102
}
330
D
100
AcDbGroup
300

 70
     1
 71
     1
  0
GROUP
  5
56A
102
{ACAD_REACTORS
330
D
102
}
330
D
100
AcDbGroup
300

 70
     1
 71
     1
  0
GROUP
  5
50E
102
{ACAD_REACTORS
330
D
102
}
330
D
100
AcDbGroup
300

 70
     1
 71
     1
  0
GROUP
  5
512
102
{ACAD_REACTORS
330
D
102
}
330
D
100
AcDbGroup
300

 70
     1
 71
     1
  0
GROUP
  5
516
102
{ACAD_REACTORS
330
D
102
}
330
D
100
AcDbGroup
300

 70
     1
 71
     1
  0
GROUP
  5
51A
102
{ACAD_REACTORS
330
D
102
}
330
D
100
AcDbGroup
300

 70
     1
 71
     1
  0
GROUP
  5
51E
102
{ACAD_REACTORS
330
D
102
}
330
D
100
AcDbGroup
300

 70
     1
 71
     1
  0
GROUP
  5
522
102
{ACAD_REACTORS
330
D
102
}
330
D
100
AcDbGroup
300

 70
     1
 71
     1
  0
GROUP
  5
807
102
{ACAD_REACTORS
330
D
102
}
330
D
100
AcDbGroup
300

 70
     1
 71
     1
  0
GROUP
  5
526
102
{ACAD_REACTORS
330
D
102
}
330
D
100
AcDbGroup
300

 70
     1
 71
     1
  0
GROUP
  5
C8E
102
{ACAD_REACTORS
330
D
102
}
330
D
100
AcDbGroup
300

 70
     1
 71
     1
  0
GROUP
  5
C8F
102
{ACAD_REACTORS
330
D
102
}
330
D
100
AcDbGroup
300

 70
     1
 71
     1
  0
GROUP
  5
C98
102
{ACAD_REACTORS
330
D
102
}
330
D
100
AcDbGroup
300

 70
     1
 71
     1
  0
GROUP
  5
56E
102
{ACAD_REACTORS
330
D
102
}
330
D
100
AcDbGroup
300

 70
     1
 71
     1
  0
GROUP
  5
C99
102
{ACAD_REACTORS
330
D
102
}
330
D
100
AcDbGroup
300

 70
     1
 71
     1
  0
GROUP
  5
ED6
102
{ACAD_REACTORS
330
D
102
}
330
D
100
AcDbGroup
300

 70
     1
 71
     1
  0
GROUP
  5
ED7
102
{ACAD_REACTORS
330
D
102
}
330
D
100
AcDbGroup
300

 70
     1
 71
     1
  0
GROUP
  5
FCB
102
{ACAD_REACTORS
330
D
102
}
330
D
100
AcDbGroup
300

 70
     1
 71
     1
  0
GROUP
  5
FCC
102
{ACAD_REACTORS
330
D
102
}
330
D
100
AcDbGroup
300

 70
     1
 71
     1
  0
GROUP
  5
54A
102
{ACAD_REACTORS
330
D
102
}
330
D
100
AcDbGroup
300

 70
     1
 71
     1
  0
GROUP
  5
FCD
102
{ACAD_REACTORS
330
D
102
}
330
D
100
AcDbGroup
300

 70
     1
 71
     1
  0
GROUP
  5
FCE
102
{ACAD_REACTORS
330
D
102
}
330
D
100
AcDbGroup
300

 70
     1
 71
     1
  0
GROUP
  5
FCF
102
{ACAD_REACTORS
330
D
102
}
330
D
100
AcDbGroup
300

 70
     1
 71
     1
  0
GROUP
  5
572
102
{ACAD_REACTORS
330
D
102
}
330
D
100
AcDbGroup
300

 70
     1
 71
     1
  0
GROUP
  5
FD0
102
{ACAD_REACTORS
330
D
102
}
330
D
100
AcDbGroup
300

 70
     1
 71
     1
  0
GROUP
  5
FD1
102
{ACAD_REACTORS
330
D
102
}
330
D
100
AcDbGroup
300

 70
     1
 71
     1
  0
GROUP
  5
FD2
102
{ACAD_REACTORS
330
D
102
}
330
D
100
AcDbGroup
300

 70
     1
 71
     1
  0
GROUP
  5
FD3
102
{ACAD_REACTORS
330
D
102
}
330
D
100
AcDbGroup
300

 70
     1
 71
     1
  0
GROUP
  5
FD4
102
{ACAD_REACTORS
330
D
102
}
330
D
100
AcDbGroup
300

 70
     1
 71
     1
  0
GROUP
  5
FD5
102
{ACAD_REACTORS
330
D
102
}
330
D
100
AcDbGroup
300

 70
     1
 71
     1
  0
GROUP
  5
808
102
{ACAD_REACTORS
330
D
102
}
330
D
100
AcDbGroup
300

 70
     1
 71
     1
  0
GROUP
  5
FD6
102
{ACAD_REACTORS
330
D
102
}
330
D
100
AcDbGroup
300

 70
     1
 71
     1
  0
GROUP
  5
FD7
102
{ACAD_REACTORS
330
D
102
}
330
D
100
AcDbGroup
300

 70
     1
 71
     1
  0
GROUP
  5
FD8
102
{ACAD_REACTORS
330
D
102
}
330
D
100
AcDbGroup
300

 70
     1
 71
     1
  0
GROUP
  5
FD9
102
{ACAD_REACTORS
330
D
102
}
330
D
100
AcDbGroup
300

 70
     1
 71
     1
  0
GROUP
  5
576
102
{ACAD_REACTORS
330
D
102
}
330
D
100
AcDbGroup
300

 70
     1
 71
     1
  0
GROUP
  5
FDA
102
{ACAD_REACTORS
330
D
102
}
330
D
100
AcDbGroup
300

 70
     1
 71
     1
  0
GROUP
  5
FDB
102
{ACAD_REACTORS
330
D
102
}
330
D
100
AcDbGroup
300

 70
     1
 71
     1
  0
GROUP
  5
FDC
102
{ACAD_REACTORS
330
D
102
}
330
D
100
AcDbGroup
300

 70
     1
 71
     1
  0
GROUP
  5
FDD
102
{ACAD_REACTORS
330
D
102
}
330
D
100
AcDbGroup
300

 70
     1
 71
     1
  0
GROUP
  5
FDE
102
{ACAD_REACTORS
330
D
102
}
330
D
100
AcDbGroup
300

 70
     1
 71
     1
  0
GROUP
  5
809
102
{ACAD_REACTORS
330
D
102
}
330
D
100
AcDbGroup
300

 70
     1
 71
     1
  0
GROUP
  5
FDF
102
{ACAD_REACTORS
330
D
102
}
330
D
100
AcDbGroup
300

 70
     1
 71
     1
  0
GROUP
  5
FE0
102
{ACAD_REACTORS
330
D
102
}
330
D
100
AcDbGroup
300

 70
     1
 71
     1
  0
GROUP
  5
FE1
102
{ACAD_REACTORS
330
D
102
}
330
D
100
AcDbGroup
300

 70
     1
 71
     1
  0
GROUP
  5
11CA
102
{ACAD_REACTORS
330
D
102
}
330
D
100
AcDbGroup
300

 70
     1
 71
     1
340
1123
340
1122
340
1124
  0
GROUP
  5
11CB
102
{ACAD_REACTORS
330
D
102
}
330
D
100
AcDbGroup
300

 70
     1
 71
     1
340
1126
340
1125
340
1127
  0
GROUP
  5
86
102
{ACAD_REACTORS
330
D
102
}
330
D
100
AcDbGroup
300

 70
     1
 71
     1
  0
GROUP
  5
11CC
102
{ACAD_REACTORS
330
D
102
}
330
D
100
AcDbGroup
300

 70
     1
 71
     1
340
1129
340
1128
340
112A
  0
GROUP
  5
11CD
102
{ACAD_REACTORS
330
D
102
}
330
D
100
AcDbGroup
300

 70
     1
 71
     1
340
112C
340
112B
340
112D
  0
GROUP
  5
11CE
102
{ACAD_REACTORS
330
D
102
}
330
D
100
AcDbGroup
300

 70
     1
 71
     1
340
112F
340
112E
340
1130
  0
GROUP
  5
11CF
102
{ACAD_REACTORS
330
D
102
}
330
D
100
AcDbGroup
300

 70
     1
 71
     1
340
1132
340
1131
340
1133
  0
GROUP
  5
A2
102
{ACAD_REACTORS
330
D
102
}
330
D
100
AcDbGroup
300

 70
     1
 71
     1
  0
GROUP
  5
11D0
102
{ACAD_REACTORS
330
D
102
}
330
D
100
AcDbGroup
300

 70
     1
 71
     1
340
1135
340
1134
340
1136
  0
GROUP
  5
11D1
102
{ACAD_REACTORS
330
D
102
}
330
D
100
AcDbGroup
300

 70
     1
 71
     1
340
1138
340
1137
340
1139
  0
GROUP
  5
11D2
102
{ACAD_REACTORS
330
D
102
}
330
D
100
AcDbGroup
300

 70
     1
 71
     1
340
113B
340
113A
340
113C
  0
GROUP
  5
11D3
102
{ACAD_REACTORS
330
D
102
}
330
D
100
AcDbGroup
300

 70
     1
 71
     1
340
113E
340
113D
340
113F
  0
GROUP
  5
11D4
102
{ACAD_REACTORS
330
D
102
}
330
D
100
AcDbGroup
300

 70
     1
 71
     1
340
1141
340
1140
340
1142
  0
GROUP
  5
11D5
102
{ACAD_REACTORS
330
D
102
}
330
D
100
AcDbGroup
300

 70
     1
 71
     1
340
1144
340
1143
340
1145
  0
GROUP
  5
57A
102
{ACAD_REACTORS
330
D
102
}
330
D
100
AcDbGroup
300

 70
     1
 71
     1
  0
GROUP
  5
11D6
102
{ACAD_REACTORS
330
D
102
}
330
D
100
AcDbGroup
300

 70
     1
 71
     1
340
1147
340
1146
340
1148
  0
GROUP
  5
11D7
102
{ACAD_REACTORS
330
D
102
}
330
D
100
AcDbGroup
300

 70
     1
 71
     1
340
114A
340
1149
340
114B
  0
GROUP
  5
11D8
102
{ACAD_REACTORS
330
D
102
}
330
D
100
AcDbGroup
300

 70
     1
 71
     1
340
114D
340
114C
340
114E
  0
GROUP
  5
DA
102
{ACAD_REACTORS
330
D
102
}
330
D
100
AcDbGroup
300

 70
     1
 71
     1
  0
GROUP
  5
11D9
102
{ACAD_REACTORS
330
D
102
}
330
D
100
AcDbGroup
300

 70
     1
 71
     1
340
1150
340
114F
340
1151
  0
GROUP
  5
11DA
102
{ACAD_REACTORS
330
D
102
}
330
D
100
AcDbGroup
300

 70
     1
 71
     1
340
1153
340
1152
340
1154
  0
GROUP
  5
11DB
102
{ACAD_REACTORS
330
D
102
}
330
D
100
AcDbGroup
300

 70
     1
 71
     1
340
1156
340
1155
340
1157
  0
GROUP
  5
11DC
102
{ACAD_REACTORS
330
D
102
}
330
D
100
AcDbGroup
300

 70
     1
 71
     1
340
1159
340
1158
340
115A
  0
GROUP
  5
11DD
102
{ACAD_REACTORS
330
D
102
}
330
D
100
AcDbGroup
300

 70
     1
 71
     1
340
115C
340
115B
340
115D
  0
GROUP
  5
11DE
102
{ACAD_REACTORS
330
D
102
}
330
D
100
AcDbGroup
300

 70
     1
 71
     1
340
115F
340
115E
340
1160
  0
GROUP
  5
11DF
102
{ACAD_REACTORS
330
D
102
}
330
D
100
AcDbGroup
300

 70
     1
 71
     1
340
1162
340
1161
340
1163
  0
GROUP
  5
57E
102
{ACAD_REACTORS
330
D
102
}
330
D
100
AcDbGroup
300

 70
     1
 71
     1
340
57C
340
57B
340
57D
  0
GROUP
  5
11E0
102
{ACAD_REACTORS
330
D
102
}
330
D
100
AcDbGroup
300

 70
     1
 71
     1
340
1165
340
1164
340
1166
  0
GROUP
  5
11E1
102
{ACAD_REACTORS
330
D
102
}
330
D
100
AcDbGroup
300

 70
     1
 71
     1
340
1168
340
1167
340
1169
  0
GROUP
  5
80A
102
{ACAD_REACTORS
330
D
102
}
330
D
100
AcDbGroup
300

 70
     1
 71
     1
  0
GROUP
  5
11E2
102
{ACAD_REACTORS
330
D
102
}
330
D
100
AcDbGroup
300

 70
     1
 71
     1
340
116B
340
116A
340
116C
  0
GROUP
  5
11E3
102
{ACAD_REACTORS
330
D
102
}
330
D
100
AcDbGroup
300

 70
     1
 71
     1
340
116E
340
116D
340
116F
  0
GROUP
  5
11E4
102
{ACAD_REACTORS
330
D
102
}
330
D
100
AcDbGroup
300

 70
     1
 71
     1
340
1171
340
1170
340
1172
  0
GROUP
  5
11E5
102
{ACAD_REACTORS
330
D
102
}
330
D
100
AcDbGroup
300

 70
     1
 71
     1
340
1174
340
1173
340
1175
  0
GROUP
  5
11E6
102
{ACAD_REACTORS
330
D
102
}
330
D
100
AcDbGroup
300

 70
     1
 71
     1
340
1177
340
1176
340
1178
  0
GROUP
  5
11E7
102
{ACAD_REACTORS
330
D
102
}
330
D
100
AcDbGroup
300

 70
     1
 71
     1
340
117A
340
1179
340
117B
  0
GROUP
  5
11E8
102
{ACAD_REACTORS
330
D
102
}
330
D
100
AcDbGroup
300

 70
     1
 71
     1
340
117D
340
117C
340
117E
  0
GROUP
  5
11E9
102
{ACAD_REACTORS
330
D
102
}
330
D
100
AcDbGroup
300

 70
     1
 71
     1
340
1180
340
117F
340
1181
  0
GROUP
  5
582
102
{ACAD_REACTORS
330
D
102
}
330
D
100
AcDbGroup
300

 70
     1
 71
     1
340
580
340
57F
340
581
  0
GROUP
  5
11EA
102
{ACAD_REACTORS
330
D
102
}
330
D
100
AcDbGroup
300

 70
     1
 71
     1
340
1183
340
1182
340
1184
  0
GROUP
  5
80B
102
{ACAD_REACTORS
330
D
102
}
330
D
100
AcDbGroup
300

 70
     1
 71
     1
  0
GROUP
  5
11EB
102
{ACAD_REACTORS
330
D
102
}
330
D
100
AcDbGroup
300

 70
     1
 71
     1
340
1186
340
1185
340
1187
  0
GROUP
  5
11EC
102
{ACAD_REACTORS
330
D
102
}
330
D
100
AcDbGroup
300

 70
     1
 71
     1
340
1189
340
1188
340
118A
  0
GROUP
  5
11ED
102
{ACAD_REACTORS
330
D
102
}
330
D
100
AcDbGroup
300

 70
     1
 71
     1
340
118C
340
118B
340
118D
  0
GROUP
  5
11EE
102
{ACAD_REACTORS
330
D
102
}
330
D
100
AcDbGroup
300

 70
     1
 71
     1
340
118F
340
118E
340
1190
  0
GROUP
  5
11EF
102
{ACAD_REACTORS
330
D
102
}
330
D
100
AcDbGroup
300

 70
     1
 71
     1
340
1192
340
1191
340
1193
  0
GROUP
  5
11F0
102
{ACAD_REACTORS
330
D
102
}
330
D
100
AcDbGroup
300

 70
     1
 71
     1
340
1195
340
1194
340
1196
  0
GROUP
  5
11F1
102
{ACAD_REACTORS
330
D
102
}
330
D
100
AcDbGroup
300

 70
     1
 71
     1
340
1198
340
1197
340
1199
  0
GROUP
  5
11F2
102
{ACAD_REACTORS
330
D
102
}
330
D
100
AcDbGroup
300

 70
     1
 71
     1
340
119B
340
119A
340
119C
  0
GROUP
  5
11F3
102
{ACAD_REACTORS
330
D
102
}
330
D
100
AcDbGroup
300

 70
     1
 71
     1
340
119E
340
119D
340
119F
  0
GROUP
  5
586
102
{ACAD_REACTORS
330
D
102
}
330
D
100
AcDbGroup
300

 70
     1
 71
     1
340
584
340
583
340
585
  0
GROUP
  5
546
102
{ACAD_REACTORS
330
D
102
}
330
D
100
AcDbGroup
300

 70
     1
 71
     1
  0
GROUP
  5
80C
102
{ACAD_REACTORS
330
D
102
}
330
D
100
AcDbGroup
300

 70
     1
 71
     1
  0
GROUP
  5
11F4
102
{ACAD_REACTORS
330
D
102
}
330
D
100
AcDbGroup
300

 70
     1
 71
     1
340
11A1
340
11A0
340
11A2
  0
GROUP
  5
11F5
102
{ACAD_REACTORS
330
D
102
}
330
D
100
AcDbGroup
300

 70
     1
 71
     1
340
11A4
340
11A3
340
11A5
  0
GROUP
  5
11F6
102
{ACAD_REACTORS
330
D
102
}
330
D
100
AcDbGroup
300

 70
     1
 71
     1
340
11A7
340
11A6
340
11A8
  0
GROUP
  5
11F7
102
{ACAD_REACTORS
330
D
102
}
330
D
100
AcDbGroup
300

 70
     1
 71
     1
340
11AA
340
11A9
340
11AB
  0
GROUP
  5
11F8
102
{ACAD_REACTORS
330
D
102
}
330
D
100
AcDbGroup
300

 70
     1
 71
     1
340
11AD
340
11AC
340
11AE
  0
GROUP
  5
11F9
102
{ACAD_REACTORS
330
D
102
}
330
D
100
AcDbGroup
300

 70
     1
 71
     1
340
11B0
340
11AF
340
11B1
  0
GROUP
  5
11FA
102
{ACAD_REACTORS
330
D
102
}
330
D
100
AcDbGroup
300

 70
     1
 71
     1
340
11B3
340
11B2
340
11B4
  0
GROUP
  5
11FB
102
{ACAD_REACTORS
330
D
102
}
330
D
100
AcDbGroup
300

 70
     1
 71
     1
340
11B6
340
11B5
340
11B7
  0
GROUP
  5
11FC
102
{ACAD_REACTORS
330
D
102
}
330
D
100
AcDbGroup
300

 70
     1
 71
     1
340
11B9
340
11B8
340
11BA
  0
GROUP
  5
11FD
102
{ACAD_REACTORS
330
D
102
}
330
D
100
AcDbGroup
300

 70
     1
 71
     1
340
11BC
340
11BB
340
11BD
  0
GROUP
  5
80D
102
{ACAD_REACTORS
330
D
102
}
330
D
100
AcDbGroup
300

 70
     1
 71
     1
  0
GROUP
  5
58A
102
{ACAD_REACTORS
330
D
102
}
330
D
100
AcDbGroup
300

 70
     1
 71
     1
340
588
340
587
340
589
  0
GROUP
  5
11FE
102
{ACAD_REACTORS
330
D
102
}
330
D
100
AcDbGroup
300

 70
     1
 71
     1
340
11BF
340
11BE
340
11C0
  0
GROUP
  5
11FF
102
{ACAD_REACTORS
330
D
102
}
330
D
100
AcDbGroup
300

 70
     1
 71
     1
340
11C2
340
11C1
340
11C3
  0
GROUP
  5
1200
102
{ACAD_REACTORS
330
D
102
}
330
D
100
AcDbGroup
300

 70
     1
 71
     1
340
11C5
340
11C4
340
11C6
  0
GROUP
  5
1201
102
{ACAD_REACTORS
330
D
102
}
330
D
100
AcDbGroup
300

 70
     1
 71
     1
340
11C8
340
11C7
340
11C9
  0
GROUP
  5
52A
102
{ACAD_REACTORS
330
D
102
}
330
D
100
AcDbGroup
300

 70
     1
 71
     1
  0
GROUP
  5
58E
102
{ACAD_REACTORS
330
D
102
}
330
D
100
AcDbGroup
300

 70
     1
 71
     1
340
58C
340
58B
340
58D
  0
GROUP
  5
592
102
{ACAD_REACTORS
330
D
102
}
330
D
100
AcDbGroup
300

 70
     1
 71
     1
340
590
340
58F
340
591
  0
GROUP
  5
596
102
{ACAD_REACTORS
330
D
102
}
330
D
100
AcDbGroup
300

 70
     1
 71
     1
340
594
340
593
340
595
  0
GROUP
  5
59A
102
{ACAD_REACTORS
330
D
102
}
330
D
100
AcDbGroup
300

 70
     1
 71
     1
340
598
340
597
340
599
  0
GROUP
  5
80E
102
{ACAD_REACTORS
330
D
102
}
330
D
100
AcDbGroup
300

 70
     1
 71
     1
  0
GROUP
  5
59E
102
{ACAD_REACTORS
330
D
102
}
330
D
100
AcDbGroup
300

 70
     1
 71
     1
340
59C
340
59B
340
59D
  0
GROUP
  5
C2
102
{ACAD_REACTORS
330
D
102
}
330
D
100
AcDbGroup
300

 70
     1
 71
     1
  0
GROUP
  5
5A2
102
{ACAD_REACTORS
330
D
102
}
330
D
100
AcDbGroup
300

 70
     1
 71
     1
340
5A0
340
59F
340
5A1
  0
GROUP
  5
5A6
102
{ACAD_REACTORS
330
D
102
}
330
D
100
AcDbGroup
300

 70
     1
 71
     1
340
5A4
340
5A3
340
5A5
  0
GROUP
  5
5AA
102
{ACAD_REACTORS
330
D
102
}
330
D
100
AcDbGroup
300

 70
     1
 71
     1
340
5A8
340
5A7
340
5A9
  0
GROUP
  5
5AE
102
{ACAD_REACTORS
330
D
102
}
330
D
100
AcDbGroup
300

 70
     1
 71
     1
340
5AC
340
5AB
340
5AD
  0
GROUP
  5
52E
102
{ACAD_REACTORS
330
D
102
}
330
D
100
AcDbGroup
300

 70
     1
 71
     1
  0
GROUP
  5
5B2
102
{ACAD_REACTORS
330
D
102
}
330
D
100
AcDbGroup
300

 70
     1
 71
     1
340
5B0
340
5AF
340
5B1
  0
GROUP
  5
5B6
102
{ACAD_REACTORS
330
D
102
}
330
D
100
AcDbGroup
300

 70
     1
 71
     1
340
5B4
340
5B3
340
5B5
  0
GROUP
  5
5BA
102
{ACAD_REACTORS
330
D
102
}
330
D
100
AcDbGroup
300

 70
     1
 71
     1
340
5B8
340
5B7
340
5B9
  0
GROUP
  5
80F
102
{ACAD_REACTORS
330
D
102
}
330
D
100
AcDbGroup
300

 70
     1
 71
     1
  0
GROUP
  5
5BE
102
{ACAD_REACTORS
330
D
102
}
330
D
100
AcDbGroup
300

 70
     1
 71
     1
340
5BC
340
5BB
340
5BD
  0
GROUP
  5
5C2
102
{ACAD_REACTORS
330
D
102
}
330
D
100
AcDbGroup
300

 70
     1
 71
     1
340
5C0
340
5BF
340
5C1
  0
GROUP
  5
5C6
102
{ACAD_REACTORS
330
D
102
}
330
D
100
AcDbGroup
300

 70
     1
 71
     1
340
5C4
340
5C3
340
5C5
  0
GROUP
  5
C6
102
{ACAD_REACTORS
330
D
102
}
330
D
100
AcDbGroup
300

 70
     1
 71
     1
  0
GROUP
  5
5CA
102
{ACAD_REACTORS
330
D
102
}
330
D
100
AcDbGroup
300

 70
     1
 71
     1
340
5C8
340
5C7
340
5C9
  0
GROUP
  5
5CE
102
{ACAD_REACTORS
330
D
102
}
330
D
100
AcDbGroup
300

 70
     1
 71
     1
340
5CC
340
5CB
340
5CD
  0
GROUP
  5
5D2
102
{ACAD_REACTORS
330
D
102
}
330
D
100
AcDbGroup
300

 70
     1
 71
     1
340
5D0
340
5CF
340
5D1
  0
GROUP
  5
532
102
{ACAD_REACTORS
330
D
102
}
330
D
100
AcDbGroup
300

 70
     1
 71
     1
  0
GROUP
  5
5D6
102
{ACAD_REACTORS
330
D
102
}
330
D
100
AcDbGroup
300

 70
     1
 71
     1
340
5D4
340
5D3
340
5D5
  0
GROUP
  5
5DA
102
{ACAD_REACTORS
330
D
102
}
330
D
100
AcDbGroup
300

 70
     1
 71
     1
340
5D8
340
5D7
340
5D9
  0
GROUP
  5
54E
102
{ACAD_REACTORS
330
D
102
}
330
D
100
AcDbGroup
300

 70
     1
 71
     1
  0
GROUP
  5
5DE
102
{ACAD_REACTORS
330
D
102
}
330
D
100
AcDbGroup
300

 70
     1
 71
     1
340
5DC
340
5DB
340
5DD
  0
GROUP
  5
5E2
102
{ACAD_REACTORS
330
D
102
}
330
D
100
AcDbGroup
300

 70
     1
 71
     1
340
5E0
340
5DF
340
5E1
  0
GROUP
  5
5E6
102
{ACAD_REACTORS
330
D
102
}
330
D
100
AcDbGroup
300

 70
     1
 71
     1
340
5E4
340
5E3
340
5E5
  0
GROUP
  5
5EA
102
{ACAD_REACTORS
330
D
102
}
330
D
100
AcDbGroup
300

 70
     1
 71
     1
340
5E8
340
5E7
340
5E9
  0
GROUP
  5
5EE
102
{ACAD_REACTORS
330
D
102
}
330
D
100
AcDbGroup
300

 70
     1
 71
     1
340
5EC
340
5EB
340
5ED
  0
GROUP
  5
CA
102
{ACAD_REACTORS
330
D
102
}
330
D
100
AcDbGroup
300

 70
     1
 71
     1
  0
GROUP
  5
5F2
102
{ACAD_REACTORS
330
D
102
}
330
D
100
AcDbGroup
300

 70
     1
 71
     1
340
5F0
340
5EF
340
5F1
  0
GROUP
  5
7D9
102
{ACAD_REACTORS
330
D
102
}
330
D
100
AcDbGroup
300

 70
     1
 71
     1
  0
GROUP
  5
536
102
{ACAD_REACTORS
330
D
102
}
330
D
100
AcDbGroup
300

 70
     1
 71
     1
  0
GROUP
  5
7DA
102
{ACAD_REACTORS
330
D
102
}
330
D
100
AcDbGroup
300

 70
     1
 71
     1
  0
GROUP
  5
810
102
{ACAD_REACTORS
330
D
102
}
330
D
100
AcDbGroup
300

 70
     1
 71
     1
  0
GROUP
  5
7DB
102
{ACAD_REACTORS
330
D
102
}
330
D
100
AcDbGroup
300

 70
     1
 71
     1
  0
GROUP
  5
7DC
102
{ACAD_REACTORS
330
D
102
}
330
D
100
AcDbGroup
300

 70
     1
 71
     1
  0
GROUP
  5
7DD
102
{ACAD_REACTORS
330
D
102
}
330
D
100
AcDbGroup
300

 70
     1
 71
     1
  0
GROUP
  5
7DE
102
{ACAD_REACTORS
330
D
102
}
330
D
100
AcDbGroup
300

 70
     1
 71
     1
  0
GROUP
  5
7DF
102
{ACAD_REACTORS
330
D
102
}
330
D
100
AcDbGroup
300

 70
     1
 71
     1
  0
GROUP
  5
7E0
102
{ACAD_REACTORS
330
D
102
}
330
D
100
AcDbGroup
300

 70
     1
 71
     1
  0
GROUP
  5
7E1
102
{ACAD_REACTORS
330
D
102
}
330
D
100
AcDbGroup
300

 70
     1
 71
     1
  0
GROUP
  5
6A
102
{ACAD_REACTORS
330
D
102
}
330
D
100
AcDbGroup
300

 70
     1
 71
     1
  0
GROUP
  5
7E2
102
{ACAD_REACTORS
330
D
102
}
330
D
100
AcDbGroup
300

 70
     1
 71
     1
  0
GROUP
  5
53A
102
{ACAD_REACTORS
330
D
102
}
330
D
100
AcDbGroup
300

 70
     1
 71
     1
  0
GROUP
  5
4E
102
{ACAD_REACTORS
330
D
102
}
330
D
100
AcDbGroup
300

 70
     1
 71
     1
  0
GROUP
  5
7E3
102
{ACAD_REACTORS
330
D
102
}
330
D
100
AcDbGroup
300

 70
     1
 71
     1
  0
GROUP
  5
7E4
102
{ACAD_REACTORS
330
D
102
}
330
D
100
AcDbGroup
300

 70
     1
 71
     1
  0
GROUP
  5
7E5
102
{ACAD_REACTORS
330
D
102
}
330
D
100
AcDbGroup
300

 70
     1
 71
     1
  0
GROUP
  5
7E6
102
{ACAD_REACTORS
330
D
102
}
330
D
100
AcDbGroup
300

 70
     1
 71
     1
  0
GROUP
  5
7E7
102
{ACAD_REACTORS
330
D
102
}
330
D
100
AcDbGroup
300

 70
     1
 71
     1
  0
GROUP
  5
7E8
102
{ACAD_REACTORS
330
D
102
}
330
D
100
AcDbGroup
300

 70
     1
 71
     1
  0
GROUP
  5
7E9
102
{ACAD_REACTORS
330
D
102
}
330
D
100
AcDbGroup
300

 70
     1
 71
     1
  0
GROUP
  5
7EA
102
{ACAD_REACTORS
330
D
102
}
330
D
100
AcDbGroup
300

 70
     1
 71
     1
  0
GROUP
  5
7EB
102
{ACAD_REACTORS
330
D
102
}
330
D
100
AcDbGroup
300

 70
     1
 71
     1
  0
GROUP
  5
CE
102
{ACAD_REACTORS
330
D
102
}
330
D
100
AcDbGroup
300

 70
     1
 71
     1
  0
GROUP
  5
DE
102
{ACAD_REACTORS
330
D
102
}
330
D
100
AcDbGroup
300

 70
     1
 71
     1
  0
GROUP
  5
53E
102
{ACAD_REACTORS
330
D
102
}
330
D
100
AcDbGroup
300

 70
     1
 71
     1
  0
GROUP
  5
7EC
102
{ACAD_REACTORS
330
D
102
}
330
D
100
AcDbGroup
300

 70
     1
 71
     1
  0
GROUP
  5
7ED
102
{ACAD_REACTORS
330
D
102
}
330
D
100
AcDbGroup
300

 70
     1
 71
     1
  0
GROUP
  5
7EE
102
{ACAD_REACTORS
330
D
102
}
330
D
100
AcDbGroup
300

 70
     1
 71
     1
  0
GROUP
  5
7EF
102
{ACAD_REACTORS
330
D
102
}
330
D
100
AcDbGroup
300

 70
     1
 71
     1
  0
GROUP
  5
7F0
102
{ACAD_REACTORS
330
D
102
}
330
D
100
AcDbGroup
300

 70
     1
 71
     1
  0
GROUP
  5
7F1
102
{ACAD_REACTORS
330
D
102
}
330
D
100
AcDbGroup
300

 70
     1
 71
     1
  0
GROUP
  5
7F2
102
{ACAD_REACTORS
330
D
102
}
330
D
100
AcDbGroup
300

 70
     1
 71
     1
  0
GROUP
  5
7F3
102
{ACAD_REACTORS
330
D
102
}
330
D
100
AcDbGroup
300

 70
     1
 71
     1
  0
GROUP
  5
7F4
102
{ACAD_REACTORS
330
D
102
}
330
D
100
AcDbGroup
300

 70
     1
 71
     1
  0
GROUP
  5
8A
102
{ACAD_REACTORS
330
D
102
}
330
D
100
AcDbGroup
300

 70
     1
 71
     1
  0
GROUP
  5
7F5
102
{ACAD_REACTORS
330
D
102
}
330
D
100
AcDbGroup
300

 70
     1
 71
     1
  0
GROUP
  5
542
102
{ACAD_REACTORS
330
D
102
}
330
D
100
AcDbGroup
300

 70
     1
 71
     1
  0
GROUP
  5
D2
102
{ACAD_REACTORS
330
D
102
}
330
D
100
AcDbGroup
300

 70
     1
 71
     1
  0
GROUP
  5
7F6
102
{ACAD_REACTORS
330
D
102
}
330
D
100
AcDbGroup
300

 70
     1
 71
     1
  0
GROUP
  5
7F7
102
{ACAD_REACTORS
330
D
102
}
330
D
100
AcDbGroup
300

 70
     1
 71
     1
  0
GROUP
  5
7F8
102
{ACAD_REACTORS
330
D
102
}
330
D
100
AcDbGroup
300

 70
     1
 71
     1
  0
GROUP
  5
7F9
102
{ACAD_REACTORS
330
D
102
}
330
D
100
AcDbGroup
300

 70
     1
 71
     1
  0
GROUP
  5
7FA
102
{ACAD_REACTORS
330
D
102
}
330
D
100
AcDbGroup
300

 70
     1
 71
     1
  0
GROUP
  5
7FB
102
{ACAD_REACTORS
330
D
102
}
330
D
100
AcDbGroup
300

 70
     1
 71
     1
  0
GROUP
  5
7FC
102
{ACAD_REACTORS
330
D
102
}
330
D
100
AcDbGroup
300

 70
     1
 71
     1
  0
GROUP
  5
E2
102
{ACAD_REACTORS
330
D
102
}
330
D
100
AcDbGroup
300

 70
     1
 71
     1
  0
GROUP
  5
7FD
102
{ACAD_REACTORS
330
D
102
}
330
D
100
AcDbGroup
300

 70
     1
 71
     1
  0
GROUP
  5
7FE
102
{ACAD_REACTORS
330
D
102
}
330
D
100
AcDbGroup
300

 70
     1
 71
     1
  0
GROUP
  5
7FF
102
{ACAD_REACTORS
330
D
102
}
330
D
100
AcDbGroup
300

 70
     1
 71
     1
  0
GROUP
  5
10D
102
{ACAD_REACTORS
330
D
102
}
330
D
100
AcDbGroup
300

 70
     1
 71
     1
  0
GROUP
  5
21A
102
{ACAD_REACTORS
330
D
102
}
330
D
100
AcDbGroup
300

 70
     1
 71
     1
  0
GROUP
  5
241
102
{ACAD_REACTORS
330
D
102
}
330
D
100
AcDbGroup
300

 70
     1
 71
     1
  0
GROUP
  5
6E
102
{ACAD_REACTORS
330
D
102
}
330
D
100
AcDbGroup
300

 70
     1
 71
     1
  0
GROUP
  5
247
102
{ACAD_REACTORS
330
D
102
}
330
D
100
AcDbGroup
300

 70
     1
 71
     1
  0
GROUP
  5
BE
102
{ACAD_REACTORS
330
D
102
}
330
D
100
AcDbGroup
300

 70
     1
 71
     1
  0
GROUP
  5
A6
102
{ACAD_REACTORS
330
D
102
}
330
D
100
AcDbGroup
300

 70
     1
 71
     1
  0
GROUP
  5
248
102
{ACAD_REACTORS
330
D
102
}
330
D
100
AcDbGroup
300

 70
     1
 71
     1
  0
GROUP
  5
52
102
{ACAD_REACTORS
330
D
102
}
330
D
100
AcDbGroup
300

 70
     1
 71
     1
  0
GROUP
  5
56
102
{ACAD_REACTORS
330
D
102
}
330
D
100
AcDbGroup
300

 70
     1
 71
     1
  0
GROUP
  5
D6
102
{ACAD_REACTORS
330
D
102
}
330
D
100
AcDbGroup
300

 70
     1
 71
     1
  0
GROUP
  5
5A
102
{ACAD_REACTORS
330
D
102
}
330
D
100
AcDbGroup
300

 70
     1
 71
     1
  0
GROUP
  5
46
102
{ACAD_REACTORS
330
D
102
}
330
D
100
AcDbGroup
300

 70
     1
 71
     1
  0
GROUP
  5
5E
102
{ACAD_REACTORS
330
D
102
}
330
D
100
AcDbGroup
300

 70
     1
 71
     1
  0
GROUP
  5
62
102
{ACAD_REACTORS
330
D
102
}
330
D
100
AcDbGroup
300

 70
     1
 71
     1
  0
GROUP
  5
72
102
{ACAD_REACTORS
330
D
102
}
330
D
100
AcDbGroup
300

 70
     1
 71
     1
  0
GROUP
  5
76
102
{ACAD_REACTORS
330
D
102
}
330
D
100
AcDbGroup
300

 70
     1
 71
     1
  0
GROUP
  5
552
102
{ACAD_REACTORS
330
D
102
}
330
D
100
AcDbGroup
300

 70
     1
 71
     1
  0
GROUP
  5
7A
102
{ACAD_REACTORS
330
D
102
}
330
D
100
AcDbGroup
300

 70
     1
 71
     1
  0
GROUP
  5
66
102
{ACAD_REACTORS
330
D
102
}
330
D
100
AcDbGroup
300

 70
     1
 71
     1
  0
GROUP
  5
7E
102
{ACAD_REACTORS
330
D
102
}
330
D
100
AcDbGroup
300

 70
     1
 71
     1
  0
GROUP
  5
800
102
{ACAD_REACTORS
330
D
102
}
330
D
100
AcDbGroup
300

 70
     1
 71
     1
  0
GROUP
  5
82
102
{ACAD_REACTORS
330
D
102
}
330
D
100
AcDbGroup
300

 70
     1
 71
     1
  0
GROUP
  5
8E
102
{ACAD_REACTORS
330
D
102
}
330
D
100
AcDbGroup
300

 70
     1
 71
     1
  0
GROUP
  5
92
102
{ACAD_REACTORS
330
D
102
}
330
D
100
AcDbGroup
300

 70
     1
 71
     1
  0
GROUP
  5
96
102
{ACAD_REACTORS
330
D
102
}
330
D
100
AcDbGroup
300

 70
     1
 71
     1
  0
GROUP
  5
9A
102
{ACAD_REACTORS
330
D
102
}
330
D
100
AcDbGroup
300

 70
     1
 71
     1
  0
GROUP
  5
9E
102
{ACAD_REACTORS
330
D
102
}
330
D
100
AcDbGroup
300

 70
     1
 71
     1
  0
GROUP
  5
456
102
{ACAD_REACTORS
330
D
102
}
330
D
100
AcDbGroup
300

 70
     1
 71
     1
340
454
340
453
340
455
  0
GROUP
  5
556
102
{ACAD_REACTORS
330
D
102
}
330
D
100
AcDbGroup
300

 70
     1
 71
     1
  0
GROUP
  5
45A
102
{ACAD_REACTORS
330
D
102
}
330
D
100
AcDbGroup
300

 70
     1
 71
     1
340
458
340
457
340
459
  0
GROUP
  5
45E
102
{ACAD_REACTORS
330
D
102
}
330
D
100
AcDbGroup
300

 70
     1
 71
     1
340
45C
340
45B
340
45D
  0
GROUP
  5
801
102
{ACAD_REACTORS
330
D
102
}
330
D
100
AcDbGroup
300

 70
     1
 71
     1
  0
GROUP
  5
AA
102
{ACAD_REACTORS
330
D
102
}
330
D
100
AcDbGroup
300

 70
     1
 71
     1
  0
GROUP
  5
462
102
{ACAD_REACTORS
330
D
102
}
330
D
100
AcDbGroup
300

 70
     1
 71
     1
340
460
340
45F
340
461
  0
GROUP
  5
466
102
{ACAD_REACTORS
330
D
102
}
330
D
100
AcDbGroup
300

 70
     1
 71
     1
340
464
340
463
340
465
  0
GROUP
  5
46A
102
{ACAD_REACTORS
330
D
102
}
330
D
100
AcDbGroup
300

 70
     1
 71
     1
340
468
340
467
340
469
  0
GROUP
  5
46E
102
{ACAD_REACTORS
330
D
102
}
330
D
100
AcDbGroup
300

 70
     1
 71
     1
340
46C
340
46B
340
46D
  0
GROUP
  5
472
102
{ACAD_REACTORS
330
D
102
}
330
D
100
AcDbGroup
300

 70
     1
 71
     1
340
470
340
46F
340
471
  0
GROUP
  5
476
102
{ACAD_REACTORS
330
D
102
}
330
D
100
AcDbGroup
300

 70
     1
 71
     1
340
474
340
473
340
475
  0
GROUP
  5
47A
102
{ACAD_REACTORS
330
D
102
}
330
D
100
AcDbGroup
300

 70
     1
 71
     1
340
478
340
477
340
479
  0
GROUP
  5
55A
102
{ACAD_REACTORS
330
D
102
}
330
D
100
AcDbGroup
300

 70
     1
 71
     1
  0
GROUP
  5
47E
102
{ACAD_REACTORS
330
D
102
}
330
D
100
AcDbGroup
300

 70
     1
 71
     1
340
47C
340
47B
340
47D
  0
GROUP
  5
802
102
{ACAD_REACTORS
330
D
102
}
330
D
100
AcDbGroup
300

 70
     1
 71
     1
  0
GROUP
  5
482
102
{ACAD_REACTORS
330
D
102
}
330
D
100
AcDbGroup
300

 70
     1
 71
     1
340
480
340
47F
340
481
  0
GROUP
  5
486
102
{ACAD_REACTORS
330
D
102
}
330
D
100
AcDbGroup
300

 70
     1
 71
     1
340
484
340
483
340
485
  0
GROUP
  5
AE
102
{ACAD_REACTORS
330
D
102
}
330
D
100
AcDbGroup
300

 70
     1
 71
     1
  0
GROUP
  5
48A
102
{ACAD_REACTORS
330
D
102
}
330
D
100
AcDbGroup
300

 70
     1
 71
     1
340
488
340
487
340
489
  0
GROUP
  5
48E
102
{ACAD_REACTORS
330
D
102
}
330
D
100
AcDbGroup
300

 70
     1
 71
     1
340
48C
340
48B
340
48D
  0
GROUP
  5
492
102
{ACAD_REACTORS
330
D
102
}
330
D
100
AcDbGroup
300

 70
     1
 71
     1
340
490
340
48F
340
491
  0
GROUP
  5
496
102
{ACAD_REACTORS
330
D
102
}
330
D
100
AcDbGroup
300

 70
     1
 71
     1
340
494
340
493
340
495
  0
GROUP
  5
49A
102
{ACAD_REACTORS
330
D
102
}
330
D
100
AcDbGroup
300

 70
     1
 71
     1
340
498
340
497
340
499
  0
GROUP
  5
49E
102
{ACAD_REACTORS
330
D
102
}
330
D
100
AcDbGroup
300

 70
     1
 71
     1
340
49C
340
49B
340
49D
  0
GROUP
  5
55E
102
{ACAD_REACTORS
330
D
102
}
330
D
100
AcDbGroup
300

 70
     1
 71
     1
  0
GROUP
  5
803
102
{ACAD_REACTORS
330
D
102
}
330
D
100
AcDbGroup
300

 70
     1
 71
     1
  0
GROUP
  5
4A2
102
{ACAD_REACTORS
330
D
102
}
330
D
100
AcDbGroup
300

 70
     1
 71
     1
340
4A0
340
49F
340
4A1
  0
GROUP
  5
4A6
102
{ACAD_REACTORS
330
D
102
}
330
D
100
AcDbGroup
300

 70
     1
 71
     1
  0
GROUP
  5
4AA
102
{ACAD_REACTORS
330
D
102
}
330
D
100
AcDbGroup
300

 70
     1
 71
     1
  0
GROUP
  5
4AE
102
{ACAD_REACTORS
330
D
102
}
330
D
100
AcDbGroup
300

 70
     1
 71
     1
  0
GROUP
  5
B2
102
{ACAD_REACTORS
330
D
102
}
330
D
100
AcDbGroup
300

 70
     1
 71
     1
  0
GROUP
  5
4B2
102
{ACAD_REACTORS
330
D
102
}
330
D
100
AcDbGroup
300

 70
     1
 71
     1
  0
GROUP
  5
4B6
102
{ACAD_REACTORS
330
D
102
}
330
D
100
AcDbGroup
300

 70
     1
 71
     1
  0
GROUP
  5
4BA
102
{ACAD_REACTORS
330
D
102
}
330
D
100
AcDbGroup
300

 70
     1
 71
     1
  0
GROUP
  5
4BE
102
{ACAD_REACTORS
330
D
102
}
330
D
100
AcDbGroup
300

 70
     1
 71
     1
  0
GROUP
  5
4C2
102
{ACAD_REACTORS
330
D
102
}
330
D
100
AcDbGroup
300

 70
     1
 71
     1
  0
GROUP
  5
804
102
{ACAD_REACTORS
330
D
102
}
330
D
100
AcDbGroup
300

 70
     1
 71
     1
  0
GROUP
  5
562
102
{ACAD_REACTORS
330
D
102
}
330
D
100
AcDbGroup
300

 70
     1
 71
     1
  0
GROUP
  5
4C6
102
{ACAD_REACTORS
330
D
102
}
330
D
100
AcDbGroup
300

 70
     1
 71
     1
  0
GROUP
  5
4CA
102
{ACAD_REACTORS
330
D
102
}
330
D
100
AcDbGroup
300

 70
     1
 71
     1
  0
GROUP
  5
4CE
102
{ACAD_REACTORS
330
D
102
}
330
D
100
AcDbGroup
300

 70
     1
 71
     1
  0
GROUP
  5
4D2
102
{ACAD_REACTORS
330
D
102
}
330
D
100
AcDbGroup
300

 70
     1
 71
     1
  0
GROUP
  5
4D6
102
{ACAD_REACTORS
330
D
102
}
330
D
100
AcDbGroup
300

 70
     1
 71
     1
  0
GROUP
  5
4A
102
{ACAD_REACTORS
330
D
102
}
330
D
100
AcDbGroup
300

 70
     1
 71
     1
  0
GROUP
  5
4DA
102
{ACAD_REACTORS
330
D
102
}
330
D
100
AcDbGroup
300

 70
     1
 71
     1
  0
GROUP
  5
4DE
102
{ACAD_REACTORS
330
D
102
}
330
D
100
AcDbGroup
300

 70
     1
 71
     1
  0
GROUP
  5
4E2
102
{ACAD_REACTORS
330
D
102
}
330
D
100
AcDbGroup
300

 70
     1
 71
     1
  0
LAYOUT
  5
22
102
{ACAD_XDICTIONARY
360
1225
102
}
102
{ACAD_REACTORS
330
1A
102
}
330
1A
100
AcDbPlotSettings
  1

  2
Plotter A0
  4

  6

 40
0.0
 41
0.0
 42
0.0
 43
0.0
 44
0.0
 45
0.0
 46
0.0
 47
0.0
 48
0.0
 49
0.0
140
0.0
141
0.0
142
1.0
143
1.0
 70
   688
 72
     0
 73
     0
 74
     5
  7

 75
    16
147
1.0
148
0.0
149
0.0
100
AcDbLayout
  1
Layout1
 70
     1
 71
     1
 10
0.0
 20
0.0
 11
420.0
 21
297.0
 12
0.0
 22
0.0
 32
0.0
 14
1.000000000000000E+20
 24
1.000000000000000E+20
 34
1.000000000000000E+20
 15
-1.000000000000000E+20
 25
-1.000000000000000E+20
 35
-1.000000000000000E+20
146
0.0
 13
0.0
 23
0.0
 33
0.0
 16
1.0
 26
0.0
 36
0.0
 17
0.0
 27
1.0
 37
0.0
 76
     0
330
1F
  0
LAYOUT
  5
2A
102
{ACAD_XDICTIONARY
360
1229
102
}
102
{ACAD_REACTORS
330
1A
102
}
330
1A
100
AcDbPlotSettings
  1

  2
Plotter A0
  4

  6

 40
0.0
 41
0.0
 42
0.0
 43
0.0
 44
0.0
 45
0.0
 46
0.0
 47
0.0
 48
0.0
 49
0.0
140
0.0
141
0.0
142
1.0
143
1.0
 70
   688
 72
     0
 73
     0
 74
     5
  7

 75
    16
147
1.0
148
0.0
149
0.0
100
AcDbLayout
  1
Layout2
 70
     1
 71
     2
 10
0.0
 20
0.0
 11
12.0
 21
9.0
 12
0.0
 22
0.0
 32
0.0
 14
0.0
 24
0.0
 34
0.0
 15
0.0
 25
0.0
 35
0.0
146
0.0
 13
0.0
 23
0.0
 33
0.0
 16
1.0
 26
0.0
 36
0.0
 17
0.0
 27
1.0
 37
0.0
 76
     0
330
27
  0
LAYOUT
  5
26
102
{ACAD_XDICTIONARY
360
1227
102
}
102
{ACAD_REACTORS
330
1A
102
}
330
1A
100
AcDbPlotSettings
  1

  2
Plotter A0
  4
A4
  6

 40
3.174999952316284
 41
3.174999952316284
 42
3.175003051757812
 43
3.17498779296875
 44
209.9027709960938
 45
297.0388793945312
 46
0.0
 47
0.0
 48
0.0
 49
0.0
140
0.0
141
0.0
142
1.0
143
0.9084247383563887
 70
 11952
 72
     1
 73
     1
 74
     0
  7

 75
     0
147
1.100806657697695
148
-137.7270354419955
149
93.00112600950743
100
AcDbLayout
  1
Model
 70
     1
 71
     0
 10
0.0
 20
0.0
 11
12.0
 21
9.0
 12
0.0
 22
0.0
 32
0.0
 14
0.0
 24
0.0
 34
0.0
 15
0.0
 25
0.0
 35
0.0
146
0.0
 13
0.0
 23
0.0
 33
0.0
 16
1.0
 26
0.0
 36
0.0
 17
0.0
 27
1.0
 37
0.0
 76
     0
330
23
1001
ACAD_PSEXT
1000
Plotter A0
1000
CCP TechJET 720c 5636(Roll)
1000
LPT1:
1000

1070
     0
  0
MLINESTYLE
  5
18
102
{ACAD_REACTORS
330
17
102
}
330
17
100
AcDbMlineStyle
  2
STANDARD
 70
     0
  3

 62
   256
 51
90.0
 52
90.0
 71
     2
 49
0.5
 62
   256
  6
BYLAYER
 49
-0.5
 62
   256
  6
BYLAYER
  0
ACDBPLACEHOLDER
  5
F
102
{ACAD_REACTORS
330
E
102
}
330
E
  0
TABLESTYLE
  5
1E
102
{ACAD_REACTORS
330
1D
102
}
330
1D
100
AcDbTableStyle
  3
Standard
 70
     0
 71
     0
 40
1.5
 41
1.5
280
     0
281
     0
  7
Standard
140
4.5
170
     2
 62
     0
 63
     7
283
     0
274
    -2
284
     1
 64
     0
275
    -2
285
     1
 65
     0
276
    -2
286
     1
 66
     0
277
    -2
287
     1
 67
     0
278
    -2
288
     1
 68
     0
279
    -2
289
     1
 69
     0
  7
Standard
140
6.0
170
     5
 62
     0
 63
     7
283
     0
274
    -2
284
     1
 64
     0
275
    -2
285
     1
 65
     0
276
    -2
286
     1
 66
     0
277
    -2
287
     1
 67
     0
278
    -2
288
     1
 68
     0
279
    -2
289
     1
 69
     0
  7
Standard
140
4.5
170
     5
 62
     0
 63
     7
283
     0
274
    -2
284
     1
 64
     0
275
    -2
285
     1
 65
     0
276
    -2
286
     1
 66
     0
277
    -2
287
     1
 67
     0
278
    -2
288
     1
 68
     0
279
    -2
289
     1
 69
     0
  0
DICTIONARYVAR
  5
283
102
{ACAD_REACTORS
330
282
102
}
330
282
100
DictionaryVariables
280
     0
  1
STANDARD
  0
DICTIONARYVAR
  5
285
102
{ACAD_REACTORS
330
282
102
}
330
282
100
DictionaryVariables
280
     0
  1
2
  0
DICTIONARYVAR
  5
284
102
{ACAD_REACTORS
330
282
102
}
330
282
100
DictionaryVariables
280
     0
  1
1
  0
DICTIONARYVAR
  5
286
102
{ACAD_REACTORS
330
282
102
}
330
282
100
DictionaryVariables
280
     0
  1

  0
DICTIONARY
  5
1225
330
22
100
AcDbDictionary
280
     1
281
     1
  3
ACAD_XREC_ROUNDTRIP
360
1226
  0
DICTIONARY
  5
1229
330
2A
100
AcDbDictionary
280
     1
281
     1
  3
ACAD_XREC_ROUNDTRIP
360
122A
  0
DICTIONARY
  5
1227
330
26
100
AcDbDictionary
280
     1
281
     1
  3
ACAD_XREC_ROUNDTRIP
360
1228
  0
XRECORD
  5
1226
102
{ACAD_REACTORS
330
1225
102
}
330
1225
100
AcDbXrecord
280
     1
102
SHADEPLOT
 70
     0
102
SHADEPLOTRESLEVEL
 70
     2
102
SHADEPLOTCUSTOMDPI
 70
   300
  0
XRECORD
  5
122A
102
{ACAD_REACTORS
330
1229
102
}
330
1229
100
AcDbXrecord
280
     1
102
SHADEPLOT
 70
     0
102
SHADEPLOTRESLEVEL
 70
     2
102
SHADEPLOTCUSTOMDPI
 70
   300
  0
XRECORD
  5
1228
102
{ACAD_REACTORS
330
1227
102
}
330
1227
100
AcDbXrecord
280
     1
102
SHADEPLOT
 70
     0
102
SHADEPLOTRESLEVEL
 70
     2
102
SHADEPLOTCUSTOMDPI
 70
   300
  0
ENDSEC
  0
EOF
