999
dxfrw 0.6.3
  0
SECTION
  2
HEADER
  9
$ACADVER
  1
AC1021
  9
$DWGCODEPAGE
  3
ANSI_1252
  9
$INSBASE
 10
0
 20
0
 30
0
  9
$EXTMIN
 10
-190
 20
-93.3318461538462
 30
0
  9
$EXTMAX
 10
225.18
 20
183.4381760657512
 30
0
  9
$LIMMIN
 10
0
 20
0
  9
$LIMMAX
 10
420
 20
297
  9
$ORTHOMODE
 70
    0
  9
$REGENMODE
 70
    1
  9
$FILLMODE
 70
    1
  9
$QTEXTMODE
 70
    0
  9
$MIRRTEXT
 70
    0
  9
$LTSCALE
 40
1
  9
$ATTMODE
 70
    0
  9
$TEXTSIZE
 40
2.5
  9
$TRACEWID
 40
15.68
  9
$TEXTSTYLE
  7
STANDARD
  9
$CLAYER
  8
Engrave
  9
$CELTYPE
  6
BYLAYER
  9
$CECOLOR
 62
  256
  9
$CELTSCALE
 40
1
  9
$DISPSILH
 70
    0
  9
$DIMSCALE
 40
1
  9
$DIMASZ
 40
2.5
  9
$DIMEXO
 40
0.625
  9
$DIMDLI
 40
3.75
  9
$DIMRND
 40
0
  9
$DIMDLE
 40
0
  9
$DIMEXE
 40
1.25
  9
$DIMTP
 40
0
  9
$DIMTM
 40
0
  9
$DIMTXT
 40
2.5
  9
$DIMCEN
 40
2.5
  9
$DIMTSZ
 40
0
  9
$DIMTOL
 70
    0
  9
$DIMLIM
 70
    0
  9
$DIMTIH
 70
    0
  9
$DIMTOH
 70
    0
  9
$DIMSE1
 70
    0
  9
$DIMSE2
 70
    0
  9
$DIMTAD
 70
    1
  9
$DIMZIN
 70
    8
  9
$DIMBLK
  1

  9
$DIMASO
 70
    1
  9
$DIMSHO
 70
    1
  9
$DIMPOST
  1

  9
$DIMAPOST
  1

  9
$DIMALT
 70
    0
  9
$DIMALTD
 70
    3
  9
$DIMALTF
 40
0.03937
  9
$DIMLFAC
 40
1
  9
$DIMTOFL
 70
    1
  9
$DIMTVP
 40
0
  9
$DIMTIX
 70
    0
  9
$DIMSOXD
 70
    0
  9
$DIMSAH
 70
    0
  9
$DIMBLK1
  1

  9
$DIMBLK2
  1

  9
$DIMSTYLE
  2
STANDARD
  9
$DIMCLRD
 70
    0
  9
$DIMCLRE
 70
    0
  9
$DIMCLRT
 70
    0
  9
$DIMTFAC
 40
1
  9
$DIMGAP
 40
0.625
  9
$DIMJUST
 70
    0
  9
$DIMSD1
 70
    0
  9
$DIMSD2
 70
    0
  9
$DIMTOLJ
 70
    0
  9
$DIMTZIN
 70
    8
  9
$DIMALTZ
 70
    0
  9
$DIMALTTZ
 70
    0
  9
$DIMUPT
 70
    0
  9
$DIMDEC
 70
    2
  9
$DIMTDEC
 70
    2
  9
$DIMALTU
 70
    2
  9
$DIMALTTD
 70
    3
  9
$DIMTXSTY
  7
STANDARD
  9
$DIMAUNIT
 70
    0
  9
$DIMADEC
 70
    0
  9
$DIMALTRND
 40
0
  9
$DIMAZIN
 70
    0
  9
$DIMDSEP
 70
   44
  9
$DIMATFIT
 70
    3
  9
$DIMFRAC
 70
    0
  9
$DIMLDRBLK
  1
STANDARD
  9
$DIMLUNIT
 70
    2
  9
$DIMLWD
 70
   -2
  9
$DIMLWE
 70
   -2
  9
$DIMTMOVE
 70
    0
  9
$DIMFXL
 40
1
  9
$DIMFXLON
 70
    0
  9
$DIMJOGANG
 40
0.7854
  9
$DIMTFILL
 70
    0
  9
$DIMTFILLCLR
 70
    0
  9
$DIMARCSYM
 70
    0
  9
$DIMLTYPE
  6

  9
$DIMLTEX1
  6

  9
$DIMLTEX2
  6

  9
$LUNITS
 70
    2
  9
$LUPREC
 70
    4
  9
$SKETCHINC
 40
1
  9
$FILLETRAD
 40
0
  9
$AUNITS
 70
    0
  9
$AUPREC
 70
    2
  9
$MENU
  1
.
  9
$ELEVATION
 40
0
  9
$PELEVATION
 40
0
  9
$THICKNESS
 40
0
  9
$LIMCHECK
 70
    0
  9
$CHAMFERA
 40
0
  9
$CHAMFERB
 40
0
  9
$CHAMFERC
 40
0
  9
$CHAMFERD
 40
0
  9
$SKPOLY
 70
    0
  9
$USRTIMER
 70
    1
  9
$ANGBASE
 50
0
  9
$ANGDIR
 70
    0
  9
$PDMODE
 70
   34
  9
$PDSIZE
 40
0
  9
$PLINEWID
 40
0
  9
$SPLFRAME
 70
    0
  9
$SPLINETYPE
 70
    2
  9
$SPLINESEGS
 70
    8
  9
$HANDSEED
  5
20000
  9
$SURFTAB1
 70
    6
  9
$SURFTAB2
 70
    6
  9
$SURFTYPE
 70
    6
  9
$SURFU
 70
    6
  9
$SURFV
 70
    6
  9
$UCSBASE
  2

  9
$UCSNAME
  2

  9
$UCSORG
 10
0
 20
0
 30
0
  9
$UCSXDIR
 10
1
 20
0
 30
0
  9
$UCSYDIR
 10
0
 20
1
 30
0
  9
$UCSORTHOREF
  2

  9
$UCSORTHOVIEW
 70
    0
  9
$UCSORGTOP
 10
0
 20
0
 30
0
  9
$UCSORGBOTTOM
 10
0
 20
0
 30
0
  9
$UCSORGLEFT
 10
0
 20
0
 30
0
  9
$UCSORGRIGHT
 10
0
 20
0
 30
0
  9
$UCSORGFRONT
 10
0
 20
0
 30
0
  9
$UCSORGBACK
 10
0
 20
0
 30
0
  9
$PUCSBASE
  2

  9
$PUCSNAME
  2

  9
$PUCSORG
 10
0
 20
0
 30
0
  9
$PUCSXDIR
 10
1
 20
0
 30
0
  9
$PUCSYDIR
 10
0
 20
1
 30
0
  9
$PUCSORTHOREF
  2

  9
$PUCSORTHOVIEW
 70
    0
  9
$PUCSORGTOP
 10
0
 20
0
 30
0
  9
$PUCSORGBOTTOM
 10
0
 20
0
 30
0
  9
$PUCSORGLEFT
 10
0
 20
0
 30
0
  9
$PUCSORGRIGHT
 10
0
 20
0
 30
0
  9
$PUCSORGFRONT
 10
0
 20
0
 30
0
  9
$PUCSORGBACK
 10
0
 20
0
 30
0
  9
$USERI1
 70
    0
  9
$USERI2
 70
    0
  9
$USERI3
 70
    0
  9
$USERI4
 70
    0
  9
$USERI5
 70
    0
  9
$USERR1
 40
0
  9
$USERR2
 40
0
  9
$USERR3
 40
0
  9
$USERR4
 40
0
  9
$USERR5
 40
0
  9
$WORLDVIEW
 70
    1
  9
$SHADEDGE
 70
    3
  9
$SHADEDIF
 70
   70
  9
$TILEMODE
 70
    1
  9
$MAXACTVP
 70
   64
  9
$PINSBASE
 10
0
 20
0
 30
0
  9
$PLIMCHECK
 70
    0
  9
$PEXTMIN
 10
0
 20
0
 30
0
  9
$PEXTMAX
 10
0
 20
0
 30
0
  9
$GRIDMODE
 70
    1
  9
$SNAPSTYLE
 70
    0
  9
$PLIMMIN
 10
0
 20
0
  9
$PLIMMAX
 10
297
 20
210
  9
$UNITMODE
 70
    0
  9
$VISRETAIN
 70
    1
  9
$PLINEGEN
 70
    0
  9
$PSLTSCALE
 70
    1
  9
$TREEDEPTH
 70
 3020
  9
$CMLSTYLE
  2
Standard
  9
$CMLJUST
 70
    0
  9
$CMLSCALE
 40
20
  9
$PROXYGRAPHICS
 70
    1
  9
$MEASUREMENT
 70
    1
  9
$CELWEIGHT
370
   -1
  9
$ENDCAPS
280
    0
  9
$JOINSTYLE
280
    0
  9
$LWDISPLAY
290
    0
  9
$INSUNITS
 70
    4
  9
$HYPERLINKBASE
  1

  9
$STYLESHEET
  1

  9
$XEDIT
290
    1
  9
$CEPSNTYPE
380
    0
  9
$PSTYLEMODE
290
    1
  9
$EXTNAMES
290
    1
  9
$PSVPSCALE
 40
1
  9
$OLESTARTUP
290
    0
  9
$SORTENTS
280
  127
  9
$INDEXCTL
280
    0
  9
$HIDETEXT
280
    1
  9
$XCLIPFRAME
290
    0
  9
$HALOGAP
280
    0
  9
$OBSCOLOR
 70
  257
  9
$OBSLTYPE
280
    0
  9
$INTERSECTIONDISPLAY
280
    0
  9
$INTERSECTIONCOLOR
 70
  257
  9
$DIMASSOC
280
    1
  9
$PROJECTNAME
  1

  9
$CAMERADISPLAY
290
    0
  9
$LENSLENGTH
 40
50
  9
$CAMERAHEIGHT
 40
0
  9
$STEPSPERSEC
 40
2
  9
$STEPSIZE
 40
50
  9
$3DDWFPREC
 40
2
  9
$PSOLWIDTH
 40
5
  9
$PSOLHEIGHT
 40
80
  9
$LOFTANG1
 40
1.570796326794897
  9
$LOFTANG2
 40
1.570796326794897
  9
$LOFTMAG1
 40
0
  9
$LOFTMAG2
 40
0
  9
$LOFTPARAM
 70
    7
  9
$LOFTNORMALS
280
    1
  9
$LATITUDE
 40
1
  9
$LONGITUDE
 40
1
  9
$NORTHDIRECTION
 40
0
  9
$TIMEZONE
 70
-8000
  9
$LIGHTGLYPHDISPLAY
280
    1
  9
$TILEMODELIGHTSYNCH
280
    1
  9
$SOLIDHIST
280
    1
  9
$SHOWHIST
280
    1
  9
$DWFFRAME
280
    2
  9
$DGNFRAME
280
    0
  9
$REALWORLDSCALE
290
    1
  9
$INTERFERECOLOR
 62
    1
  9
$CSHADOW
280
    0
  9
$SHADOWPLANELOCATION
 40
0
  0
ENDSEC
  0
SECTION
  2
CLASSES
  0
ENDSEC
  0
SECTION
  2
TABLES
  0
TABLE
  2
VPORT
  5
8
330
0
100
AcDbSymbolTable
 70
    1
  0
VPORT
  5
31
330
2
100
AcDbSymbolTableRecord
100
AcDbViewportTableRecord
  2
*ACTIVE
 70
    0
 10
0
 20
0
 11
1
 21
1
 12
134.1263997112526
 22
90.58125350362674
 13
0
 23
0
 14
10
 24
10
 15
10
 25
10
 16
0
 26
0
 36
1
 17
0
 27
0
 37
0
 40
286.2588092467555
 41
1.879332477535302
 42
50
 43
0
 44
0
 50
0
 51
0
 71
    0
 72
  100
 73
    1
 74
    3
 75
    0
 76
    1
 77
    0
 78
    0
281
    0
 65
    1
110
0
120
0
130
0
111
1
121
0
131
0
112
0
122
1
132
0
 79
    0
146
0
348
10020
 60
    7
 61
    5
292
1
282
    1
141
0
142
0
 63
  250
421
3358443
  0
ENDTAB
  0
TABLE
  2
LTYPE
  5
5
330
0
100
AcDbSymbolTable
 70
    4
  0
LTYPE
  5
14
330
5
100
AcDbSymbolTableRecord
100
AcDbLinetypeTableRecord
  2
ByBlock
 70
    0
  3

 72
   65
 73
    0
 40
0
  0
LTYPE
  5
15
330
5
100
AcDbSymbolTableRecord
100
AcDbLinetypeTableRecord
  2
ByLayer
 70
    0
  3

 72
   65
 73
    0
 40
0
  0
LTYPE
  5
16
330
5
100
AcDbSymbolTableRecord
100
AcDbLinetypeTableRecord
  2
Continuous
 70
    0
  3
Solid line
 72
   65
 73
    0
 40
0
  0
LTYPE
  5
32
330
5
100
AcDbSymbolTableRecord
100
AcDbLinetypeTableRecord
  2
DOT
 70
    0
  3
Dot . . . . . . . . . . . . . . . . . . . . . .
 72
   65
 73
    2
 40
6.35
 49
0
 74
    0
 49
-6.35
 74
    0
  0
LTYPE
  5
33
330
5
100
AcDbSymbolTableRecord
100
AcDbLinetypeTableRecord
  2
DOTTINY
 70
    0
  3
Dot (.15x) .....................................
 72
   65
 73
    2
 40
0.9525
 49
0
 74
    0
 49
-0.9525
 74
    0
  0
LTYPE
  5
34
330
5
100
AcDbSymbolTableRecord
100
AcDbLinetypeTableRecord
  2
DOT2
 70
    0
  3
Dot (.5x) .....................................
 72
   65
 73
    2
 40
3.175
 49
0
 74
    0
 49
-3.175
 74
    0
  0
LTYPE
  5
35
330
5
100
AcDbSymbolTableRecord
100
AcDbLinetypeTableRecord
  2
DOTX2
 70
    0
  3
Dot (2x) .  .  .  .  .  .  .  .  .  .  .  .  .
 72
   65
 73
    2
 40
12.7
 49
0
 74
    0
 49
-12.7
 74
    0
  0
LTYPE
  5
36
330
5
100
AcDbSymbolTableRecord
100
AcDbLinetypeTableRecord
  2
DASHED
 70
    0
  3
Dashed _ _ _ _ _ _ _ _ _ _ _ _ _ _ _ _ _
 72
   65
 73
    2
 40
19.05
 49
12.7
 74
    0
 49
-6.35
 74
    0
  0
LTYPE
  5
37
330
5
100
AcDbSymbolTableRecord
100
AcDbLinetypeTableRecord
  2
DASHEDTINY
 70
    0
  3
Dashed (.15x) _ _ _ _ _ _ _ _ _ _ _ _ _ _ _ _ _
 72
   65
 73
    2
 40
2.8575
 49
1.905
 74
    0
 49
-0.9525
 74
    0
  0
LTYPE
  5
38
330
5
100
AcDbSymbolTableRecord
100
AcDbLinetypeTableRecord
  2
DASHED2
 70
    0
  3
Dashed (.5x) _ _ _ _ _ _ _ _ _ _ _ _ _ _ _ _ _
 72
   65
 73
    2
 40
9.524999999999999
 49
6.35
 74
    0
 49
-3.175
 74
    0
  0
LTYPE
  5
39
330
5
100
AcDbSymbolTableRecord
100
AcDbLinetypeTableRecord
  2
DASHEDX2
 70
    0
  3
Dashed (2x) ____  ____  ____  ____  ____  ___
 72
   65
 73
    2
 40
38.09999999999999
 49
25.4
 74
    0
 49
-12.7
 74
    0
  0
LTYPE
  5
3A
330
5
100
AcDbSymbolTableRecord
100
AcDbLinetypeTableRecord
  2
DASHDOT
 70
    0
  3
Dash dot __ . __ . __ . __ . __ . __ . __ . __
 72
   65
 73
    4
 40
25.4
 49
12.7
 74
    0
 49
-6.35
 74
    0
 49
0
 74
    0
 49
-6.35
 74
    0
  0
LTYPE
  5
3B
330
5
100
AcDbSymbolTableRecord
100
AcDbLinetypeTableRecord
  2
DASHDOTTINY
 70
    0
  3
Dash dot (.15x) _._._._._._._._._._._._._._._.
 72
   65
 73
    4
 40
3.81
 49
1.905
 74
    0
 49
-0.9525
 74
    0
 49
0
 74
    0
 49
-0.9525
 74
    0
  0
LTYPE
  5
3C
330
5
100
AcDbSymbolTableRecord
100
AcDbLinetypeTableRecord
  2
DASHDOT2
 70
    0
  3
Dash dot (.5x) _._._._._._._._._._._._._._._.
 72
   65
 73
    4
 40
12.7
 49
6.35
 74
    0
 49
-3.175
 74
    0
 49
0
 74
    0
 49
-3.175
 74
    0
  0
LTYPE
  5
3D
330
5
100
AcDbSymbolTableRecord
100
AcDbLinetypeTableRecord
  2
DASHDOTX2
 70
    0
  3
Dash dot (2x) ____  .  ____  .  ____  .  ___
 72
   65
 73
    4
 40
50.8
 49
25.4
 74
    0
 49
-12.7
 74
    0
 49
0
 74
    0
 49
-12.7
 74
    0
  0
LTYPE
  5
3E
330
5
100
AcDbSymbolTableRecord
100
AcDbLinetypeTableRecord
  2
DIVIDE
 70
    0
  3
Divide ____ . . ____ . . ____ . . ____ . . ____
 72
   65
 73
    6
 40
31.75
 49
12.7
 74
    0
 49
-6.35
 74
    0
 49
0
 74
    0
 49
-6.35
 74
    0
 49
0
 74
    0
 49
-6.35
 74
    0
  0
LTYPE
  5
3F
330
5
100
AcDbSymbolTableRecord
100
AcDbLinetypeTableRecord
  2
DIVIDETINY
 70
    0
  3
Divide (.15x) __..__..__..__..__..__..__..__.._
 72
   65
 73
    6
 40
4.7625
 49
1.905
 74
    0
 49
-0.9525
 74
    0
 49
0
 74
    0
 49
-0.9525
 74
    0
 49
0
 74
    0
 49
-0.9525
 74
    0
  0
LTYPE
  5
40
330
5
100
AcDbSymbolTableRecord
100
AcDbLinetypeTableRecord
  2
DIVIDE2
 70
    0
  3
Divide (.5x) __..__..__..__..__..__..__..__.._
 72
   65
 73
    6
 40
15.875
 49
6.35
 74
    0
 49
-3.175
 74
    0
 49
0
 74
    0
 49
-3.175
 74
    0
 49
0
 74
    0
 49
-3.175
 74
    0
  0
LTYPE
  5
41
330
5
100
AcDbSymbolTableRecord
100
AcDbLinetypeTableRecord
  2
DIVIDEX2
 70
    0
  3
Divide (2x) ________  .  .  ________  .  .  _
 72
   65
 73
    6
 40
63.5
 49
25.4
 74
    0
 49
-12.7
 74
    0
 49
0
 74
    0
 49
-12.7
 74
    0
 49
0
 74
    0
 49
-12.7
 74
    0
  0
LTYPE
  5
42
330
5
100
AcDbSymbolTableRecord
100
AcDbLinetypeTableRecord
  2
BORDER
 70
    0
  3
Border __ __ . __ __ . __ __ . __ __ . __ __ .
 72
   65
 73
    6
 40
44.45
 49
12.7
 74
    0
 49
-6.35
 74
    0
 49
12.7
 74
    0
 49
-6.35
 74
    0
 49
0
 74
    0
 49
-6.35
 74
    0
  0
LTYPE
  5
43
330
5
100
AcDbSymbolTableRecord
100
AcDbLinetypeTableRecord
  2
BORDERTINY
 70
    0
  3
Border (.15x) __.__.__.__.__.__.__.__.__.__.__.
 72
   65
 73
    6
 40
6.6675
 49
1.905
 74
    0
 49
-0.9525
 74
    0
 49
1.905
 74
    0
 49
-0.9525
 74
    0
 49
0
 74
    0
 49
-0.9525
 74
    0
  0
LTYPE
  5
44
330
5
100
AcDbSymbolTableRecord
100
AcDbLinetypeTableRecord
  2
BORDER2
 70
    0
  3
Border (.5x) __.__.__.__.__.__.__.__.__.__.__.
 72
   65
 73
    6
 40
22.225
 49
6.35
 74
    0
 49
-3.175
 74
    0
 49
6.35
 74
    0
 49
-3.175
 74
    0
 49
0
 74
    0
 49
-3.175
 74
    0
  0
LTYPE
  5
45
330
5
100
AcDbSymbolTableRecord
100
AcDbLinetypeTableRecord
  2
BORDERX2
 70
    0
  3
Border (2x) ____  ____  .  ____  ____  .  ___
 72
   65
 73
    6
 40
88.89999999999999
 49
25.4
 74
    0
 49
-12.7
 74
    0
 49
25.4
 74
    0
 49
-12.7
 74
    0
 49
0
 74
    0
 49
-12.7
 74
    0
  0
LTYPE
  5
46
330
5
100
AcDbSymbolTableRecord
100
AcDbLinetypeTableRecord
  2
CENTER
 70
    0
  3
Center ____ _ ____ _ ____ _ ____ _ ____ _ ____
 72
   65
 73
    4
 40
50.8
 49
31.75
 74
    0
 49
-6.35
 74
    0
 49
6.35
 74
    0
 49
-6.35
 74
    0
  0
LTYPE
  5
47
330
5
100
AcDbSymbolTableRecord
100
AcDbLinetypeTableRecord
  2
CENTERTINY
 70
    0
  3
Center (.15x) ___ _ ___ _ ___ _ ___ _ ___ _ ___
 72
   65
 73
    4
 40
7.619999999999999
 49
4.7625
 74
    0
 49
-0.9525
 74
    0
 49
0.9525
 74
    0
 49
-0.9525
 74
    0
  0
LTYPE
  5
48
330
5
100
AcDbSymbolTableRecord
100
AcDbLinetypeTableRecord
  2
CENTER2
 70
    0
  3
Center (.5x) ___ _ ___ _ ___ _ ___ _ ___ _ ___
 72
   65
 73
    4
 40
28.575
 49
19.05
 74
    0
 49
-3.175
 74
    0
 49
3.175
 74
    0
 49
-3.175
 74
    0
  0
LTYPE
  5
49
330
5
100
AcDbSymbolTableRecord
100
AcDbLinetypeTableRecord
  2
CENTERX2
 70
    0
  3
Center (2x) ________  __  ________  __  _____
 72
   65
 73
    4
 40
101.6
 49
63.5
 74
    0
 49
-12.7
 74
    0
 49
12.7
 74
    0
 49
-12.7
 74
    0
  0
ENDTAB
  0
TABLE
  2
LAYER
  5
2
330
0
100
AcDbSymbolTable
 70
    1
  0
LAYER
  5
10
330
2
100
AcDbSymbolTableRecord
100
AcDbLayerTableRecord
  2
0
 70
    4
 62
    7
  6
CONTINUOUS
370
    0
390
F
  0
LAYER
  5
4A
330
2
100
AcDbSymbolTableRecord
100
AcDbLayerTableRecord
  2
Engrave
 70
    0
 62
    7
  6
CONTINUOUS
370
    0
390
F
  0
LAYER
  5
4B
330
2
100
AcDbSymbolTableRecord
100
AcDbLayerTableRecord
  2
Front-Back
 70
    4
 62
    7
  6
CONTINUOUS
370
    0
390
F
  0
LAYER
  5
4C
330
2
100
AcDbSymbolTableRecord
100
AcDbLayerTableRecord
  2
Guides
 70
    5
 62
    1
  6
CONTINUOUS
370
    0
390
F
  0
LAYER
  5
4D
330
2
100
AcDbSymbolTableRecord
100
AcDbLayerTableRecord
  2
Sides
 70
    4
 62
    7
  6
CONTINUOUS
370
    0
390
F
  0
LAYER
  5
4E
330
2
100
AcDbSymbolTableRecord
100
AcDbLayerTableRecord
  2
Top-Bottom
 70
    4
 62
    7
  6
CONTINUOUS
370
    0
390
F
  0
ENDTAB
  0
TABLE
  2
STYLE
  5
3
330
0
100
AcDbSymbolTable
 70
    3
  0
STYLE
  5
4F
330
2
100
AcDbSymbolTableRecord
100
AcDbTextStyleTableRecord
  2
Standard
 70
    0
 40
0
 41
1
 50
0
 71
    0
 42
1
  3
txt
  4

  0
ENDTAB
  0
TABLE
  2
VIEW
  5
6
330
0
100
AcDbSymbolTable
 70
    0
  0
ENDTAB
  0
TABLE
  2
UCS
  5
7
330
0
100
AcDbSymbolTable
 70
    0
  0
ENDTAB
  0
TABLE
  2
APPID
  5
9
330
0
100
AcDbSymbolTable
 70
    1
  0
APPID
  5
12
330
9
100
AcDbSymbolTableRecord
100
AcDbRegAppTableRecord
  2
ACAD
 70
    0
  0
APPID
  5
50
330
9
100
AcDbSymbolTableRecord
100
AcDbRegAppTableRecord
  2
LibreCad
 70
    0
  0
ENDTAB
  0
TABLE
  2
DIMSTYLE
  5
A
330
0
100
AcDbSymbolTable
 70
    1
100
AcDbDimStyleTable
 71
    1
  0
DIMSTYLE
105
51
330
A
100
AcDbSymbolTableRecord
100
AcDbDimStyleTableRecord
  2
Standard
 70
    0
 40
1
 41
2.5
 42
0.625
 43
0.38
 44
1.25
 45
0
 46
0
 47
0
 48
0
 49
1
140
2.5
141
0.09
142
0
143
25.4
144
1
145
0
146
1
147
0.625
148
0
 71
    0
 72
    0
 73
    0
 74
    1
 75
    0
 76
    0
 77
    0
 78
    8
 79
    0
170
    0
171
    2
172
    0
173
    0
174
    0
175
    0
176
    0
177
    0
178
    0
179
    0
271
    2
272
    4
273
    2
274
    2
275
    0
276
    0
277
    2
278
   44
279
    0
280
    0
281
    0
282
    0
283
    1
284
    0
285
    0
286
    0
288
    0
289
    3
340
STANDARD
341

371
   -2
372
   -2
  0
ENDTAB
  0
TABLE
  2
BLOCK_RECORD
  5
1
330
0
100
AcDbSymbolTable
 70
    2
  0
BLOCK_RECORD
  5
1F
330
1
100
AcDbSymbolTableRecord
100
AcDbBlockTableRecord
  2
*Model_Space
 70
    0
280
    1
281
    0
  0
BLOCK_RECORD
  5
1E
330
1
100
AcDbSymbolTableRecord
100
AcDbBlockTableRecord
  2
*Paper_Space
 70
    0
280
    1
281
    0
  0
ENDTAB
  0
ENDSEC
  0
SECTION
  2
BLOCKS
  0
BLOCK
  5
20
330
1F
100
AcDbEntity
  8
0
100
AcDbBlockBegin
  2
*Model_Space
 70
    0
 10
0
 20
0
 30
0
  3
*Model_Space
  1

  0
ENDBLK
  5
21
330
1F
100
AcDbEntity
  8
0
100
AcDbBlockEnd
  0
BLOCK
  5
1C
330
1B
100
AcDbEntity
  8
0
100
AcDbBlockBegin
  2
*Paper_Space
 70
    0
 10
0
 20
0
 30
0
  3
*Paper_Space
  1

  0
ENDBLK
  5
1D
330
1F
100
AcDbEntity
  8
0
100
AcDbBlockEnd
  0
ENDSEC
  0
SECTION
  2
ENTITIES
  0
LINE
  5
52
100
AcDbEntity
  8
Front-Back
  6
ByLayer
 62
  256
370
   -1
100
AcDbLine
 10
2.818999999999995
 20
150.18
 11
23.63688888888888
 21
150.18
  0
LINE
  5
53
100
AcDbEntity
  8
Front-Back
  6
ByLayer
 62
  256
370
   -1
100
AcDbLine
 10
23.63688888888888
 20
150.18
 11
23.63688888888888
 21
152.18
  0
LINE
  5
54
100
AcDbEntity
  8
Front-Back
  6
ByLayer
 62
  256
370
   -1
100
AcDbLine
 10
23.63688888888888
 20
152.18
 11
44.45477777777777
 21
152.18
  0
LINE
  5
55
100
AcDbEntity
  8
Front-Back
  6
ByLayer
 62
  256
370
   -1
100
AcDbLine
 10
44.45477777777777
 20
152.18
 11
44.45477777777777
 21
150.18
  0
LINE
  5
56
100
AcDbEntity
  8
Front-Back
  6
ByLayer
 62
  256
370
   -1
100
AcDbLine
 10
44.45477777777777
 20
150.18
 11
65.27266666666667
 21
150.18
  0
LINE
  5
57
100
AcDbEntity
  8
Front-Back
  6
ByLayer
 62
  256
370
   -1
100
AcDbLine
 10
65.27266666666667
 20
150.18
 11
65.27266666666667
 21
152.18
  0
LINE
  5
58
100
AcDbEntity
  8
Front-Back
  6
ByLayer
 62
  256
370
   -1
100
AcDbLine
 10
65.27266666666667
 20
152.18
 11
86.09055555555555
 21
152.18
  0
LINE
  5
59
100
AcDbEntity
  8
Front-Back
  6
ByLayer
 62
  256
370
   -1
100
AcDbLine
 10
86.09055555555555
 20
152.18
 11
86.09055555555555
 21
150.18
  0
LINE
  5
5A
100
AcDbEntity
  8
Front-Back
  6
ByLayer
 62
  256
370
   -1
100
AcDbLine
 10
86.09055555555555
 20
150.18
 11
106.9084444444444
 21
150.18
  0
LINE
  5
5B
100
AcDbEntity
  8
Front-Back
  6
ByLayer
 62
  256
370
   -1
100
AcDbLine
 10
106.9084444444444
 20
150.18
 11
106.9084444444444
 21
152.18
  0
LINE
  5
5C
100
AcDbEntity
  8
Front-Back
  6
ByLayer
 62
  256
370
   -1
100
AcDbLine
 10
106.9084444444444
 20
152.18
 11
127.7263333333333
 21
152.18
  0
LINE
  5
5D
100
AcDbEntity
  8
Front-Back
  6
ByLayer
 62
  256
370
   -1
100
AcDbLine
 10
127.7263333333333
 20
152.18
 11
127.7263333333333
 21
150.18
  0
LINE
  5
5E
100
AcDbEntity
  8
Front-Back
  6
ByLayer
 62
  256
370
   -1
100
AcDbLine
 10
127.7263333333333
 20
150.18
 11
148.5442222222222
 21
150.18
  0
LINE
  5
5F
100
AcDbEntity
  8
Front-Back
  6
ByLayer
 62
  256
370
   -1
100
AcDbLine
 10
148.5442222222222
 20
150.18
 11
148.5442222222222
 21
152.18
  0
LINE
  5
60
100
AcDbEntity
  8
Front-Back
  6
ByLayer
 62
  256
370
   -1
100
AcDbLine
 10
148.5442222222222
 20
152.18
 11
169.3621111111111
 21
152.18
  0
LINE
  5
61
100
AcDbEntity
  8
Front-Back
  6
ByLayer
 62
  256
370
   -1
100
AcDbLine
 10
169.3621111111111
 20
152.18
 11
169.3621111111111
 21
150.18
  0
LINE
  5
62
100
AcDbEntity
  8
Front-Back
  6
ByLayer
 62
  256
370
   -1
100
AcDbLine
 10
169.3621111111111
 20
150.18
 11
190.18
 21
150.18
  0
LINE
  5
63
100
AcDbEntity
  8
Front-Back
  6
ByLayer
 62
  256
370
   -1
100
AcDbLine
 10
190.18
 20
150.18
 11
190.18
 21
132.9291538461538
  0
LINE
  5
64
100
AcDbEntity
  8
Front-Back
  6
ByLayer
 62
  256
370
   -1
100
AcDbLine
 10
190.18
 20
132.9291538461538
 11
192.18
 21
132.9291538461538
  0
LINE
  5
65
100
AcDbEntity
  8
Front-Back
  6
ByLayer
 62
  256
370
   -1
100
AcDbLine
 10
192.18
 20
132.9291538461538
 11
192.18
 21
115.6783076923077
  0
LINE
  5
66
100
AcDbEntity
  8
Front-Back
  6
ByLayer
 62
  256
370
   -1
100
AcDbLine
 10
192.18
 20
115.6783076923077
 11
190.18
 21
115.6783076923077
  0
LINE
  5
67
100
AcDbEntity
  8
Front-Back
  6
ByLayer
 62
  256
370
   -1
100
AcDbLine
 10
190.18
 20
115.6783076923077
 11
190.18
 21
98.42746153846153
  0
LINE
  5
68
100
AcDbEntity
  8
Front-Back
  6
ByLayer
 62
  256
370
   -1
100
AcDbLine
 10
190.18
 20
98.42746153846153
 11
192.18
 21
98.42746153846153
  0
LINE
  5
69
100
AcDbEntity
  8
Front-Back
  6
ByLayer
 62
  256
370
   -1
100
AcDbLine
 10
190.18
 20
81.17661538461537
 11
190.18
 21
63.92576923076923
  0
LINE
  5
6A
100
AcDbEntity
  8
Front-Back
  6
ByLayer
 62
  256
370
   -1
100
AcDbLine
 10
192.18
 20
46.67492307692307
 11
190.18
 21
46.67492307692307
  0
LINE
  5
6B
100
AcDbEntity
  8
Front-Back
  6
ByLayer
 62
  256
370
   -1
100
AcDbLine
 10
190.18
 20
46.67492307692307
 11
190.18
 21
29.42407692307693
  0
LINE
  5
6C
100
AcDbEntity
  8
Front-Back
  6
ByLayer
 62
  256
370
   -1
100
AcDbLine
 10
190.18
 20
29.42407692307693
 11
192.18
 21
29.42407692307693
  0
LINE
  5
6D
100
AcDbEntity
  8
Front-Back
  6
ByLayer
 62
  256
370
   -1
100
AcDbLine
 10
192.18
 20
12.17323076923074
 11
190.18
 21
12.17323076923074
  0
LINE
  5
6E
100
AcDbEntity
  8
Front-Back
  6
ByLayer
 62
  256
370
   -1
100
AcDbLine
 10
190.18
 20
12.17323076923074
 11
190.18
 21
-5.077615384615399
  0
LINE
  5
6F
100
AcDbEntity
  8
Front-Back
  6
ByLayer
 62
  256
370
   -1
100
AcDbLine
 10
192.18
 20
-5.077615384615399
 11
192.18
 21
-22.32846153846157
  0
LINE
  5
70
100
AcDbEntity
  8
Front-Back
  6
ByLayer
 62
  256
370
   -1
100
AcDbLine
 10
192.18
 20
-22.32846153846157
 11
190.18
 21
-22.32846153846157
  0
LINE
  5
71
100
AcDbEntity
  8
Front-Back
  6
ByLayer
 62
  256
370
   -1
100
AcDbLine
 10
190.18
 20
-22.32846153846157
 11
190.18
 21
-39.57930769230771
  0
LINE
  5
72
100
AcDbEntity
  8
Front-Back
  6
ByLayer
 62
  256
370
   -1
100
AcDbLine
 10
190.18
 20
-39.57930769230771
 11
192.18
 21
-39.57930769230771
  0
LINE
  5
73
100
AcDbEntity
  8
Front-Back
  6
ByLayer
 62
  256
370
   -1
100
AcDbLine
 10
192.18
 20
-39.57930769230771
 11
192.18
 21
-56.83015384615386
  0
LINE
  5
74
100
AcDbEntity
  8
Front-Back
  6
ByLayer
 62
  256
370
   -1
100
AcDbLine
 10
190.18
 20
-56.83015384615388
 11
190.18
 21
-74.08100000000002
  0
LINE
  5
75
100
AcDbEntity
  8
Front-Back
  6
ByLayer
 62
  256
370
   -1
100
AcDbLine
 10
190.18
 20
-74.08100000000002
 11
169.3621111111111
 21
-74.08100000000002
  0
LINE
  5
76
100
AcDbEntity
  8
Front-Back
  6
ByLayer
 62
  256
370
   -1
100
AcDbLine
 10
169.3621111111111
 20
-74.08100000000002
 11
169.3621111111111
 21
-76.08100000000002
  0
LINE
  5
77
100
AcDbEntity
  8
Front-Back
  6
ByLayer
 62
  256
370
   -1
100
AcDbLine
 10
169.3621111111111
 20
-76.08100000000002
 11
148.5442222222222
 21
-76.08100000000002
  0
LINE
  5
78
100
AcDbEntity
  8
Front-Back
  6
ByLayer
 62
  256
370
   -1
100
AcDbLine
 10
148.5442222222222
 20
-76.08100000000002
 11
148.5442222222222
 21
-74.08100000000002
  0
LINE
  5
79
100
AcDbEntity
  8
Front-Back
  6
ByLayer
 62
  256
370
   -1
100
AcDbLine
 10
148.5442222222222
 20
-74.08100000000002
 11
127.7263333333333
 21
-74.08100000000002
  0
LINE
  5
7A
100
AcDbEntity
  8
Front-Back
  6
ByLayer
 62
  256
370
   -1
100
AcDbLine
 10
127.7263333333333
 20
-74.08100000000002
 11
127.7263333333333
 21
-76.08100000000002
  0
LINE
  5
7B
100
AcDbEntity
  8
Front-Back
  6
ByLayer
 62
  256
370
   -1
100
AcDbLine
 10
127.7263333333333
 20
-76.08100000000002
 11
106.9084444444444
 21
-76.08100000000002
  0
LINE
  5
7C
100
AcDbEntity
  8
Front-Back
  6
ByLayer
 62
  256
370
   -1
100
AcDbLine
 10
106.9084444444444
 20
-76.08100000000002
 11
106.9084444444444
 21
-74.08100000000002
  0
LINE
  5
7D
100
AcDbEntity
  8
Front-Back
  6
ByLayer
 62
  256
370
   -1
100
AcDbLine
 10
106.9084444444444
 20
-74.08100000000002
 11
86.09055555555555
 21
-74.08100000000002
  0
LINE
  5
7E
100
AcDbEntity
  8
Front-Back
  6
ByLayer
 62
  256
370
   -1
100
AcDbLine
 10
86.09055555555555
 20
-74.08100000000002
 11
86.09055555555555
 21
-76.08100000000002
  0
LINE
  5
7F
100
AcDbEntity
  8
Front-Back
  6
ByLayer
 62
  256
370
   -1
100
AcDbLine
 10
86.09055555555555
 20
-76.08100000000002
 11
65.27266666666667
 21
-76.08100000000002
  0
LINE
  5
80
100
AcDbEntity
  8
Front-Back
  6
ByLayer
 62
  256
370
   -1
100
AcDbLine
 10
65.27266666666667
 20
-76.08100000000002
 11
65.27266666666667
 21
-74.08100000000002
  0
LINE
  5
81
100
AcDbEntity
  8
Front-Back
  6
ByLayer
 62
  256
370
   -1
100
AcDbLine
 10
65.27266666666667
 20
-74.08100000000002
 11
44.45477777777777
 21
-74.08100000000002
  0
LINE
  5
82
100
AcDbEntity
  8
Front-Back
  6
ByLayer
 62
  256
370
   -1
100
AcDbLine
 10
44.45477777777777
 20
-74.08100000000002
 11
44.45477777777777
 21
-76.08100000000002
  0
LINE
  5
83
100
AcDbEntity
  8
Front-Back
  6
ByLayer
 62
  256
370
   -1
100
AcDbLine
 10
44.45477777777777
 20
-76.08100000000002
 11
23.63688888888888
 21
-76.08100000000002
  0
LINE
  5
84
100
AcDbEntity
  8
Front-Back
  6
ByLayer
 62
  256
370
   -1
100
AcDbLine
 10
23.63688888888888
 20
-76.08100000000002
 11
23.63688888888888
 21
-74.08100000000002
  0
LINE
  5
85
100
AcDbEntity
  8
Front-Back
  6
ByLayer
 62
  256
370
   -1
100
AcDbLine
 10
23.63688888888888
 20
-74.08100000000002
 11
2.818999999999981
 21
-74.08100000000002
  0
LINE
  5
86
100
AcDbEntity
  8
Front-Back
  6
ByLayer
 62
  256
370
   -1
100
AcDbLine
 10
2.818999999999981
 20
-74.08100000000002
 11
2.818999999999982
 21
-56.83015384615388
  0
LINE
  5
87
100
AcDbEntity
  8
Front-Back
  6
ByLayer
 62
  256
370
   -1
100
AcDbLine
 10
0.8189999999999833
 20
-39.57930769230771
 11
2.818999999999984
 21
-39.57930769230771
  0
LINE
  5
88
100
AcDbEntity
  8
Front-Back
  6
ByLayer
 62
  256
370
   -1
100
AcDbLine
 10
2.818999999999984
 20
-39.57930769230771
 11
2.818999999999984
 21
-22.32846153846157
  0
LINE
  5
89
100
AcDbEntity
  8
Front-Back
  6
ByLayer
 62
  256
370
   -1
100
AcDbLine
 10
0.8189999999999854
 20
-5.077615384615399
 11
2.818999999999985
 21
-5.077615384615399
  0
LINE
  5
8A
100
AcDbEntity
  8
Front-Back
  6
ByLayer
 62
  256
370
   -1
100
AcDbLine
 10
2.818999999999985
 20
-5.077615384615399
 11
2.818999999999987
 21
12.17323076923074
  0
LINE
  5
8B
100
AcDbEntity
  8
Front-Back
  6
ByLayer
 62
  256
370
   -1
100
AcDbLine
 10
0.8189999999999875
 20
29.42407692307692
 11
2.818999999999988
 21
29.42407692307692
  0
LINE
  5
8C
100
AcDbEntity
  8
Front-Back
  6
ByLayer
 62
  256
370
   -1
100
AcDbLine
 10
2.818999999999991
 20
81.17661538461537
 11
0.8189999999999907
 21
81.17661538461537
  0
LINE
  5
8D
100
AcDbEntity
  8
Front-Back
  6
ByLayer
 62
  256
370
   -1
100
AcDbLine
 10
0.8189999999999917
 20
98.42746153846153
 11
2.818999999999992
 21
98.42746153846153
  0
LINE
  5
8E
100
AcDbEntity
  8
Front-Back
  6
ByLayer
 62
  256
370
   -1
100
AcDbLine
 10
2.818999999999992
 20
98.42746153846153
 11
2.818999999999993
 21
115.6783076923077
  0
LINE
  5
8F
100
AcDbEntity
  8
Front-Back
  6
ByLayer
 62
  256
370
   -1
100
AcDbLine
 10
2.818999999999993
 20
115.6783076923077
 11
0.8189999999999928
 21
115.6783076923077
  0
LINE
  5
90
100
AcDbEntity
  8
Front-Back
  6
ByLayer
 62
  256
370
   -1
100
AcDbLine
 10
0.8189999999999928
 20
115.6783076923077
 11
0.8189999999999938
 21
132.9291538461538
  0
LINE
  5
91
100
AcDbEntity
  8
Front-Back
  6
ByLayer
 62
  256
370
   -1
100
AcDbLine
 10
0.8189999999999938
 20
132.9291538461538
 11
2.818999999999994
 21
132.9291538461538
  0
LINE
  5
92
100
AcDbEntity
  8
Front-Back
  6
ByLayer
 62
  256
370
   -1
100
AcDbLine
 10
2.818999999999994
 20
132.9291538461538
 11
2.818999999999995
 21
150.18
  0
LINE
  5
93
100
AcDbEntity
  8
Guides
  6
ByLayer
 62
  256
370
   -1
100
AcDbLine
 10
216.82
 20
-76.08100000000002
 11
216.82
 21
152.18
  0
LINE
  5
94
100
AcDbEntity
  8
Guides
  6
ByLayer
 62
  256
370
   -1
100
AcDbLine
 10
223.18
 20
-76.08100000000002
 11
223.18
 21
152.18
  0
LINE
  5
95
100
AcDbEntity
  8
Guides
  6
ByLayer
 62
  256
370
   -1
100
AcDbLine
 10
214.82
 20
-76.08100000000002
 11
214.82
 21
152.18
  0
LINE
  5
96
100
AcDbEntity
  8
Guides
  6
ByLayer
 62
  256
370
   -1
100
AcDbLine
 10
225.18
 20
-76.08100000000002
 11
225.18
 21
152.18
  0
LINE
  5
97
100
AcDbEntity
  8
Guides
  6
ByLayer
 62
  256
370
   -1
100
AcDbLine
 10
225.18
 20
152.18
 11
0.8189999999999952
 21
152.18
  0
LINE
  5
98
100
AcDbEntity
  8
Guides
  6
ByLayer
 62
  256
370
   -1
100
AcDbLine
 10
0.8189999999999938
 20
132.9291538461538
 11
225.18
 21
132.9291538461538
  0
LINE
  5
99
100
AcDbEntity
  8
Guides
  6
ByLayer
 62
  256
370
   -1
100
AcDbLine
 10
0.8189999999999928
 20
115.6783076923077
 11
225.18
 21
115.6783076923077
  0
LINE
  5
9A
100
AcDbEntity
  8
Guides
  6
ByLayer
 62
  256
370
   -1
100
AcDbLine
 10
0.8189999999999917
 20
98.42746153846153
 11
225.18
 21
98.42746153846151
  0
LINE
  5
9B
100
AcDbEntity
  8
Guides
  6
ByLayer
 62
  256
370
   -1
100
AcDbLine
 10
0.8189999999999907
 20
81.17661538461537
 11
225.18
 21
81.17661538461537
  0
LINE
  5
9C
100
AcDbEntity
  8
Guides
  6
ByLayer
 62
  256
370
   -1
100
AcDbLine
 10
0.8189999999999896
 20
63.92576923076923
 11
225.18
 21
63.92576923076922
  0
LINE
  5
9D
100
AcDbEntity
  8
Guides
  6
ByLayer
 62
  256
370
   -1
100
AcDbLine
 10
0.8189999999999886
 20
46.67492307692306
 11
225.18
 21
46.67492307692307
  0
LINE
  5
9E
100
AcDbEntity
  8
Guides
  6
ByLayer
 62
  256
370
   -1
100
AcDbLine
 10
0.8189999999999875
 20
29.42407692307692
 11
225.18
 21
29.42407692307693
  0
LINE
  5
9F
100
AcDbEntity
  8
Guides
  6
ByLayer
 62
  256
370
   -1
100
AcDbLine
 10
0.8189999999999865
 20
12.17323076923074
 11
225.18
 21
12.17323076923074
  0
LINE
  5
A0
100
AcDbEntity
  8
Guides
  6
ByLayer
 62
  256
370
   -1
100
AcDbLine
 10
0.8189999999999854
 20
-5.077615384615399
 11
225.18
 21
-5.077615384615398
  0
LINE
  5
A1
100
AcDbEntity
  8
Guides
  6
ByLayer
 62
  256
370
   -1
100
AcDbLine
 10
0.8189999999999844
 20
-22.32846153846157
 11
225.18
 21
-22.32846153846157
  0
LINE
  5
A2
100
AcDbEntity
  8
Guides
  6
ByLayer
 62
  256
370
   -1
100
AcDbLine
 10
0.8189999999999833
 20
-39.57930769230771
 11
225.18
 21
-39.57930769230771
  0
LINE
  5
A3
100
AcDbEntity
  8
Guides
  6
ByLayer
 62
  256
370
   -1
100
AcDbLine
 10
0.8189999999999823
 20
-56.83015384615388
 11
225.18
 21
-56.83015384615386
  0
LINE
  5
A4
100
AcDbEntity
  8
Guides
  6
ByLayer
 62
  256
370
   -1
100
AcDbLine
 10
225.18
 20
-74.08100000000002
 11
2.818999999999981
 21
-74.08100000000002
  0
LINE
  5
A5
100
AcDbEntity
  8
Guides
  6
ByLayer
 62
  256
370
   -1
100
AcDbLine
 10
225.18
 20
150.18
 11
2.818999999999995
 21
150.18
  0
LINE
  5
A6
100
AcDbEntity
  8
Guides
  6
ByLayer
 62
  256
370
   -1
100
AcDbLine
 10
225.18
 20
-76.08100000000002
 11
0.8189999999999811
 21
-76.08100000000002
  0
LINE
  5
A7
100
AcDbEntity
  8
Guides
  6
ByLayer
 62
  256
370
   -1
100
AcDbLine
 10
0.8189999999999964
 20
173.0781760657511
 11
192.18
 21
173.0781760657511
  0
LINE
  5
A8
100
AcDbEntity
  8
Guides
  6
ByLayer
 62
  256
370
   -1
100
AcDbLine
 10
0.8189999999999971
 20
183.4381760657511
 11
192.18
 21
183.4381760657511
  0
LINE
  5
A9
100
AcDbEntity
  8
Guides
  6
ByLayer
 62
  256
370
   -1
100
AcDbLine
 10
0.8189999999999967
 20
181.4381760657511
 11
192.18
 21
181.4381760657511
  0
LINE
  5
AA
100
AcDbEntity
  8
Guides
  6
ByLayer
 62
  256
370
   -1
100
AcDbLine
 10
0.8189999999999965
 20
175.0781760657511
 11
192.18
 21
175.0781760657511
  0
LINE
  5
AB
100
AcDbEntity
  8
Guides
  6
ByLayer
 62
  256
370
   -1
100
AcDbLine
 10
0.8189999999999971
 20
183.4381760657512
 11
0.8189999999999812
 21
-76.08100000000002
  0
LINE
  5
AC
100
AcDbEntity
  8
Guides
  6
ByLayer
 62
  256
370
   -1
100
AcDbLine
 10
2.818999999999997
 20
183.4381760657512
 11
2.818999999999981
 21
-74.08100000000002
  0
LINE
  5
AD
100
AcDbEntity
  8
Guides
  6
ByLayer
 62
  256
370
   -1
100
AcDbLine
 10
23.63688888888888
 20
183.4381760657512
 11
23.63688888888888
 21
-76.08100000000002
  0
LINE
  5
AE
100
AcDbEntity
  8
Guides
  6
ByLayer
 62
  256
370
   -1
100
AcDbLine
 10
44.45477777777777
 20
183.4381760657512
 11
44.45477777777776
 21
-76.08100000000002
  0
LINE
  5
AF
100
AcDbEntity
  8
Guides
  6
ByLayer
 62
  256
370
   -1
100
AcDbLine
 10
65.27266666666667
 20
183.4381760657512
 11
65.27266666666667
 21
-76.08100000000002
  0
LINE
  5
B0
100
AcDbEntity
  8
Guides
  6
ByLayer
 62
  256
370
   -1
100
AcDbLine
 10
86.09055555555555
 20
183.4381760657512
 11
86.09055555555555
 21
-76.08100000000002
  0
LINE
  5
B1
100
AcDbEntity
  8
Guides
  6
ByLayer
 62
  256
370
   -1
100
AcDbLine
 10
106.9084444444444
 20
183.4381760657512
 11
106.9084444444444
 21
-76.08100000000002
  0
LINE
  5
B2
100
AcDbEntity
  8
Guides
  6
ByLayer
 62
  256
370
   -1
100
AcDbLine
 10
127.7263333333333
 20
183.4381760657512
 11
127.7263333333333
 21
-76.08100000000002
  0
LINE
  5
B3
100
AcDbEntity
  8
Guides
  6
ByLayer
 62
  256
370
   -1
100
AcDbLine
 10
148.5442222222222
 20
183.4381760657512
 11
148.5442222222222
 21
-76.08100000000002
  0
LINE
  5
B4
100
AcDbEntity
  8
Guides
  6
ByLayer
 62
  256
370
   -1
100
AcDbLine
 10
169.3621111111111
 20
183.4381760657512
 11
169.3621111111111
 21
-76.08100000000002
  0
LINE
  5
B5
100
AcDbEntity
  8
Guides
  6
ByLayer
 62
  256
370
   -1
100
AcDbLine
 10
190.18
 20
183.4381760657512
 11
190.18
 21
-74.08100000000002
  0
LINE
  5
B6
100
AcDbEntity
  8
Guides
  6
ByLayer
 62
  256
370
   -1
100
AcDbLine
 10
192.18
 20
183.4381760657512
 11
192.18
 21
-76.08100000000002
  0
LINE
  5
B7
100
AcDbEntity
  8
Front-Back
  6
ByLayer
 62
  256
370
   -1
100
AcDbLine
 10
-186.542
 20
132.9291538461538
 11
-165.7241111111111
 21
132.9291538461538
  0
LINE
  5
B8
100
AcDbEntity
  8
Front-Back
  6
ByLayer
 62
  256
370
   -1
100
AcDbLine
 10
-165.7241111111111
 20
132.9291538461538
 11
-165.7241111111111
 21
134.9291538461538
  0
LINE
  5
B9
100
AcDbEntity
  8
Front-Back
  6
ByLayer
 62
  256
370
   -1
100
AcDbLine
 10
-165.7241111111111
 20
134.9291538461538
 11
-144.9062222222223
 21
134.9291538461538
  0
LINE
  5
BA
100
AcDbEntity
  8
Front-Back
  6
ByLayer
 62
  256
370
   -1
100
AcDbLine
 10
-144.9062222222223
 20
134.9291538461538
 11
-144.9062222222223
 21
132.9291538461538
  0
LINE
  5
BB
100
AcDbEntity
  8
Front-Back
  6
ByLayer
 62
  256
370
   -1
100
AcDbLine
 10
-144.9062222222223
 20
132.9291538461538
 11
-124.0883333333333
 21
132.9291538461538
  0
LINE
  5
BC
100
AcDbEntity
  8
Front-Back
  6
ByLayer
 62
  256
370
   -1
100
AcDbLine
 10
-124.0883333333333
 20
132.9291538461538
 11
-124.0883333333333
 21
134.9291538461538
  0
LINE
  5
BD
100
AcDbEntity
  8
Front-Back
  6
ByLayer
 62
  256
370
   -1
100
AcDbLine
 10
-124.0883333333333
 20
134.9291538461538
 11
-103.2704444444445
 21
134.9291538461538
  0
LINE
  5
BE
100
AcDbEntity
  8
Front-Back
  6
ByLayer
 62
  256
370
   -1
100
AcDbLine
 10
-103.2704444444445
 20
134.9291538461538
 11
-103.2704444444445
 21
132.9291538461538
  0
LINE
  5
BF
100
AcDbEntity
  8
Front-Back
  6
ByLayer
 62
  256
370
   -1
100
AcDbLine
 10
-103.2704444444445
 20
132.9291538461538
 11
-82.45255555555558
 21
132.9291538461538
  0
LINE
  5
C0
100
AcDbEntity
  8
Front-Back
  6
ByLayer
 62
  256
370
   -1
100
AcDbLine
 10
-82.45255555555558
 20
132.9291538461538
 11
-82.45255555555558
 21
134.9291538461538
  0
LINE
  5
C1
100
AcDbEntity
  8
Front-Back
  6
ByLayer
 62
  256
370
   -1
100
AcDbLine
 10
-82.45255555555558
 20
134.9291538461538
 11
-61.63466666666667
 21
134.9291538461538
  0
LINE
  5
C2
100
AcDbEntity
  8
Front-Back
  6
ByLayer
 62
  256
370
   -1
100
AcDbLine
 10
-61.63466666666667
 20
134.9291538461538
 11
-61.63466666666667
 21
132.9291538461538
  0
LINE
  5
C3
100
AcDbEntity
  8
Front-Back
  6
ByLayer
 62
  256
370
   -1
100
AcDbLine
 10
-61.63466666666667
 20
132.9291538461538
 11
-40.81677777777778
 21
132.9291538461538
  0
LINE
  5
C4
100
AcDbEntity
  8
Front-Back
  6
ByLayer
 62
  256
370
   -1
100
AcDbLine
 10
-40.81677777777778
 20
132.9291538461538
 11
-40.81677777777778
 21
134.9291538461538
  0
LINE
  5
C5
100
AcDbEntity
  8
Front-Back
  6
ByLayer
 62
  256
370
   -1
100
AcDbLine
 10
-40.81677777777778
 20
134.9291538461538
 11
-19.99888888888887
 21
134.9291538461538
  0
LINE
  5
C6
100
AcDbEntity
  8
Front-Back
  6
ByLayer
 62
  256
370
   -1
100
AcDbLine
 10
-19.99888888888887
 20
134.9291538461538
 11
-19.99888888888887
 21
132.9291538461538
  0
LINE
  5
C7
100
AcDbEntity
  8
Front-Back
  6
ByLayer
 62
  256
370
   -1
100
AcDbLine
 10
-19.99888888888887
 20
132.9291538461538
 11
0.8189999999999928
 21
132.9291538461538
  0
LINE
  5
C8
100
AcDbEntity
  8
Front-Back
  6
ByLayer
 62
  256
370
   -1
100
AcDbLine
 10
0.8189999999999928
 20
98.42746153846156
 11
0.8189999999999644
 21
81.17661538461537
  0
LINE
  5
C9
100
AcDbEntity
  8
Front-Back
  6
ByLayer
 62
  256
370
   -1
100
AcDbLine
 10
2.818999999999993
 20
81.17661538461537
 11
2.818999999999993
 21
63.92576923076922
  0
LINE
  5
CA
100
AcDbEntity
  8
Front-Back
  6
ByLayer
 62
  256
370
   -1
100
AcDbLine
 10
2.818999999999993
 20
63.92576923076922
 11
0.8189999999999644
 21
63.92576923076922
  0
LINE
  5
CB
100
AcDbEntity
  8
Front-Back
  6
ByLayer
 62
  256
370
   -1
100
AcDbLine
 10
0.8189999999999644
 20
63.92576923076922
 11
0.8189999999999644
 21
46.67492307692307
  0
LINE
  5
CC
100
AcDbEntity
  8
Front-Back
  6
ByLayer
 62
  256
370
   -1
100
AcDbLine
 10
0.8189999999999644
 20
46.67492307692307
 11
2.818999999999993
 21
46.67492307692307
  0
LINE
  5
CD
100
AcDbEntity
  8
Front-Back
  6
ByLayer
 62
  256
370
   -1
100
AcDbLine
 10
2.818999999999993
 20
46.67492307692307
 11
2.818999999999993
 21
29.42407692307692
  0
LINE
  5
CE
100
AcDbEntity
  8
Front-Back
  6
ByLayer
 62
  256
370
   -1
100
AcDbLine
 10
0.8189999999999644
 20
29.42407692307692
 11
0.8189999999999644
 21
12.17323076923077
  0
LINE
  5
CF
100
AcDbEntity
  8
Front-Back
  6
ByLayer
 62
  256
370
   -1
100
AcDbLine
 10
0.8189999999999644
 20
12.17323076923077
 11
2.818999999999993
 21
12.17323076923077
  0
LINE
  5
D0
100
AcDbEntity
  8
Front-Back
  6
ByLayer
 62
  256
370
   -1
100
AcDbLine
 10
0.8189999999999644
 20
-5.077615384615413
 11
0.8189999999999644
 21
-22.32846153846155
  0
LINE
  5
D1
100
AcDbEntity
  8
Front-Back
  6
ByLayer
 62
  256
370
   -1
100
AcDbLine
 10
0.8189999999999644
 20
-22.32846153846155
 11
2.818999999999993
 21
-22.32846153846155
  0
LINE
  5
D2
100
AcDbEntity
  8
Front-Back
  6
ByLayer
 62
  256
370
   -1
100
AcDbLine
 10
0.8189999999999644
 20
-39.57930769230772
 11
0.8189999999999644
 21
-56.83015384615386
  0
LINE
  5
D3
100
AcDbEntity
  8
Front-Back
  6
ByLayer
 62
  256
370
   -1
100
AcDbLine
 10
0.8189999999999644
 20
-56.83015384615386
 11
2.818999999999993
 21
-56.83015384615386
  0
LINE
  5
D4
100
AcDbEntity
  8
Front-Back
  6
ByLayer
 62
  256
370
   -1
100
AcDbLine
 10
2.818999999999993
 20
-74.08100000000002
 11
0.8189999999999644
 21
-74.08100000000003
  0
LINE
  5
D5
100
AcDbEntity
  8
Front-Back
  6
ByLayer
 62
  256
370
   -1
100
AcDbLine
 10
0.8189999999999644
 20
-74.08100000000003
 11
0.8189999999999644
 21
-91.33184615384617
  0
LINE
  5
D6
100
AcDbEntity
  8
Front-Back
  6
ByLayer
 62
  256
370
   -1
100
AcDbLine
 10
0.8189999999999644
 20
-91.33184615384617
 11
-19.9988888888889
 21
-91.33184615384617
  0
LINE
  5
D7
100
AcDbEntity
  8
Front-Back
  6
ByLayer
 62
  256
370
   -1
100
AcDbLine
 10
-19.9988888888889
 20
-91.33184615384617
 11
-19.9988888888889
 21
-93.33184615384617
  0
LINE
  5
D8
100
AcDbEntity
  8
Front-Back
  6
ByLayer
 62
  256
370
   -1
100
AcDbLine
 10
-19.9988888888889
 20
-93.33184615384617
 11
-40.81677777777778
 21
-93.33184615384617
  0
LINE
  5
D9
100
AcDbEntity
  8
Front-Back
  6
ByLayer
 62
  256
370
   -1
100
AcDbLine
 10
-40.81677777777778
 20
-93.33184615384617
 11
-40.81677777777778
 21
-91.33184615384617
  0
LINE
  5
DA
100
AcDbEntity
  8
Front-Back
  6
ByLayer
 62
  256
370
   -1
100
AcDbLine
 10
-40.81677777777778
 20
-91.33184615384617
 11
-61.63466666666668
 21
-91.33184615384617
  0
LINE
  5
DB
100
AcDbEntity
  8
Front-Back
  6
ByLayer
 62
  256
370
   -1
100
AcDbLine
 10
-61.63466666666668
 20
-91.33184615384617
 11
-61.63466666666668
 21
-93.33184615384617
  0
LINE
  5
DC
100
AcDbEntity
  8
Front-Back
  6
ByLayer
 62
  256
370
   -1
100
AcDbLine
 10
-61.63466666666668
 20
-93.33184615384617
 11
-82.45255555555558
 21
-93.33184615384617
  0
LINE
  5
DD
100
AcDbEntity
  8
Front-Back
  6
ByLayer
 62
  256
370
   -1
100
AcDbLine
 10
-82.45255555555558
 20
-93.33184615384617
 11
-82.45255555555558
 21
-91.33184615384617
  0
LINE
  5
DE
100
AcDbEntity
  8
Front-Back
  6
ByLayer
 62
  256
370
   -1
100
AcDbLine
 10
-82.45255555555558
 20
-91.33184615384617
 11
-103.2704444444445
 21
-91.33184615384617
  0
LINE
  5
DF
100
AcDbEntity
  8
Front-Back
  6
ByLayer
 62
  256
370
   -1
100
AcDbLine
 10
-103.2704444444445
 20
-91.33184615384617
 11
-103.2704444444445
 21
-93.33184615384617
  0
LINE
  5
E0
100
AcDbEntity
  8
Front-Back
  6
ByLayer
 62
  256
370
   -1
100
AcDbLine
 10
-103.2704444444445
 20
-93.33184615384617
 11
-124.0883333333333
 21
-93.33184615384617
  0
LINE
  5
E1
100
AcDbEntity
  8
Front-Back
  6
ByLayer
 62
  256
370
   -1
100
AcDbLine
 10
-124.0883333333333
 20
-93.33184615384617
 11
-124.0883333333333
 21
-91.33184615384617
  0
LINE
  5
E2
100
AcDbEntity
  8
Front-Back
  6
ByLayer
 62
  256
370
   -1
100
AcDbLine
 10
-124.0883333333333
 20
-91.33184615384617
 11
-144.9062222222223
 21
-91.33184615384617
  0
LINE
  5
E3
100
AcDbEntity
  8
Front-Back
  6
ByLayer
 62
  256
370
   -1
100
AcDbLine
 10
-144.9062222222223
 20
-91.33184615384617
 11
-144.9062222222223
 21
-93.33184615384617
  0
LINE
  5
E4
100
AcDbEntity
  8
Front-Back
  6
ByLayer
 62
  256
370
   -1
100
AcDbLine
 10
-144.9062222222223
 20
-93.33184615384617
 11
-165.7241111111111
 21
-93.33184615384617
  0
LINE
  5
E5
100
AcDbEntity
  8
Front-Back
  6
ByLayer
 62
  256
370
   -1
100
AcDbLine
 10
-165.7241111111111
 20
-93.33184615384617
 11
-165.7241111111111
 21
-91.33184615384617
  0
LINE
  5
E6
100
AcDbEntity
  8
Front-Back
  6
ByLayer
 62
  256
370
   -1
100
AcDbLine
 10
-165.7241111111111
 20
-91.33184615384617
 11
-186.542
 21
-91.33184615384617
  0
LINE
  5
E7
100
AcDbEntity
  8
Front-Back
  6
ByLayer
 62
  256
370
   -1
100
AcDbLine
 10
-186.542
 20
-91.33184615384617
 11
-186.542
 21
-74.08100000000005
  0
LINE
  5
E8
100
AcDbEntity
  8
Front-Back
  6
ByLayer
 62
  256
370
   -1
100
AcDbLine
 10
-186.542
 20
-74.08100000000005
 11
-188.542
 21
-74.08100000000005
  0
LINE
  5
E9
100
AcDbEntity
  8
Front-Back
  6
ByLayer
 62
  256
370
   -1
100
AcDbLine
 10
-188.542
 20
-74.08100000000005
 11
-188.542
 21
-56.83015384615386
  0
LINE
  5
EA
100
AcDbEntity
  8
Front-Back
  6
ByLayer
 62
  256
370
   -1
100
AcDbLine
 10
-188.542
 20
-56.83015384615386
 11
-186.542
 21
-56.83015384615386
  0
LINE
  5
EB
100
AcDbEntity
  8
Front-Back
  6
ByLayer
 62
  256
370
   -1
100
AcDbLine
 10
-186.542
 20
-56.83015384615386
 11
-186.542
 21
-39.57930769230772
  0
LINE
  5
EC
100
AcDbEntity
  8
Front-Back
  6
ByLayer
 62
  256
370
   -1
100
AcDbLine
 10
-186.542
 20
-39.57930769230772
 11
-188.542
 21
-39.57930769230772
  0
LINE
  5
ED
100
AcDbEntity
  8
Front-Back
  6
ByLayer
 62
  256
370
   -1
100
AcDbLine
 10
-188.542
 20
-39.57930769230772
 11
-188.542
 21
-22.32846153846155
  0
LINE
  5
EE
100
AcDbEntity
  8
Front-Back
  6
ByLayer
 62
  256
370
   -1
100
AcDbLine
 10
-188.542
 20
-22.32846153846155
 11
-186.542
 21
-22.32846153846155
  0
LINE
  5
EF
100
AcDbEntity
  8
Front-Back
  6
ByLayer
 62
  256
370
   -1
100
AcDbLine
 10
-186.542
 20
-22.32846153846155
 11
-186.542
 21
-5.077615384615413
  0
LINE
  5
F0
100
AcDbEntity
  8
Front-Back
  6
ByLayer
 62
  256
370
   -1
100
AcDbLine
 10
-186.542
 20
-5.077615384615413
 11
-188.542
 21
-5.077615384615413
  0
LINE
  5
F1
100
AcDbEntity
  8
Front-Back
  6
ByLayer
 62
  256
370
   -1
100
AcDbLine
 10
-188.542
 20
-5.077615384615413
 11
-188.542
 21
12.17323076923077
  0
LINE
  5
F2
100
AcDbEntity
  8
Front-Back
  6
ByLayer
 62
  256
370
   -1
100
AcDbLine
 10
-188.542
 20
12.17323076923077
 11
-186.542
 21
12.17323076923077
  0
LINE
  5
F3
100
AcDbEntity
  8
Front-Back
  6
ByLayer
 62
  256
370
   -1
100
AcDbLine
 10
-186.542
 20
12.17323076923077
 11
-186.542
 21
29.4240769230769
  0
LINE
  5
F4
100
AcDbEntity
  8
Front-Back
  6
ByLayer
 62
  256
370
   -1
100
AcDbLine
 10
-186.542
 20
29.4240769230769
 11
-188.542
 21
29.4240769230769
  0
LINE
  5
F5
100
AcDbEntity
  8
Front-Back
  6
ByLayer
 62
  256
370
   -1
100
AcDbLine
 10
-188.542
 20
29.4240769230769
 11
-188.542
 21
46.67492307692308
  0
LINE
  5
F6
100
AcDbEntity
  8
Front-Back
  6
ByLayer
 62
  256
370
   -1
100
AcDbLine
 10
-188.542
 20
46.67492307692308
 11
-186.542
 21
46.67492307692308
  0
LINE
  5
F7
100
AcDbEntity
  8
Front-Back
  6
ByLayer
 62
  256
370
   -1
100
AcDbLine
 10
-186.542
 20
46.67492307692308
 11
-186.542
 21
63.92576923076922
  0
LINE
  5
F8
100
AcDbEntity
  8
Front-Back
  6
ByLayer
 62
  256
370
   -1
100
AcDbLine
 10
-186.542
 20
63.92576923076922
 11
-188.542
 21
63.92576923076922
  0
LINE
  5
F9
100
AcDbEntity
  8
Front-Back
  6
ByLayer
 62
  256
370
   -1
100
AcDbLine
 10
-188.542
 20
63.92576923076922
 11
-188.542
 21
81.17661538461537
  0
LINE
  5
FA
100
AcDbEntity
  8
Front-Back
  6
ByLayer
 62
  256
370
   -1
100
AcDbLine
 10
-188.542
 20
81.17661538461537
 11
-186.542
 21
81.17661538461537
  0
LINE
  5
FB
100
AcDbEntity
  8
Front-Back
  6
ByLayer
 62
  256
370
   -1
100
AcDbLine
 10
-186.542
 20
81.17661538461537
 11
-186.542
 21
98.42746153846153
  0
LINE
  5
FC
100
AcDbEntity
  8
Front-Back
  6
ByLayer
 62
  256
370
   -1
100
AcDbLine
 10
-186.542
 20
98.42746153846153
 11
-188.542
 21
98.42746153846153
  0
LINE
  5
FD
100
AcDbEntity
  8
Front-Back
  6
ByLayer
 62
  256
370
   -1
100
AcDbLine
 10
-188.542
 20
98.42746153846153
 11
-188.542
 21
115.6783076923077
  0
LINE
  5
FE
100
AcDbEntity
  8
Front-Back
  6
ByLayer
 62
  256
370
   -1
100
AcDbLine
 10
-188.542
 20
115.6783076923077
 11
-186.542
 21
115.6783076923077
  0
LINE
  5
FF
100
AcDbEntity
  8
Front-Back
  6
ByLayer
 62
  256
370
   -1
100
AcDbLine
 10
-186.542
 20
115.6783076923077
 11
-186.542
 21
132.9291538461538
  0
LINE
  5
100
100
AcDbEntity
  8
Sides
  6
ByLayer
 62
  256
370
   -1
100
AcDbLine
 10
192.18
 20
98.42746153846151
 11
192.18
 21
81.17661538461539
  0
LINE
  5
101
100
AcDbEntity
  8
Sides
  6
ByLayer
 62
  256
370
   -1
100
AcDbLine
 10
192.18
 20
81.17661538461539
 11
190.18
 21
81.17661538461539
  0
LINE
  5
102
100
AcDbEntity
  8
Sides
  6
ByLayer
 62
  256
370
   -1
100
AcDbLine
 10
190.18
 20
63.92576923076922
 11
192.18
 21
63.92576923076922
  0
LINE
  5
103
100
AcDbEntity
  8
Sides
  6
ByLayer
 62
  256
370
   -1
100
AcDbLine
 10
192.18
 20
63.92576923076922
 11
192.18
 21
46.67492307692307
  0
LINE
  5
104
100
AcDbEntity
  8
Sides
  6
ByLayer
 62
  256
370
   -1
100
AcDbLine
 10
192.18
 20
29.42407692307693
 11
192.18
 21
12.17323076923074
  0
LINE
  5
105
100
AcDbEntity
  8
Sides
  6
ByLayer
 62
  256
370
   -1
100
AcDbLine
 10
190.18
 20
-5.077615384615398
 11
192.18
 21
-5.077615384615398
  0
LINE
  5
106
100
AcDbEntity
  8
Sides
  6
ByLayer
 62
  256
370
   -1
100
AcDbLine
 10
192.18
 20
-56.83015384615386
 11
190.18
 21
-56.83015384615386
  0
LINE
  5
107
100
AcDbEntity
  8
Sides
  6
ByLayer
 62
  256
370
   -1
100
AcDbLine
 10
190.18
 20
-74.08100000000002
 11
192.18
 21
-74.08100000000002
  0
LINE
  5
108
100
AcDbEntity
  8
Sides
  6
ByLayer
 62
  256
370
   -1
100
AcDbLine
 10
192.18
 20
-74.08100000000002
 11
192.18
 21
-76.08100000000003
  0
LINE
  5
109
100
AcDbEntity
  8
Sides
  6
ByLayer
 62
  256
370
   -1
100
AcDbLine
 10
192.18
 20
-76.08100000000003
 11
198.54
 21
-76.08100000000003
  0
LINE
  5
10A
100
AcDbEntity
  8
Sides
  6
ByLayer
 62
  256
370
   -1
100
AcDbLine
 10
198.54
 20
-74.08100000000002
 11
200.54
 21
-74.08100000000002
  0
LINE
  5
10B
100
AcDbEntity
  8
Sides
  6
ByLayer
 62
  256
370
   -1
100
AcDbLine
 10
200.54
 20
-56.83015384615386
 11
198.54
 21
-56.83015384615386
  0
LINE
  5
10C
100
AcDbEntity
  8
Sides
  6
ByLayer
 62
  256
370
   -1
100
AcDbLine
 10
198.54
 20
-39.57930769230771
 11
200.54
 21
-39.57930769230771
  0
LINE
  5
10D
100
AcDbEntity
  8
Sides
  6
ByLayer
 62
  256
370
   -1
100
AcDbLine
 10
200.54
 20
-39.57930769230771
 11
200.54
 21
-22.32846153846157
  0
LINE
  5
10E
100
AcDbEntity
  8
Sides
  6
ByLayer
 62
  256
370
   -1
100
AcDbLine
 10
200.54
 20
-22.32846153846157
 11
198.54
 21
-22.32846153846157
  0
LINE
  5
10F
100
AcDbEntity
  8
Sides
  6
ByLayer
 62
  256
370
   -1
100
AcDbLine
 10
198.54
 20
-5.077615384615398
 11
200.54
 21
-5.077615384615398
  0
LINE
  5
110
100
AcDbEntity
  8
Sides
  6
ByLayer
 62
  256
370
   -1
100
AcDbLine
 10
198.54
 20
12.17323076923074
 11
198.54
 21
29.42407692307693
  0
LINE
  5
111
100
AcDbEntity
  8
Sides
  6
ByLayer
 62
  256
370
   -1
100
AcDbLine
 10
198.54
 20
29.42407692307693
 11
200.54
 21
29.42407692307693
  0
LINE
  5
112
100
AcDbEntity
  8
Sides
  6
ByLayer
 62
  256
370
   -1
100
AcDbLine
 10
200.54
 20
46.67492307692307
 11
198.54
 21
46.67492307692307
  0
LINE
  5
113
100
AcDbEntity
  8
Sides
  6
ByLayer
 62
  256
370
   -1
100
AcDbLine
 10
198.54
 20
46.67492307692307
 11
198.54
 21
63.92576923076922
  0
LINE
  5
114
100
AcDbEntity
  8
Sides
  6
ByLayer
 62
  256
370
   -1
100
AcDbLine
 10
198.54
 20
63.92576923076922
 11
200.54
 21
63.92576923076922
  0
LINE
  5
115
100
AcDbEntity
  8
Sides
  6
ByLayer
 62
  256
370
   -1
100
AcDbLine
 10
200.54
 20
63.92576923076922
 11
200.54
 21
81.17661538461539
  0
LINE
  5
116
100
AcDbEntity
  8
Sides
  6
ByLayer
 62
  256
370
   -1
100
AcDbLine
 10
198.54
 20
81.17661538461539
 11
198.54
 21
98.42746153846151
  0
LINE
  5
117
100
AcDbEntity
  8
Sides
  6
ByLayer
 62
  256
370
   -1
100
AcDbLine
 10
200.54
 20
98.42746153846151
 11
200.54
 21
115.6783076923077
  0
LINE
  5
118
100
AcDbEntity
  8
Sides
  6
ByLayer
 62
  256
370
   -1
100
AcDbLine
 10
198.54
 20
115.6783076923077
 11
198.54
 21
132.9291538461538
  0
LINE
  5
119
100
AcDbEntity
  8
Sides
  6
ByLayer
 62
  256
370
   -1
100
AcDbLine
 10
198.54
 20
132.9291538461538
 11
200.54
 21
132.9291538461538
  0
LINE
  5
11A
100
AcDbEntity
  8
Sides
  6
ByLayer
 62
  256
370
   -1
100
AcDbLine
 10
200.54
 20
132.9291538461538
 11
200.54
 21
150.18
  0
LINE
  5
11B
100
AcDbEntity
  8
Sides
  6
ByLayer
 62
  256
370
   -1
100
AcDbLine
 10
200.54
 20
150.18
 11
198.54
 21
150.18
  0
LINE
  5
11C
100
AcDbEntity
  8
Sides
  6
ByLayer
 62
  256
370
   -1
100
AcDbLine
 10
198.54
 20
150.18
 11
198.54
 21
152.18
  0
LINE
  5
11D
100
AcDbEntity
  8
Sides
  6
ByLayer
 62
  256
370
   -1
100
AcDbLine
 10
198.54
 20
152.18
 11
192.18
 21
152.18
  0
LINE
  5
11E
100
AcDbEntity
  8
Sides
  6
ByLayer
 62
  256
370
   -1
100
AcDbLine
 10
192.18
 20
152.18
 11
192.18
 21
150.18
  0
LINE
  5
11F
100
AcDbEntity
  8
Sides
  6
ByLayer
 62
  256
370
   -1
100
AcDbLine
 10
192.18
 20
150.18
 11
190.18
 21
150.18
  0
LINE
  5
120
100
AcDbEntity
  8
Sides
  6
ByLayer
 62
  256
370
   -1
100
AcDbLine
 10
198.54
 20
115.6783076923077
 11
200.54
 21
115.6783076923077
  0
LINE
  5
121
100
AcDbEntity
  8
Sides
  6
ByLayer
 62
  256
370
   -1
100
AcDbLine
 10
200.54
 20
98.42746153846154
 11
198.54
 21
98.42746153846154
  0
LINE
  5
122
100
AcDbEntity
  8
Sides
  6
ByLayer
 62
  256
370
   -1
100
AcDbLine
 10
198.54
 20
81.17661538461535
 11
200.54
 21
81.17661538461535
  0
LINE
  5
123
100
AcDbEntity
  8
Sides
  6
ByLayer
 62
  256
370
   -1
100
AcDbLine
 10
200.54
 20
46.67492307692305
 11
200.54
 21
29.4240769230769
  0
LINE
  5
124
100
AcDbEntity
  8
Sides
  6
ByLayer
 62
  256
370
   -1
100
AcDbLine
 10
198.54
 20
12.17323076923076
 11
200.54
 21
12.17323076923076
  0
LINE
  5
125
100
AcDbEntity
  8
Sides
  6
ByLayer
 62
  256
370
   -1
100
AcDbLine
 10
200.54
 20
12.17323076923076
 11
200.54
 21
-5.077615384615427
  0
LINE
  5
126
100
AcDbEntity
  8
Sides
  6
ByLayer
 62
  256
370
   -1
100
AcDbLine
 10
198.54
 20
-5.077615384615427
 11
198.54
 21
-22.32846153846157
  0
LINE
  5
127
100
AcDbEntity
  8
Sides
  6
ByLayer
 62
  256
370
   -1
100
AcDbLine
 10
198.54
 20
-39.57930769230774
 11
198.54
 21
-56.83015384615388
  0
LINE
  5
128
100
AcDbEntity
  8
Sides
  6
ByLayer
 62
  256
370
   -1
100
AcDbLine
 10
200.54
 20
-56.83015384615388
 11
200.54
 21
-74.08100000000003
  0
LINE
  5
129
100
AcDbEntity
  8
Sides
  6
ByLayer
 62
  256
370
   -1
100
AcDbLine
 10
198.54
 20
-74.08100000000003
 11
198.54
 21
-91.33184615384619
  0
LINE
  5
12A
100
AcDbEntity
  8
Sides
  6
ByLayer
 62
  256
370
   -1
100
AcDbLine
 10
198.54
 20
-91.33184615384619
 11
200.54
 21
-91.33184615384619
  0
LINE
  5
12B
100
AcDbEntity
  8
Sides
  6
ByLayer
 62
  256
370
   -1
100
AcDbLine
 10
200.54
 20
-91.33184615384619
 11
200.54
 21
-93.3318461538462
  0
LINE
  5
12C
100
AcDbEntity
  8
Sides
  6
ByLayer
 62
  256
370
   -1
100
AcDbLine
 10
200.54
 20
-93.3318461538462
 11
206.9000000000001
 21
-93.3318461538462
  0
LINE
  5
12D
100
AcDbEntity
  8
Sides
  6
ByLayer
 62
  256
370
   -1
100
AcDbLine
 10
206.9000000000001
 20
-93.3318461538462
 11
206.9000000000001
 21
-91.33184615384619
  0
LINE
  5
12E
100
AcDbEntity
  8
Sides
  6
ByLayer
 62
  256
370
   -1
100
AcDbLine
 10
206.9000000000001
 20
-91.33184615384619
 11
208.9000000000001
 21
-91.33184615384619
  0
LINE
  5
12F
100
AcDbEntity
  8
Sides
  6
ByLayer
 62
  256
370
   -1
100
AcDbLine
 10
208.9000000000001
 20
-91.33184615384619
 11
208.9000000000001
 21
-74.08100000000003
  0
LINE
  5
130
100
AcDbEntity
  8
Sides
  6
ByLayer
 62
  256
370
   -1
100
AcDbLine
 10
208.9000000000001
 20
-74.08100000000003
 11
206.9000000000001
 21
-74.08100000000003
  0
LINE
  5
131
100
AcDbEntity
  8
Sides
  6
ByLayer
 62
  256
370
   -1
100
AcDbLine
 10
206.9000000000001
 20
-74.08100000000003
 11
206.9000000000001
 21
-56.83015384615388
  0
LINE
  5
132
100
AcDbEntity
  8
Sides
  6
ByLayer
 62
  256
370
   -1
100
AcDbLine
 10
206.9000000000001
 20
-56.83015384615388
 11
208.9000000000001
 21
-56.83015384615388
  0
LINE
  5
133
100
AcDbEntity
  8
Sides
  6
ByLayer
 62
  256
370
   -1
100
AcDbLine
 10
208.9000000000001
 20
-56.83015384615388
 11
208.9000000000001
 21
-39.57930769230774
  0
LINE
  5
134
100
AcDbEntity
  8
Sides
  6
ByLayer
 62
  256
370
   -1
100
AcDbLine
 10
208.9000000000001
 20
-39.57930769230774
 11
206.9000000000001
 21
-39.57930769230774
  0
LINE
  5
135
100
AcDbEntity
  8
Sides
  6
ByLayer
 62
  256
370
   -1
100
AcDbLine
 10
206.9000000000001
 20
-39.57930769230774
 11
206.9000000000001
 21
-22.32846153846157
  0
LINE
  5
136
100
AcDbEntity
  8
Sides
  6
ByLayer
 62
  256
370
   -1
100
AcDbLine
 10
206.9000000000001
 20
-22.32846153846157
 11
208.9000000000001
 21
-22.32846153846157
  0
LINE
  5
137
100
AcDbEntity
  8
Sides
  6
ByLayer
 62
  256
370
   -1
100
AcDbLine
 10
208.9000000000001
 20
-22.32846153846157
 11
208.9000000000001
 21
-5.077615384615427
  0
LINE
  5
138
100
AcDbEntity
  8
Sides
  6
ByLayer
 62
  256
370
   -1
100
AcDbLine
 10
208.9000000000001
 20
-5.077615384615427
 11
206.9000000000001
 21
-5.077615384615427
  0
LINE
  5
139
100
AcDbEntity
  8
Sides
  6
ByLayer
 62
  256
370
   -1
100
AcDbLine
 10
206.9000000000001
 20
-5.077615384615427
 11
206.9000000000001
 21
12.17323076923076
  0
LINE
  5
13A
100
AcDbEntity
  8
Sides
  6
ByLayer
 62
  256
370
   -1
100
AcDbLine
 10
206.9000000000001
 20
12.17323076923076
 11
208.9000000000001
 21
12.17323076923076
  0
LINE
  5
13B
100
AcDbEntity
  8
Sides
  6
ByLayer
 62
  256
370
   -1
100
AcDbLine
 10
208.9000000000001
 20
12.17323076923076
 11
208.9000000000001
 21
29.4240769230769
  0
LINE
  5
13C
100
AcDbEntity
  8
Sides
  6
ByLayer
 62
  256
370
   -1
100
AcDbLine
 10
208.9000000000001
 20
29.4240769230769
 11
206.9000000000001
 21
29.4240769230769
  0
LINE
  5
13D
100
AcDbEntity
  8
Sides
  6
ByLayer
 62
  256
370
   -1
100
AcDbLine
 10
206.9000000000001
 20
29.4240769230769
 11
206.9000000000001
 21
46.67492307692305
  0
LINE
  5
13E
100
AcDbEntity
  8
Sides
  6
ByLayer
 62
  256
370
   -1
100
AcDbLine
 10
206.9000000000001
 20
46.67492307692305
 11
208.9000000000001
 21
46.67492307692305
  0
LINE
  5
13F
100
AcDbEntity
  8
Sides
  6
ByLayer
 62
  256
370
   -1
100
AcDbLine
 10
208.9000000000001
 20
46.67492307692305
 11
208.9000000000001
 21
63.92576923076922
  0
LINE
  5
140
100
AcDbEntity
  8
Sides
  6
ByLayer
 62
  256
370
   -1
100
AcDbLine
 10
208.9000000000001
 20
63.92576923076922
 11
206.9000000000001
 21
63.92576923076922
  0
LINE
  5
141
100
AcDbEntity
  8
Sides
  6
ByLayer
 62
  256
370
   -1
100
AcDbLine
 10
206.9000000000001
 20
63.92576923076922
 11
206.9000000000001
 21
81.17661538461535
  0
LINE
  5
142
100
AcDbEntity
  8
Sides
  6
ByLayer
 62
  256
370
   -1
100
AcDbLine
 10
206.9000000000001
 20
81.17661538461535
 11
208.9000000000001
 21
81.17661538461535
  0
LINE
  5
143
100
AcDbEntity
  8
Sides
  6
ByLayer
 62
  256
370
   -1
100
AcDbLine
 10
208.9000000000001
 20
81.17661538461535
 11
208.9
 21
98.42746153846154
  0
LINE
  5
144
100
AcDbEntity
  8
Sides
  6
ByLayer
 62
  256
370
   -1
100
AcDbLine
 10
208.9
 20
98.42746153846154
 11
206.9
 21
98.42746153846154
  0
LINE
  5
145
100
AcDbEntity
  8
Sides
  6
ByLayer
 62
  256
370
   -1
100
AcDbLine
 10
206.9
 20
98.42746153846154
 11
206.9
 21
115.6783076923077
  0
LINE
  5
146
100
AcDbEntity
  8
Sides
  6
ByLayer
 62
  256
370
   -1
100
AcDbLine
 10
206.9
 20
115.6783076923077
 11
208.9
 21
115.6783076923077
  0
LINE
  5
147
100
AcDbEntity
  8
Sides
  6
ByLayer
 62
  256
370
   -1
100
AcDbLine
 10
208.9
 20
115.6783076923077
 11
208.9
 21
132.9291538461538
  0
LINE
  5
148
100
AcDbEntity
  8
Sides
  6
ByLayer
 62
  256
370
   -1
100
AcDbLine
 10
208.9
 20
132.9291538461538
 11
206.9
 21
132.9291538461538
  0
LINE
  5
149
100
AcDbEntity
  8
Sides
  6
ByLayer
 62
  256
370
   -1
100
AcDbLine
 10
206.9
 20
132.9291538461538
 11
206.9
 21
134.9291538461538
  0
LINE
  5
14A
100
AcDbEntity
  8
Sides
  6
ByLayer
 62
  256
370
   -1
100
AcDbLine
 10
206.9
 20
134.9291538461538
 11
200.54
 21
134.9291538461538
  0
LINE
  5
14B
100
AcDbEntity
  8
Top-Bottom
  6
ByLayer
 62
  256
370
   -1
100
AcDbLine
 10
-188
 20
146.36
 11
-190
 21
146.36
  0
LINE
  5
14C
100
AcDbEntity
  8
Top-Bottom
  6
ByLayer
 62
  256
370
   -1
100
AcDbLine
 10
-190
 20
146.36
 11
-190
 21
148.36
  0
LINE
  5
14D
100
AcDbEntity
  8
Top-Bottom
  6
ByLayer
 62
  256
370
   -1
100
AcDbLine
 10
-190
 20
148.36
 11
-167.1821111111111
 21
148.36
  0
LINE
  5
14E
100
AcDbEntity
  8
Top-Bottom
  6
ByLayer
 62
  256
370
   -1
100
AcDbLine
 10
-167.1821111111111
 20
148.36
 11
-167.1821111111111
 21
146.36
  0
LINE
  5
14F
100
AcDbEntity
  8
Top-Bottom
  6
ByLayer
 62
  256
370
   -1
100
AcDbLine
 10
-167.1821111111111
 20
146.36
 11
-146.3642222222222
 21
146.36
  0
LINE
  5
150
100
AcDbEntity
  8
Top-Bottom
  6
ByLayer
 62
  256
370
   -1
100
AcDbLine
 10
-146.3642222222222
 20
146.36
 11
-146.3642222222222
 21
148.36
  0
LINE
  5
151
100
AcDbEntity
  8
Top-Bottom
  6
ByLayer
 62
  256
370
   -1
100
AcDbLine
 10
-146.3642222222222
 20
148.36
 11
-125.5463333333333
 21
148.36
  0
LINE
  5
152
100
AcDbEntity
  8
Top-Bottom
  6
ByLayer
 62
  256
370
   -1
100
AcDbLine
 10
-125.5463333333333
 20
148.36
 11
-125.5463333333333
 21
146.36
  0
LINE
  5
153
100
AcDbEntity
  8
Top-Bottom
  6
ByLayer
 62
  256
370
   -1
100
AcDbLine
 10
-125.5463333333333
 20
146.36
 11
-104.7284444444444
 21
146.36
  0
LINE
  5
154
100
AcDbEntity
  8
Top-Bottom
  6
ByLayer
 62
  256
370
   -1
100
AcDbLine
 10
-104.7284444444444
 20
146.36
 11
-104.7284444444444
 21
148.36
  0
LINE
  5
155
100
AcDbEntity
  8
Top-Bottom
  6
ByLayer
 62
  256
370
   -1
100
AcDbLine
 10
-104.7284444444444
 20
148.36
 11
-83.91055555555555
 21
148.36
  0
LINE
  5
156
100
AcDbEntity
  8
Top-Bottom
  6
ByLayer
 62
  256
370
   -1
100
AcDbLine
 10
-83.91055555555555
 20
148.36
 11
-83.91055555555555
 21
146.36
  0
LINE
  5
157
100
AcDbEntity
  8
Top-Bottom
  6
ByLayer
 62
  256
370
   -1
100
AcDbLine
 10
-83.91055555555555
 20
146.36
 11
-63.09266666666666
 21
146.36
  0
LINE
  5
158
100
AcDbEntity
  8
Top-Bottom
  6
ByLayer
 62
  256
370
   -1
100
AcDbLine
 10
-63.09266666666666
 20
146.36
 11
-63.09266666666666
 21
148.36
  0
LINE
  5
159
100
AcDbEntity
  8
Top-Bottom
  6
ByLayer
 62
  256
370
   -1
100
AcDbLine
 10
-63.09266666666666
 20
148.36
 11
-42.27477777777776
 21
148.36
  0
LINE
  5
15A
100
AcDbEntity
  8
Top-Bottom
  6
ByLayer
 62
  256
370
   -1
100
AcDbLine
 10
-42.27477777777776
 20
148.36
 11
-42.27477777777776
 21
146.36
  0
LINE
  5
15B
100
AcDbEntity
  8
Top-Bottom
  6
ByLayer
 62
  256
370
   -1
100
AcDbLine
 10
-42.27477777777776
 20
146.36
 11
-21.45688888888887
 21
146.36
  0
LINE
  5
15C
100
AcDbEntity
  8
Top-Bottom
  6
ByLayer
 62
  256
370
   -1
100
AcDbLine
 10
-21.45688888888887
 20
146.36
 11
-21.45688888888887
 21
148.36
  0
LINE
  5
15D
100
AcDbEntity
  8
Top-Bottom
  6
ByLayer
 62
  256
370
   -1
100
AcDbLine
 10
-21.45688888888887
 20
148.36
 11
1.361000000000018
 21
148.36
  0
LINE
  5
15E
100
AcDbEntity
  8
Top-Bottom
  6
ByLayer
 62
  256
370
   -1
100
AcDbLine
 10
1.361000000000018
 20
148.36
 11
1.361000000000018
 21
146.36
  0
LINE
  5
15F
100
AcDbEntity
  8
Top-Bottom
  6
ByLayer
 62
  256
370
   -1
100
AcDbLine
 10
1.361000000000018
 20
146.36
 11
-0.6389999999999816
 21
146.36
  0
LINE
  5
160
100
AcDbEntity
  8
Top-Bottom
  6
ByLayer
 62
  256
370
   -1
100
AcDbLine
 10
-0.6389999999999816
 20
146.36
 11
-0.6389999999999816
 21
140
  0
LINE
  5
161
100
AcDbEntity
  8
Top-Bottom
  6
ByLayer
 62
  256
370
   -1
100
AcDbLine
 10
-0.6389999999999816
 20
140
 11
1.361000000000018
 21
140
  0
LINE
  5
162
100
AcDbEntity
  8
Top-Bottom
  6
ByLayer
 62
  256
370
   -1
100
AcDbLine
 10
1.361000000000018
 20
140
 11
1.361000000000018
 21
138
  0
LINE
  5
163
100
AcDbEntity
  8
Top-Bottom
  6
ByLayer
 62
  256
370
   -1
100
AcDbLine
 10
1.361000000000018
 20
138
 11
-21.45688888888887
 21
138
  0
LINE
  5
164
100
AcDbEntity
  8
Top-Bottom
  6
ByLayer
 62
  256
370
   -1
100
AcDbLine
 10
-21.45688888888887
 20
138
 11
-21.45688888888887
 21
140
  0
LINE
  5
165
100
AcDbEntity
  8
Top-Bottom
  6
ByLayer
 62
  256
370
   -1
100
AcDbLine
 10
-21.45688888888887
 20
140
 11
-42.27477777777776
 21
140
  0
LINE
  5
166
100
AcDbEntity
  8
Top-Bottom
  6
ByLayer
 62
  256
370
   -1
100
AcDbLine
 10
-42.27477777777776
 20
140
 11
-42.27477777777776
 21
138
  0
LINE
  5
167
100
AcDbEntity
  8
Top-Bottom
  6
ByLayer
 62
  256
370
   -1
100
AcDbLine
 10
-42.27477777777776
 20
138
 11
-63.09266666666666
 21
138
  0
LINE
  5
168
100
AcDbEntity
  8
Top-Bottom
  6
ByLayer
 62
  256
370
   -1
100
AcDbLine
 10
-63.09266666666666
 20
138
 11
-63.09266666666666
 21
140
  0
LINE
  5
169
100
AcDbEntity
  8
Top-Bottom
  6
ByLayer
 62
  256
370
   -1
100
AcDbLine
 10
-63.09266666666666
 20
140
 11
-83.91055555555555
 21
140
  0
LINE
  5
16A
100
AcDbEntity
  8
Top-Bottom
  6
ByLayer
 62
  256
370
   -1
100
AcDbLine
 10
-83.91055555555555
 20
140
 11
-83.91055555555555
 21
138
  0
LINE
  5
16B
100
AcDbEntity
  8
Top-Bottom
  6
ByLayer
 62
  256
370
   -1
100
AcDbLine
 10
-83.91055555555555
 20
138
 11
-104.7284444444444
 21
138
  0
LINE
  5
16C
100
AcDbEntity
  8
Top-Bottom
  6
ByLayer
 62
  256
370
   -1
100
AcDbLine
 10
-104.7284444444444
 20
138
 11
-104.7284444444444
 21
140
  0
LINE
  5
16D
100
AcDbEntity
  8
Top-Bottom
  6
ByLayer
 62
  256
370
   -1
100
AcDbLine
 10
-104.7284444444444
 20
140
 11
-125.5463333333333
 21
140
  0
LINE
  5
16E
100
AcDbEntity
  8
Top-Bottom
  6
ByLayer
 62
  256
370
   -1
100
AcDbLine
 10
-125.5463333333333
 20
140
 11
-125.5463333333333
 21
138
  0
LINE
  5
16F
100
AcDbEntity
  8
Top-Bottom
  6
ByLayer
 62
  256
370
   -1
100
AcDbLine
 10
-125.5463333333333
 20
138
 11
-146.3642222222222
 21
138
  0
LINE
  5
170
100
AcDbEntity
  8
Top-Bottom
  6
ByLayer
 62
  256
370
   -1
100
AcDbLine
 10
-146.3642222222222
 20
138
 11
-146.3642222222222
 21
140
  0
LINE
  5
171
100
AcDbEntity
  8
Top-Bottom
  6
ByLayer
 62
  256
370
   -1
100
AcDbLine
 10
-146.3642222222222
 20
140
 11
-167.1821111111111
 21
140
  0
LINE
  5
172
100
AcDbEntity
  8
Top-Bottom
  6
ByLayer
 62
  256
370
   -1
100
AcDbLine
 10
-167.1821111111111
 20
140
 11
-167.1821111111111
 21
138
  0
LINE
  5
173
100
AcDbEntity
  8
Top-Bottom
  6
ByLayer
 62
  256
370
   -1
100
AcDbLine
 10
-167.1821111111111
 20
138
 11
-188
 21
138
  0
LINE
  5
174
100
AcDbEntity
  8
Top-Bottom
  6
ByLayer
 62
  256
370
   -1
100
AcDbLine
 10
-188
 20
138
 11
-190
 21
138
  0
LINE
  5
175
100
AcDbEntity
  8
Top-Bottom
  6
ByLayer
 62
  256
370
   -1
100
AcDbLine
 10
-190
 20
138
 11
-190
 21
140
  0
LINE
  5
176
100
AcDbEntity
  8
Top-Bottom
  6
ByLayer
 62
  256
370
   -1
100
AcDbLine
 10
-190
 20
140
 11
-188
 21
140
  0
LINE
  5
177
100
AcDbEntity
  8
Top-Bottom
  6
ByLayer
 62
  256
370
   -1
100
AcDbLine
 10
-188
 20
140
 11
-188
 21
146.36
  0
LINE
  5
178
100
AcDbEntity
  8
Top-Bottom
  6
ByLayer
 62
  256
370
   -1
100
AcDbLine
 10
5.684805016500059
 20
-81.91772290425143
 11
3.684805016500059
 21
-81.91772290425143
  0
LINE
  5
179
100
AcDbEntity
  8
Top-Bottom
  6
ByLayer
 62
  256
370
   -1
100
AcDbLine
 10
3.684805016500059
 20
-81.91772290425143
 11
3.684805016500059
 21
-79.91772290425141
  0
LINE
  5
17A
100
AcDbEntity
  8
Top-Bottom
  6
ByLayer
 62
  256
370
   -1
100
AcDbLine
 10
3.684805016500059
 20
-79.91772290425141
 11
26.50269390538894
 21
-79.91772290425141
  0
LINE
  5
17B
100
AcDbEntity
  8
Top-Bottom
  6
ByLayer
 62
  256
370
   -1
100
AcDbLine
 10
26.50269390538894
 20
-79.91772290425141
 11
26.50269390538894
 21
-81.91772290425143
  0
LINE
  5
17C
100
AcDbEntity
  8
Top-Bottom
  6
ByLayer
 62
  256
370
   -1
100
AcDbLine
 10
26.50269390538894
 20
-81.91772290425143
 11
47.32058279427783
 21
-81.91772290425143
  0
LINE
  5
17D
100
AcDbEntity
  8
Top-Bottom
  6
ByLayer
 62
  256
370
   -1
100
AcDbLine
 10
47.32058279427783
 20
-81.91772290425143
 11
47.32058279427783
 21
-79.91772290425141
  0
LINE
  5
17E
100
AcDbEntity
  8
Top-Bottom
  6
ByLayer
 62
  256
370
   -1
100
AcDbLine
 10
47.32058279427783
 20
-79.91772290425141
 11
68.13847168316673
 21
-79.91772290425141
  0
LINE
  5
17F
100
AcDbEntity
  8
Top-Bottom
  6
ByLayer
 62
  256
370
   -1
100
AcDbLine
 10
68.13847168316673
 20
-79.91772290425141
 11
68.13847168316673
 21
-81.91772290425143
  0
LINE
  5
180
100
AcDbEntity
  8
Top-Bottom
  6
ByLayer
 62
  256
370
   -1
100
AcDbLine
 10
68.13847168316673
 20
-81.91772290425143
 11
88.95636057205562
 21
-81.91772290425143
  0
LINE
  5
181
100
AcDbEntity
  8
Top-Bottom
  6
ByLayer
 62
  256
370
   -1
100
AcDbLine
 10
88.95636057205562
 20
-81.91772290425143
 11
88.95636057205562
 21
-79.91772290425141
  0
LINE
  5
182
100
AcDbEntity
  8
Top-Bottom
  6
ByLayer
 62
  256
370
   -1
100
AcDbLine
 10
88.95636057205562
 20
-79.91772290425141
 11
109.7742494609445
 21
-79.91772290425141
  0
LINE
  5
183
100
AcDbEntity
  8
Top-Bottom
  6
ByLayer
 62
  256
370
   -1
100
AcDbLine
 10
109.7742494609445
 20
-79.91772290425141
 11
109.7742494609445
 21
-81.91772290425143
  0
LINE
  5
184
100
AcDbEntity
  8
Top-Bottom
  6
ByLayer
 62
  256
370
   -1
100
AcDbLine
 10
109.7742494609445
 20
-81.91772290425143
 11
130.5921383498334
 21
-81.91772290425143
  0
LINE
  5
185
100
AcDbEntity
  8
Top-Bottom
  6
ByLayer
 62
  256
370
   -1
100
AcDbLine
 10
130.5921383498334
 20
-81.91772290425143
 11
130.5921383498334
 21
-79.91772290425141
  0
LINE
  5
186
100
AcDbEntity
  8
Top-Bottom
  6
ByLayer
 62
  256
370
   -1
100
AcDbLine
 10
130.5921383498334
 20
-79.91772290425141
 11
151.4100272387223
 21
-79.91772290425141
  0
LINE
  5
187
100
AcDbEntity
  8
Top-Bottom
  6
ByLayer
 62
  256
370
   -1
100
AcDbLine
 10
151.4100272387223
 20
-79.91772290425141
 11
151.4100272387223
 21
-81.91772290425143
  0
LINE
  5
188
100
AcDbEntity
  8
Top-Bottom
  6
ByLayer
 62
  256
370
   -1
100
AcDbLine
 10
151.4100272387223
 20
-81.91772290425143
 11
172.2279161276112
 21
-81.91772290425143
  0
LINE
  5
189
100
AcDbEntity
  8
Top-Bottom
  6
ByLayer
 62
  256
370
   -1
100
AcDbLine
 10
172.2279161276112
 20
-81.91772290425143
 11
172.2279161276112
 21
-79.91772290425141
  0
LINE
  5
18A
100
AcDbEntity
  8
Top-Bottom
  6
ByLayer
 62
  256
370
   -1
100
AcDbLine
 10
172.2279161276112
 20
-79.91772290425141
 11
195.0458050165001
 21
-79.91772290425141
  0
LINE
  5
18B
100
AcDbEntity
  8
Top-Bottom
  6
ByLayer
 62
  256
370
   -1
100
AcDbLine
 10
195.0458050165001
 20
-79.91772290425141
 11
195.0458050165001
 21
-81.91772290425143
  0
LINE
  5
18C
100
AcDbEntity
  8
Top-Bottom
  6
ByLayer
 62
  256
370
   -1
100
AcDbLine
 10
195.0458050165001
 20
-81.91772290425143
 11
193.0458050165001
 21
-81.91772290425143
  0
LINE
  5
18D
100
AcDbEntity
  8
Top-Bottom
  6
ByLayer
 62
  256
370
   -1
100
AcDbLine
 10
193.0458050165001
 20
-81.91772290425143
 11
193.0458050165001
 21
-88.27772290425145
  0
LINE
  5
18E
100
AcDbEntity
  8
Top-Bottom
  6
ByLayer
 62
  256
370
   -1
100
AcDbLine
 10
193.0458050165001
 20
-88.27772290425145
 11
195.0458050165001
 21
-88.27772290425145
  0
LINE
  5
18F
100
AcDbEntity
  8
Top-Bottom
  6
ByLayer
 62
  256
370
   -1
100
AcDbLine
 10
195.0458050165001
 20
-88.27772290425145
 11
195.0458050165001
 21
-90.27772290425145
  0
LINE
  5
190
100
AcDbEntity
  8
Top-Bottom
  6
ByLayer
 62
  256
370
   -1
100
AcDbLine
 10
195.0458050165001
 20
-90.27772290425145
 11
172.2279161276112
 21
-90.27772290425145
  0
LINE
  5
191
100
AcDbEntity
  8
Top-Bottom
  6
ByLayer
 62
  256
370
   -1
100
AcDbLine
 10
172.2279161276112
 20
-90.27772290425145
 11
172.2279161276112
 21
-88.27772290425145
  0
LINE
  5
192
100
AcDbEntity
  8
Top-Bottom
  6
ByLayer
 62
  256
370
   -1
100
AcDbLine
 10
172.2279161276112
 20
-88.27772290425145
 11
151.4100272387223
 21
-88.27772290425145
  0
LINE
  5
193
100
AcDbEntity
  8
Top-Bottom
  6
ByLayer
 62
  256
370
   -1
100
AcDbLine
 10
151.4100272387223
 20
-88.27772290425145
 11
151.4100272387223
 21
-90.27772290425145
  0
LINE
  5
194
100
AcDbEntity
  8
Top-Bottom
  6
ByLayer
 62
  256
370
   -1
100
AcDbLine
 10
151.4100272387223
 20
-90.27772290425145
 11
130.5921383498334
 21
-90.27772290425142
  0
LINE
  5
195
100
AcDbEntity
  8
Top-Bottom
  6
ByLayer
 62
  256
370
   -1
100
AcDbLine
 10
130.5921383498334
 20
-90.27772290425142
 11
130.5921383498334
 21
-88.27772290425142
  0
LINE
  5
196
100
AcDbEntity
  8
Top-Bottom
  6
ByLayer
 62
  256
370
   -1
100
AcDbLine
 10
130.5921383498334
 20
-88.27772290425142
 11
109.7742494609445
 21
-88.27772290425142
  0
LINE
  5
197
100
AcDbEntity
  8
Top-Bottom
  6
ByLayer
 62
  256
370
   -1
100
AcDbLine
 10
109.7742494609445
 20
-88.27772290425142
 11
109.7742494609445
 21
-90.27772290425142
  0
LINE
  5
198
100
AcDbEntity
  8
Top-Bottom
  6
ByLayer
 62
  256
370
   -1
100
AcDbLine
 10
109.7742494609445
 20
-90.27772290425142
 11
88.95636057205562
 21
-90.27772290425142
  0
LINE
  5
199
100
AcDbEntity
  8
Top-Bottom
  6
ByLayer
 62
  256
370
   -1
100
AcDbLine
 10
88.95636057205562
 20
-90.27772290425142
 11
88.95636057205562
 21
-88.27772290425142
  0
LINE
  5
19A
100
AcDbEntity
  8
Top-Bottom
  6
ByLayer
 62
  256
370
   -1
100
AcDbLine
 10
88.95636057205562
 20
-88.27772290425142
 11
68.13847168316673
 21
-88.27772290425142
  0
LINE
  5
19B
100
AcDbEntity
  8
Top-Bottom
  6
ByLayer
 62
  256
370
   -1
100
AcDbLine
 10
68.13847168316673
 20
-88.27772290425142
 11
68.13847168316673
 21
-90.27772290425142
  0
LINE
  5
19C
100
AcDbEntity
  8
Top-Bottom
  6
ByLayer
 62
  256
370
   -1
100
AcDbLine
 10
68.13847168316673
 20
-90.27772290425142
 11
47.32058279427783
 21
-90.27772290425142
  0
LINE
  5
19D
100
AcDbEntity
  8
Top-Bottom
  6
ByLayer
 62
  256
370
   -1
100
AcDbLine
 10
47.32058279427783
 20
-90.27772290425142
 11
47.32058279427783
 21
-88.27772290425142
  0
LINE
  5
19E
100
AcDbEntity
  8
Top-Bottom
  6
ByLayer
 62
  256
370
   -1
100
AcDbLine
 10
47.32058279427783
 20
-88.27772290425142
 11
26.50269390538894
 21
-88.27772290425142
  0
LINE
  5
19F
100
AcDbEntity
  8
Top-Bottom
  6
ByLayer
 62
  256
370
   -1
100
AcDbLine
 10
26.50269390538894
 20
-88.27772290425142
 11
26.50269390538894
 21
-90.27772290425142
  0
LINE
  5
1A0
100
AcDbEntity
  8
Top-Bottom
  6
ByLayer
 62
  256
370
   -1
100
AcDbLine
 10
26.50269390538894
 20
-90.27772290425142
 11
5.684805016500059
 21
-90.27772290425142
  0
LINE
  5
1A1
100
AcDbEntity
  8
Top-Bottom
  6
ByLayer
 62
  256
370
   -1
100
AcDbLine
 10
5.684805016500059
 20
-90.27772290425142
 11
3.684805016500059
 21
-90.27772290425142
  0
LINE
  5
1A2
100
AcDbEntity
  8
Top-Bottom
  6
ByLayer
 62
  256
370
   -1
100
AcDbLine
 10
3.684805016500059
 20
-90.27772290425142
 11
3.684805016500059
 21
-88.27772290425142
  0
LINE
  5
1A3
100
AcDbEntity
  8
Top-Bottom
  6
ByLayer
 62
  256
370
   -1
100
AcDbLine
 10
3.684805016500059
 20
-88.27772290425142
 11
5.684805016500059
 21
-88.27772290425142
  0
LINE
  5
1A4
100
AcDbEntity
  8
Top-Bottom
  6
ByLayer
 62
  256
370
   -1
100
AcDbLine
 10
5.684805016500059
 20
-88.27772290425142
 11
5.684805016500059
 21
-81.91772290425143
  0
LINE
  5
1A5
100
AcDbEntity
  8
Engrave
  6
ByLayer
 62
  256
370
   -1
100
AcDbLine
 10
-188
 20
146.36
 11
-167.1821111111111
 21
146.36
  0
LINE
  5
1A6
100
AcDbEntity
  8
Engrave
  6
ByLayer
 62
  256
370
   -1
100
AcDbLine
 10
-146.3642222222222
 20
146.36
 11
-125.5463333333333
 21
146.36
  0
LINE
  5
1A7
100
AcDbEntity
  8
Engrave
  6
ByLayer
 62
  256
370
   -1
100
AcDbLine
 10
-104.7284444444444
 20
146.36
 11
-83.91055555555555
 21
146.36
  0
LINE
  5
1A8
100
AcDbEntity
  8
Engrave
  6
ByLayer
 62
  256
370
   -1
100
AcDbLine
 10
-63.09266666666666
 20
146.36
 11
-42.27477777777776
 21
146.36
  0
LINE
  5
1A9
100
AcDbEntity
  8
Engrave
  6
ByLayer
 62
  256
370
   -1
100
AcDbLine
 10
-21.45688888888887
 20
146.36
 11
-0.6389999999999817
 21
146.36
  0
LINE
  5
1AA
100
AcDbEntity
  8
Engrave
  6
ByLayer
 62
  256
370
   -1
100
AcDbLine
 10
-188
 20
140
 11
-167.1821111111111
 21
140
  0
LINE
  5
1AB
100
AcDbEntity
  8
Engrave
  6
ByLayer
 62
  256
370
   -1
100
AcDbLine
 10
-146.3642222222222
 20
140
 11
-125.5463333333333
 21
140
  0
LINE
  5
1AC
100
AcDbEntity
  8
Engrave
  6
ByLayer
 62
  256
370
   -1
100
AcDbLine
 10
-104.7284444444444
 20
140
 11
-83.91055555555555
 21
140
  0
LINE
  5
1AD
100
AcDbEntity
  8
Engrave
  6
ByLayer
 62
  256
370
   -1
100
AcDbLine
 10
-63.09266666666666
 20
140
 11
-42.27477777777776
 21
140
  0
LINE
  5
1AE
100
AcDbEntity
  8
Engrave
  6
ByLayer
 62
  256
370
   -1
100
AcDbLine
 10
-21.45688888888887
 20
140
 11
-0.6389999999999817
 21
140
  0
LINE
  5
1AF
100
AcDbEntity
  8
Engrave
  6
ByLayer
 62
  256
370
   -1
100
AcDbLine
 10
5.684805016500064
 20
-81.91772290425143
 11
26.50269390538895
 21
-81.91772290425143
  0
LINE
  5
1B0
100
AcDbEntity
  8
Engrave
  6
ByLayer
 62
  256
370
   -1
100
AcDbLine
 10
47.32058279427787
 20
-81.91772290425143
 11
68.13847168316677
 21
-81.91772290425143
  0
LINE
  5
1B1
100
AcDbEntity
  8
Engrave
  6
ByLayer
 62
  256
370
   -1
100
AcDbLine
 10
88.95636057205566
 20
-81.91772290425143
 11
109.7742494609445
 21
-81.91772290425143
  0
LINE
  5
1B2
100
AcDbEntity
  8
Engrave
  6
ByLayer
 62
  256
370
   -1
100
AcDbLine
 10
130.5921383498334
 20
-81.91772290425143
 11
151.4100272387223
 21
-81.91772290425143
  0
LINE
  5
1B3
100
AcDbEntity
  8
Engrave
  6
ByLayer
 62
  256
370
   -1
100
AcDbLine
 10
172.2279161276112
 20
-81.91772290425143
 11
193.0458050165001
 21
-81.91772290425143
  0
LINE
  5
1B4
100
AcDbEntity
  8
Engrave
  6
ByLayer
 62
  256
370
   -1
100
AcDbLine
 10
5.684805016500064
 20
-88.27772290425142
 11
26.50269390538895
 21
-88.27772290425142
  0
LINE
  5
1B5
100
AcDbEntity
  8
Engrave
  6
ByLayer
 62
  256
370
   -1
100
AcDbLine
 10
47.32058279427787
 20
-88.27772290425142
 11
68.13847168316677
 21
-88.27772290425142
  0
LINE
  5
1B6
100
AcDbEntity
  8
Engrave
  6
ByLayer
 62
  256
370
   -1
100
AcDbLine
 10
88.95636057205566
 20
-88.27772290425142
 11
109.7742494609445
 21
-88.27772290425142
  0
LINE
  5
1B7
100
AcDbEntity
  8
Engrave
  6
ByLayer
 62
  256
370
   -1
100
AcDbLine
 10
130.5921383498334
 20
-88.27772290425142
 11
151.4100272387223
 21
-88.27772290425142
  0
LINE
  5
1B8
100
AcDbEntity
  8
Engrave
  6
ByLayer
 62
  256
370
   -1
100
AcDbLine
 10
172.2279161276112
 20
-88.27772290425142
 11
193.0458050165001
 21
-88.27772290425142
  0
LINE
  5
1B9
100
AcDbEntity
  8
Engrave
  6
ByLayer
 62
  256
370
   -1
100
AcDbLine
 10
-165.7241111111111
 20
132.9291538461538
 11
-144.9062222222223
 21
132.9291538461538
  0
LINE
  5
1BA
100
AcDbEntity
  8
Engrave
  6
ByLayer
 62
  256
370
   -1
100
AcDbLine
 10
-124.0883333333333
 20
132.9291538461538
 11
-103.2704444444445
 21
132.9291538461538
  0
LINE
  5
1BB
100
AcDbEntity
  8
Engrave
  6
ByLayer
 62
  256
370
   -1
100
AcDbLine
 10
-82.45255555555558
 20
132.9291538461538
 11
-61.63466666666667
 21
132.9291538461538
  0
LINE
  5
1BC
100
AcDbEntity
  8
Engrave
  6
ByLayer
 62
  256
370
   -1
100
AcDbLine
 10
-40.81677777777778
 20
132.9291538461538
 11
-19.99888888888887
 21
132.9291538461538
  0
LINE
  5
1BD
100
AcDbEntity
  8
Engrave
  6
ByLayer
 62
  256
370
   -1
100
AcDbLine
 10
-186.542
 20
115.6783076923077
 11
-186.542
 21
98.42746153846153
  0
LINE
  5
1BE
100
AcDbEntity
  8
Engrave
  6
ByLayer
 62
  256
370
   -1
100
AcDbLine
 10
-186.542
 20
81.17661538461537
 11
-186.542
 21
63.92576923076922
  0
LINE
  5
1BF
100
AcDbEntity
  8
Engrave
  6
ByLayer
 62
  256
370
   -1
100
AcDbLine
 10
-186.542
 20
46.67492307692308
 11
-186.542
 21
29.4240769230769
  0
LINE
  5
1C0
100
AcDbEntity
  8
Engrave
  6
ByLayer
 62
  256
370
   -1
100
AcDbLine
 10
-186.542
 20
12.17323076923077
 11
-186.542
 21
-5.077615384615413
  0
LINE
  5
1C1
100
AcDbEntity
  8
Engrave
  6
ByLayer
 62
  256
370
   -1
100
AcDbLine
 10
-186.542
 20
-22.32846153846155
 11
-186.542
 21
-39.57930769230772
  0
LINE
  5
1C2
100
AcDbEntity
  8
Engrave
  6
ByLayer
 62
  256
370
   -1
100
AcDbLine
 10
-186.542
 20
-56.83015384615386
 11
-186.542
 21
-74.08100000000005
  0
LINE
  5
1C3
100
AcDbEntity
  8
Engrave
  6
ByLayer
 62
  256
370
   -1
100
AcDbLine
 10
23.63688888888888
 20
150.18
 11
44.45477777777768
 21
150.18
  0
LINE
  5
1C4
100
AcDbEntity
  8
Engrave
  6
ByLayer
 62
  256
370
   -1
100
AcDbLine
 10
65.27266666666669
 20
150.18
 11
86.0905555555555
 21
150.18
  0
LINE
  5
1C5
100
AcDbEntity
  8
Engrave
  6
ByLayer
 62
  256
370
   -1
100
AcDbLine
 10
106.9084444444444
 20
150.18
 11
127.7263333333333
 21
150.18
  0
LINE
  5
1C6
100
AcDbEntity
  8
Engrave
  6
ByLayer
 62
  256
370
   -1
100
AcDbLine
 10
148.5442222222222
 20
150.18
 11
169.3621111111111
 21
150.18
  0
LINE
  5
1C7
100
AcDbEntity
  8
Engrave
  6
ByLayer
 62
  256
370
   -1
100
AcDbLine
 10
2.818999999999988
 20
132.9291538461539
 11
2.818999999999988
 21
115.6783076923077
  0
LINE
  5
1C8
100
AcDbEntity
  8
Engrave
  6
ByLayer
 62
  256
370
   -1
100
AcDbLine
 10
2.818999999999988
 20
98.42746153846157
 11
2.818999999999988
 21
81.17661538461542
  0
LINE
  5
1C9
100
AcDbEntity
  8
Engrave
  6
ByLayer
 62
  256
370
   -1
100
AcDbLine
 10
2.818999999999988
 20
63.92576923076928
 11
2.818999999999988
 21
46.67492307692309
  0
LINE
  5
1CA
100
AcDbEntity
  8
Engrave
  6
ByLayer
 62
  256
370
   -1
100
AcDbLine
 10
2.818999999999988
 20
29.42407692307697
 11
2.818999999999988
 21
12.17323076923078
  0
LINE
  5
1CB
100
AcDbEntity
  8
Engrave
  6
ByLayer
 62
  256
370
   -1
100
AcDbLine
 10
2.818999999999988
 20
-5.077615384615353
 11
2.818999999999988
 21
-22.32846153846153
  0
LINE
  5
1CC
100
AcDbEntity
  8
Engrave
  6
ByLayer
 62
  256
370
   -1
100
AcDbLine
 10
2.818999999999988
 20
-39.57930769230767
 11
2.818999999999988
 21
-56.83015384615385
  0
LINE
  5
1CD
100
AcDbEntity
  8
Engrave
  6
ByLayer
 62
  256
370
   -1
100
AcDbLine
 10
-165.7241111111111
 20
-91.33184615384616
 11
-144.9062222222223
 21
-91.33184615384616
  0
LINE
  5
1CE
100
AcDbEntity
  8
Engrave
  6
ByLayer
 62
  256
370
   -1
100
AcDbLine
 10
-124.0883333333333
 20
-91.33184615384616
 11
-103.2704444444445
 21
-91.33184615384616
  0
LINE
  5
1CF
100
AcDbEntity
  8
Engrave
  6
ByLayer
 62
  256
370
   -1
100
AcDbLine
 10
-82.45255555555558
 20
-91.33184615384616
 11
-61.63466666666667
 21
-91.33184615384616
  0
LINE
  5
1D0
100
AcDbEntity
  8
Engrave
  6
ByLayer
 62
  256
370
   -1
100
AcDbLine
 10
-40.81677777777778
 20
-91.33184615384616
 11
-19.99888888888887
 21
-91.33184615384616
  0
LINE
  5
1D1
100
AcDbEntity
  8
Engrave
  6
ByLayer
 62
  256
370
   -1
100
AcDbLine
 10
23.63688888888888
 20
-74.08100000000002
 11
44.45477777777768
 21
-74.08100000000002
  0
LINE
  5
1D2
100
AcDbEntity
  8
Engrave
  6
ByLayer
 62
  256
370
   -1
100
AcDbLine
 10
65.27266666666669
 20
-74.08100000000002
 11
86.0905555555555
 21
-74.08100000000002
  0
LINE
  5
1D3
100
AcDbEntity
  8
Engrave
  6
ByLayer
 62
  256
370
   -1
100
AcDbLine
 10
106.9084444444444
 20
-74.08100000000002
 11
127.7263333333333
 21
-74.08100000000002
  0
LINE
  5
1D4
100
AcDbEntity
  8
Engrave
  6
ByLayer
 62
  256
370
   -1
100
AcDbLine
 10
148.5442222222222
 20
-74.08100000000002
 11
169.3621111111111
 21
-74.08100000000002
  0
LINE
  5
1D5
100
AcDbEntity
  8
Engrave
  6
ByLayer
 62
  256
370
   -1
100
AcDbLine
 10
0.8189999999999875
 20
115.6783076923078
 11
0.8189999999999875
 21
98.42746153846161
  0
LINE
  5
1D6
100
AcDbEntity
  8
Engrave
  6
ByLayer
 62
  256
370
   -1
100
AcDbLine
 10
0.8189999999999875
 20
81.17661538461546
 11
0.8189999999999875
 21
63.9257692307693
  0
LINE
  5
1D7
100
AcDbEntity
  8
Engrave
  6
ByLayer
 62
  256
370
   -1
100
AcDbLine
 10
0.8189999999999875
 20
46.67492307692316
 11
0.8189999999999875
 21
29.42407692307698
  0
LINE
  5
1D8
100
AcDbEntity
  8
Engrave
  6
ByLayer
 62
  256
370
   -1
100
AcDbLine
 10
0.8189999999999875
 20
12.17323076923086
 11
0.8189999999999875
 21
-5.077615384615328
  0
LINE
  5
1D9
100
AcDbEntity
  8
Engrave
  6
ByLayer
 62
  256
370
   -1
100
AcDbLine
 10
0.8189999999999875
 20
-22.32846153846146
 11
0.8189999999999875
 21
-39.57930769230764
  0
LINE
  5
1DA
100
AcDbEntity
  8
Engrave
  6
ByLayer
 62
  256
370
   -1
100
AcDbLine
 10
0.8189999999999875
 20
-56.83015384615378
 11
0.8189999999999875
 21
-74.08099999999996
  0
LINE
  5
1DB
100
AcDbEntity
  8
Engrave
  6
ByLayer
 62
  256
370
   -1
100
AcDbLine
 10
190.18
 20
132.9291538461539
 11
190.18
 21
115.6783076923077
  0
LINE
  5
1DC
100
AcDbEntity
  8
Engrave
  6
ByLayer
 62
  256
370
   -1
100
AcDbLine
 10
190.18
 20
98.42746153846157
 11
190.18
 21
81.17661538461542
  0
LINE
  5
1DD
100
AcDbEntity
  8
Engrave
  6
ByLayer
 62
  256
370
   -1
100
AcDbLine
 10
190.18
 20
63.92576923076928
 11
190.18
 21
46.67492307692309
  0
LINE
  5
1DE
100
AcDbEntity
  8
Engrave
  6
ByLayer
 62
  256
370
   -1
100
AcDbLine
 10
190.18
 20
29.42407692307697
 11
190.18
 21
12.17323076923078
  0
LINE
  5
1DF
100
AcDbEntity
  8
Engrave
  6
ByLayer
 62
  256
370
   -1
100
AcDbLine
 10
190.18
 20
-5.077615384615353
 11
190.18
 21
-22.32846153846153
  0
LINE
  5
1E0
100
AcDbEntity
  8
Engrave
  6
ByLayer
 62
  256
370
   -1
100
AcDbLine
 10
190.18
 20
-39.57930769230767
 11
190.18
 21
-56.83015384615385
  0
LINE
  5
1E1
100
AcDbEntity
  8
Engrave
  6
ByLayer
 62
  256
370
   -1
100
AcDbLine
 10
192.18
 20
150.18
 11
192.18
 21
132.9291538461538
  0
LINE
  5
1E2
100
AcDbEntity
  8
Engrave
  6
ByLayer
 62
  256
370
   -1
100
AcDbLine
 10
192.18
 20
115.6783076923077
 11
192.18
 21
98.42746153846153
  0
LINE
  5
1E3
100
AcDbEntity
  8
Engrave
  6
ByLayer
 62
  256
370
   -1
100
AcDbLine
 10
192.18
 20
81.17661538461539
 11
192.18
 21
63.92576923076922
  0
LINE
  5
1E4
100
AcDbEntity
  8
Engrave
  6
ByLayer
 62
  256
370
   -1
100
AcDbLine
 10
192.18
 20
46.67492307692307
 11
192.18
 21
29.42407692307693
  0
LINE
  5
1E5
100
AcDbEntity
  8
Engrave
  6
ByLayer
 62
  256
370
   -1
100
AcDbLine
 10
192.18
 20
12.17323076923074
 11
192.18
 21
-5.077615384615398
  0
LINE
  5
1E6
100
AcDbEntity
  8
Engrave
  6
ByLayer
 62
  256
370
   -1
100
AcDbLine
 10
192.18
 20
-22.32846153846157
 11
192.18
 21
-39.57930769230771
  0
LINE
  5
1E7
100
AcDbEntity
  8
Engrave
  6
ByLayer
 62
  256
370
   -1
100
AcDbLine
 10
192.18
 20
-56.83015384615386
 11
192.18
 21
-74.08100000000002
  0
LINE
  5
1E8
100
AcDbEntity
  8
Engrave
  6
ByLayer
 62
  256
370
   -1
100
AcDbLine
 10
198.54
 20
150.18
 11
198.54
 21
132.9291538461538
  0
LINE
  5
1E9
100
AcDbEntity
  8
Engrave
  6
ByLayer
 62
  256
370
   -1
100
AcDbLine
 10
198.54
 20
115.6783076923077
 11
198.54
 21
98.42746153846153
  0
LINE
  5
1EA
100
AcDbEntity
  8
Engrave
  6
ByLayer
 62
  256
370
   -1
100
AcDbLine
 10
198.54
 20
81.17661538461539
 11
198.54
 21
63.92576923076922
  0
LINE
  5
1EB
100
AcDbEntity
  8
Engrave
  6
ByLayer
 62
  256
370
   -1
100
AcDbLine
 10
198.54
 20
46.67492307692307
 11
198.54
 21
29.42407692307693
  0
LINE
  5
1EC
100
AcDbEntity
  8
Engrave
  6
ByLayer
 62
  256
370
   -1
100
AcDbLine
 10
198.54
 20
12.17323076923074
 11
198.54
 21
-5.077615384615398
  0
LINE
  5
1ED
100
AcDbEntity
  8
Engrave
  6
ByLayer
 62
  256
370
   -1
100
AcDbLine
 10
198.54
 20
-22.32846153846157
 11
198.54
 21
-39.57930769230771
  0
LINE
  5
1EE
100
AcDbEntity
  8
Engrave
  6
ByLayer
 62
  256
370
   -1
100
AcDbLine
 10
198.54
 20
-56.83015384615386
 11
198.54
 21
-74.08100000000002
  0
LINE
  5
1EF
100
AcDbEntity
  8
Engrave
  6
ByLayer
 62
  256
370
   -1
100
AcDbLine
 10
200.54
 20
132.9291538461538
 11
200.54
 21
115.6783076923076
  0
LINE
  5
1F0
100
AcDbEntity
  8
Engrave
  6
ByLayer
 62
  256
370
   -1
100
AcDbLine
 10
200.54
 20
98.4274615384615
 11
200.54
 21
81.17661538461533
  0
LINE
  5
1F1
100
AcDbEntity
  8
Engrave
  6
ByLayer
 62
  256
370
   -1
100
AcDbLine
 10
200.54
 20
63.92576923076919
 11
200.54
 21
46.67492307692302
  0
LINE
  5
1F2
100
AcDbEntity
  8
Engrave
  6
ByLayer
 62
  256
370
   -1
100
AcDbLine
 10
200.54
 20
29.42407692307687
 11
200.54
 21
12.17323076923073
  0
LINE
  5
1F3
100
AcDbEntity
  8
Engrave
  6
ByLayer
 62
  256
370
   -1
100
AcDbLine
 10
200.54
 20
-5.077615384615457
 11
200.54
 21
-22.3284615384616
  0
LINE
  5
1F4
100
AcDbEntity
  8
Engrave
  6
ByLayer
 62
  256
370
   -1
100
AcDbLine
 10
200.54
 20
-39.57930769230776
 11
200.54
 21
-56.83015384615391
  0
LINE
  5
1F5
100
AcDbEntity
  8
Engrave
  6
ByLayer
 62
  256
370
   -1
100
AcDbLine
 10
200.54
 20
-74.08100000000006
 11
200.54
 21
-91.33184615384621
  0
LINE
  5
1F6
100
AcDbEntity
  8
Engrave
  6
ByLayer
 62
  256
370
   -1
100
AcDbLine
 10
206.9
 20
132.9291538461538
 11
206.9
 21
115.6783076923076
  0
LINE
  5
1F7
100
AcDbEntity
  8
Engrave
  6
ByLayer
 62
  256
370
   -1
100
AcDbLine
 10
206.9
 20
98.4274615384615
 11
206.9
 21
81.17661538461533
  0
LINE
  5
1F8
100
AcDbEntity
  8
Engrave
  6
ByLayer
 62
  256
370
   -1
100
AcDbLine
 10
206.9
 20
63.92576923076919
 11
206.9
 21
46.67492307692302
  0
LINE
  5
1F9
100
AcDbEntity
  8
Engrave
  6
ByLayer
 62
  256
370
   -1
100
AcDbLine
 10
206.9
 20
29.42407692307687
 11
206.9
 21
12.17323076923073
  0
LINE
  5
1FA
100
AcDbEntity
  8
Engrave
  6
ByLayer
 62
  256
370
   -1
100
AcDbLine
 10
206.9
 20
-5.077615384615457
 11
206.9
 21
-22.3284615384616
  0
LINE
  5
1FB
100
AcDbEntity
  8
Engrave
  6
ByLayer
 62
  256
370
   -1
100
AcDbLine
 10
206.9
 20
-39.57930769230776
 11
206.9
 21
-56.83015384615391
  0
LINE
  5
1FC
100
AcDbEntity
  8
Engrave
  6
ByLayer
 62
  256
370
   -1
100
AcDbLine
 10
206.9
 20
-74.08100000000006
 11
206.9
 21
-91.33184615384621
  0
ENDSEC
  0
SECTION
  2
OBJECTS
  0
DICTIONARY
  5
C
330
0
100
AcDbDictionary
281
    1
  3
ACAD_GROUP
350
D
  0
DICTIONARY
  5
D
330
C
100
AcDbDictionary
281
    1
  0
ENDSEC
  0
EOF
