  0
SECTION
  2
HEADER
  9
$ACADVER
  1
AC1009
  9
$INSBASE
 10
0.0
 20
0.0
 30
0.0
  9
$EXTMIN
 10
-32.2934700359265321
 20
49.5814629588013318
 30
0.0
  9
$EXTMAX
 10
95.9375
 20
241.581462958801211
 30
0.0
  9
$LIMMIN
 10
0.0
 20
0.0
  9
$LIMMAX
 10
12.0
 20
9.0
  9
$ORTHOMODE
 70
     0
  9
$REGENMODE
 70
     1
  9
$FILLMODE
 70
     1
  9
$QTEXTMODE
 70
     0
  9
$MIRRTEXT
 70
     0
  9
$DRAGMODE
 70
     2
  9
$LTSCALE
 40
1.0
  9
$OSMODE
 70
  2223
  9
$ATTMODE
 70
     1
  9
$TEXTSIZE
 40
0.2
  9
$TRACEWID
 40
0.05
  9
$TEXTSTYLE
  7
STANDARD
  9
$CLAYER
  8
0
  9
$CELTYPE
  6
CONTINUOUS
  9
$CECOLOR
 62
   256
  9
$DIMSCALE
 40
1.0
  9
$DIMASZ
 40
0.18
  9
$DIMEXO
 40
0.0625
  9
$DIMDLI
 40
0.38
  9
$DIMRND
 40
0.0
  9
$DIMDLE
 40
0.0
  9
$DIMEXE
 40
0.18
  9
$DIMTP
 40
0.0
  9
$DIMTM
 40
0.0
  9
$DIMTXT
 40
0.18
  9
$DIMCEN
 40
0.09
  9
$DIMTSZ
 40
0.0
  9
$DIMTOL
 70
     0
  9
$DIMLIM
 70
     0
  9
$DIMTIH
 70
     1
  9
$DIMTOH
 70
     1
  9
$DIMSE1
 70
     0
  9
$DIMSE2
 70
     0
  9
$DIMTAD
 70
     0
  9
$DIMZIN
 70
     0
  9
$DIMBLK
  1

  9
$DIMASO
 70
     1
  9
$DIMSHO
 70
     1
  9
$DIMPOST
  1

  9
$DIMAPOST
  1

  9
$DIMALT
 70
     0
  9
$DIMALTD
 70
     2
  9
$DIMALTF
 40
25.3999999999999986
  9
$DIMLFAC
 40
1.0
  9
$DIMTOFL
 70
     0
  9
$DIMTVP
 40
0.0
  9
$DIMTIX
 70
     0
  9
$DIMSOXD
 70
     0
  9
$DIMSAH
 70
     0
  9
$DIMBLK1
  1

  9
$DIMBLK2
  1

  9
$DIMSTYLE
  2
STANDARD
  9
$DIMCLRD
 70
     0
  9
$DIMCLRE
 70
     0
  9
$DIMCLRT
 70
     0
  9
$DIMTFAC
 40
1.0
  9
$DIMGAP
 40
0.09
  9
$LUNITS
 70
     2
  9
$LUPREC
 70
     4
  9
$SKETCHINC
 40
0.1
  9
$FILLETRAD
 40
0.0
  9
$AUNITS
 70
     0
  9
$AUPREC
 70
     0
  9
$MENU
  1
.
  9
$ELEVATION
 40
0.0
  9
$PELEVATION
 40
0.0
  9
$THICKNESS
 40
0.0
  9
$LIMCHECK
 70
     0
  9
$BLIPMODE
 70
     0
  9
$CHAMFERA
 40
0.0
  9
$CHAMFERB
 40
0.0
  9
$SKPOLY
 70
     0
  9
$TDCREATE
 40
2457310.5982427662238479
  9
$TDUPDATE
 40
2457310.6008446761406958
  9
$TDINDWG
 40
0.0026059144
  9
$TDUSRTIMER
 40
0.0026059144
  9
$USRTIMER
 70
     1
  9
$ANGBASE
 50
0.0
  9
$ANGDIR
 70
     0
  9
$PDMODE
 70
     0
  9
$PDSIZE
 40
0.0
  9
$PLINEWID
 40
0.0
  9
$COORDS
 70
     1
  9
$SPLFRAME
 70
     0
  9
$SPLINETYPE
 70
     6
  9
$SPLINESEGS
 70
     8
  9
$ATTDIA
 70
     1
  9
$ATTREQ
 70
     1
  9
$HANDLING
 70
     1
  9
$HANDSEED
  5
10212
  9
$SURFTAB1
 70
     6
  9
$SURFTAB2
 70
     6
  9
$SURFTYPE
 70
     6
  9
$SURFU
 70
     6
  9
$SURFV
 70
     6
  9
$UCSNAME
  2

  9
$UCSORG
 10
0.0
 20
0.0
 30
0.0
  9
$UCSXDIR
 10
1.0
 20
0.0
 30
0.0
  9
$UCSYDIR
 10
0.0
 20
1.0
 30
0.0
  9
$PUCSNAME
  2

  9
$PUCSORG
 10
0.0
 20
0.0
 30
0.0
  9
$PUCSXDIR
 10
1.0
 20
0.0
 30
0.0
  9
$PUCSYDIR
 10
0.0
 20
1.0
 30
0.0
  9
$USERI1
 70
     0
  9
$USERI2
 70
     0
  9
$USERI3
 70
     0
  9
$USERI4
 70
     0
  9
$USERI5
 70
     0
  9
$USERR1
 40
0.0
  9
$USERR2
 40
0.0
  9
$USERR3
 40
0.0
  9
$USERR4
 40
0.0
  9
$USERR5
 40
0.0
  9
$WORLDVIEW
 70
     1
  9
$SHADEDGE
 70
     3
  9
$SHADEDIF
 70
    70
  9
$TILEMODE
 70
     1
  9
$MAXACTVP
 70
    64
  9
$PLIMCHECK
 70
     0
  9
$PEXTMIN
 10
1.0000000000000000E+20
 20
1.0000000000000000E+20
 30
1.0000000000000000E+20
  9
$PEXTMAX
 10
-1.0000000000000000E+20
 20
-1.0000000000000000E+20
 30
-1.0000000000000000E+20
  9
$PLIMMIN
 10
0.0
 20
0.0
  9
$PLIMMAX
 10
12.0
 20
9.0
  9
$UNITMODE
 70
     0
  9
$VISRETAIN
 70
     1
  9
$PLINEGEN
 70
     0
  9
$PSLTSCALE
 70
     1
  0
ENDSEC
  0
SECTION
  2
TABLES
  0
TABLE
  2
VPORT
 70
     1
  0
VPORT
  2
*ACTIVE
 70
     0
 10
0.0
 20
0.0
 11
1.0
 21
1.0
 12
23.7823403013587082
 22
109.6894889863229992
 13
0.0
 23
0.0
 14
1.0
 24
1.0
 15
0.0
 25
0.0
 16
0.0
 26
0.0
 36
1.0
 17
0.0
 27
0.0
 37
0.0
 40
197.8935458670545131
 41
1.3164705882352941
 42
50.0
 43
0.0
 44
0.0
 50
0.0
 51
0.0
 71
     0
 72
  1000
 73
     1
 74
     3
 75
     0
 76
     0
 77
     0
 78
     0
  0
ENDTAB
  0
TABLE
  2
LTYPE
 70
     1
  0
LTYPE
  2
CONTINUOUS
 70
     0
  3
Solid line
 72
    65
 73
     0
 40
0.0
  0
ENDTAB
  0
TABLE
  2
LAYER
 70
     5
  0
LAYER
  2
0
 70
     0
 62
     7
  6
CONTINUOUS
  0
LAYER
  2
LAYER1
 70
     0
 62
     1
  6
CONTINUOUS
  0
ENDTAB
  0
TABLE
  2
STYLE
 70
     1
  0
STYLE
  2
STANDARD
 70
     0
 40
0.0
 41
1.0
 50
0.0
 71
     0
 42
0.2
  3
txt
  4

  0
ENDTAB
  0
TABLE
  2
VIEW
 70
     0
  0
ENDTAB
  0
TABLE
  2
UCS
 70
     0
  0
ENDTAB
  0
TABLE
  2
APPID
 70
     5
  0
APPID
  2
ACAD
 70
     0
  0
APPID
  2
ACAD_NAV_VCDISPLAY
 70
     0
  0
APPID
  2
ACAECLAYERSTANDARD
 70
     0
  0
APPID
  2
ACCMTRANSPARENCY
 70
     0
  0
APPID
  2
ACAD_MLEADERVER
 70
     0
  0
ENDTAB
  0
TABLE
  2
DIMSTYLE
 70
     1
  0
DIMSTYLE
  2
STANDARD
 70
     0
  3

  4

  5

  6

  7

 40
1.0
 41
0.18
 42
0.0625
 43
0.38
 44
0.18
 45
0.0
 46
0.0
 47
0.0
 48
0.0
140
0.18
141
0.09
142
0.0
143
25.3999999999999986
144
1.0
145
0.0
146
1.0
147
0.09
 71
     0
 72
     0
 73
     1
 74
     1
 75
     0
 76
     0
 77
     0
 78
     0
170
     0
171
     2
172
     0
173
     0
174
     0
175
     0
176
     0
177
     0
178
     0
  0
ENDTAB
  0
ENDSEC
  0
SECTION
  2
BLOCKS
  0
BLOCK
  8
0
  2
$MODEL_SPACE
 70
     0
 10
0.0
 20
0.0
 30
0.0
  3
$MODEL_SPACE
  1

  0
ENDBLK
  5
21
  8
0
  0
BLOCK
 67
     1
  8
0
  2
$PAPER_SPACE
 70
     0
 10
0.0
 20
0.0
 30
0.0
  3
$PAPER_SPACE
  1

  0
ENDBLK
  5
1D
 67
     1
  8
0
  0
ENDSEC
  0
SECTION
  2
ENTITIES
  0
LINE
  5
100
  8
LAYER1
 10
-0.0624999999999991
 20
49.5814629588013318
 30
0.0
 11
95.9375
 21
49.5814629588013318
 31
0.0
  0
LINE
  5
104
  8
0
 10
95.9375
 20
241.581462958801211
 30
0.0
 11
-0.0624999999999991
 21
241.581462958801211
 31
0.0
  0
CIRCLE
  5
190
  8
LAYER1
 10
92.1614219084304835
 20
65.4349827190057596
 30
0.0
 40
0.1249999999999981
  0
CIRCLE
  5
191
  8
LAYER1
 10
72.8814219084286918
 20
65.4349827190122255
 30
0.0
 40
0.1250000000000037
  0
CIRCLE
  5
192
  8
LAYER1
 10
93.5364219084304978
 20
65.4349827190052906
 30
0.0
 40
0.1249999999999981
  0
CIRCLE
  5
193
  8
LAYER1
 10
74.1939219084333104
 20
79.1732361743092952
 30
0.0
 40
0.1249999999999981
  0
CIRCLE
  5
194
  8
LAYER1
 10
74.2564219084286918
 20
65.4349827190117708
 30
0.0
 40
0.1250000000000009
  0
CIRCLE
  5
195
  8
LAYER1
 10
93.536421908440019
 20
93.9326866341730664
 30
0.0
 40
0.1249999999999995
  0
POLYLINE
  5
196
  8
LAYER1
 66
     1
 10
0.0
 20
0.0
 30
0.0
 70
     1
  0
VERTEX
  5
10078
  8
LAYER1
 10
75.568921908432813
 20
77.7518822759833625
 30
0.0
  0
VERTEX
  5
10079
  8
LAYER1
 10
75.568921908428706
 20
65.4349827190113302
 30
0.0
 42
-0.4142135623730975
  0
VERTEX
  5
1007A
  8
LAYER1
 10
74.2564219084282229
 20
64.1224827190117708
 30
0.0
  0
VERTEX
  5
1007B
  8
LAYER1
 10
72.8814219084282655
 20
64.1224827190122255
 30
0.0
 42
-0.4142135623731025
  0
VERTEX
  5
1007C
  8
LAYER1
 10
71.568921908428706
 20
65.4349827190126945
 30
0.0
  0
VERTEX
  5
1007D
  8
LAYER1
 10
71.5689219084333388
 20
79.1732361743102189
 30
0.0
 42
-0.2481537690554217
  0
VERTEX
  5
1007E
  8
LAYER1
 10
72.7164289276523448
 20
81.3429457151794537
 30
0.0
  0
VERTEX
  5
1007F
  8
LAYER1
 10
92.7976754180494936
 20
95.017541404608167
 30
0.0
 42
-0.6023666711462646
  0
VERTEX
  5
10080
  8
LAYER1
 10
94.8489219084400474
 20
93.9326866341726543
 30
0.0
  0
VERTEX
  5
10081
  8
LAYER1
 10
94.8489219084304835
 20
65.4349827190048501
 30
0.0
 42
-0.4142135623730951
  0
VERTEX
  5
10082
  8
LAYER1
 10
93.536421908430043
 20
64.1224827190053048
 30
0.0
  0
VERTEX
  5
10083
  8
LAYER1
 10
92.161421908430043
 20
64.1224827190057596
 30
0.0
 42
-0.4142135623731025
  0
VERTEX
  5
10084
  8
LAYER1
 10
90.8489219084304835
 20
65.4349827190062143
 30
0.0
  0
VERTEX
  5
10085
  8
LAYER1
 10
90.8489219084375037
 20
86.3694752392747063
 30
0.0
 42
0.6023666711462736
  0
VERTEX
  5
10086
  8
LAYER1
 10
88.7976754180470067
 20
87.454330009710219
 30
0.0
  0
VERTEX
  5
10087
  8
LAYER1
 10
76.1426754180423302
 20
78.83673704641798
 30
0.0
 42
0.2481537690554105
  0
SEQEND
  5
10088
  8
LAYER1
  0
CIRCLE
  5
197
  8
LAYER1
 10
74.1518664636964502
 20
53.4715946267502105
 30
0.0
 40
0.2500000000000053
  0
CIRCLE
  5
198
  8
LAYER1
 10
74.9436914467646744
 20
58.3768376342218502
 30
0.0
 40
0.0624999999999996
  0
CIRCLE
  5
199
  8
LAYER1
 10
84.4939677235554427
 20
63.9795895809543609
 30
0.0
 40
0.0624999999999996
  0
CIRCLE
  5
200
  8
LAYER1
 10
84.4939677235553432
 20
55.5279780570193111
 30
0.0
 40
0.0624999999999996
  0
CIRCLE
  5
201
  8
LAYER1
 10
89.4061190043938439
 20
67.7581024011989967
 30
0.0
 40
0.0624999999999996
  0
CIRCLE
  5
202
  8
LAYER1
 10
81.2641067192259214
 20
55.1782412188799682
 30
0.0
 40
0.0624999999999996
  0
CIRCLE
  5
203
  8
LAYER1
 10
74.9436914467646602
 20
56.5018376342220989
 30
0.0
 40
0.3750000000000031
  0
POLYLINE
  5
204
  8
LAYER1
 66
     1
 10
0.0
 20
0.0
 30
0.0
 70
     1
  0
VERTEX
  5
10089
  8
LAYER1
 10
86.9501128618095436
 20
67.3931024011992008
 30
0.0
  0
VERTEX
  5
1008A
  8
LAYER1
 10
86.9501128618095009
 20
68.123102401199219
 30
0.0
  0
VERTEX
  5
1008B
  8
LAYER1
 10
84.1291067192251489
 20
68.1231024011990485
 30
0.0
  0
VERTEX
  5
1008C
  8
LAYER1
 10
84.1291067192251916
 20
67.3931024011990303
 30
0.0
  0
SEQEND
  5
1008D
  8
LAYER1
  0
POLYLINE
  5
205
  8
LAYER1
 66
     1
 10
0.0
 20
0.0
 30
0.0
 70
     1
  0
VERTEX
  5
1008E
  8
LAYER1
 10
89.7711190043938672
 20
66.2096150847261811
 30
0.0
 42
-0.4142135623730884
  0
VERTEX
  5
1008F
  8
LAYER1
 10
89.2711190043938814
 20
65.7096150847261811
 30
0.0
  0
VERTEX
  5
10090
  8
LAYER1
 10
88.9786190043939769
 20
65.7096150847261953
 30
0.0
  0
VERTEX
  5
10091
  8
LAYER1
 10
88.9786190043938063
 20
59.3566093264468009
 30
0.0
 42
-0.2481537690554212
  0
VERTEX
  5
10092
  8
LAYER1
 10
87.8311119851754967
 20
57.1868997855772179
 30
0.0
  0
VERTEX
  5
10093
  8
LAYER1
 10
79.2350974990860237
 20
51.3333277628426004
 30
0.0
 42
-0.2183846662414145
  0
VERTEX
  5
10094
  8
LAYER1
 10
77.0771865566759544
 20
50.9677549925102227
 30
0.0
  0
VERTEX
  5
10095
  8
LAYER1
 10
67.4634100235776941
 20
53.5478961481112989
 30
0.0
 42
-0.3393423218137601
  0
VERTEX
  5
10096
  8
LAYER1
 10
66.4911190043917486
 20
54.8155373037123326
 30
0.0
  0
VERTEX
  5
10097
  8
LAYER1
 10
66.4911190043918197
 20
62.0371951340478915
 30
0.0
  0
VERTEX
  5
10098
  8
LAYER1
 10
67.2254940043918197
 20
62.0371951340478915
 30
0.0
  0
VERTEX
  5
10099
  8
LAYER1
 10
67.2254940043918339
 20
63.6269912188801001
 30
0.0
  0
VERTEX
  5
1009A
  8
LAYER1
 10
66.4911190043918339
 20
63.6269912188801001
 30
0.0
  0
VERTEX
  5
1009B
  8
LAYER1
 10
66.4911190043920044
 20
83.3132412188801226
 30
0.0
 42
-0.4142135623731025
  0
VERTEX
  5
1009C
  8
LAYER1
 10
67.803619004392047
 20
84.6257412188801226
 30
0.0
  0
VERTEX
  5
1009D
  8
LAYER1
 10
69.1786190043920755
 20
84.6257412188800942
 30
0.0
 42
-0.4142135623730925
  0
VERTEX
  5
1009E
  8
LAYER1
 10
70.4911190043920612
 20
83.3132412188800942
 30
0.0
  0
VERTEX
  5
1009F
  8
LAYER1
 10
70.4911190043918481
 20
62.3787486986115383
 30
0.0
 42
0.6023666711462785
  0
VERTEX
  5
100A0
  8
LAYER1
 10
72.5423654947827004
 20
61.2938939281767077
 30
0.0
  0
VERTEX
  5
100A1
  8
LAYER1
 10
85.1973654947847621
 20
69.9114868914731034
 30
0.0
 42
0.2481537690554171
  0
VERTEX
  5
100A2
  8
LAYER1
 10
85.7711190043938956
 20
70.9963416619079055
 30
0.0
  0
VERTEX
  5
100A3
  8
LAYER1
 10
85.7711190043940519
 20
83.3132412188799236
 30
0.0
 42
-0.4142135623730975
  0
VERTEX
  5
100A4
  8
LAYER1
 10
87.0836190043940803
 20
84.6257412188799236
 30
0.0
  0
VERTEX
  5
100A5
  8
LAYER1
 10
88.4586190043940945
 20
84.6257412188798952
 30
0.0
 42
-0.4142135623730951
  0
VERTEX
  5
100A6
  8
LAYER1
 10
89.7711190043940945
 20
83.3132412188798952
 30
0.0
  0
SEQEND
  5
100A7
  8
LAYER1
  0
CIRCLE
  5
206
  8
LAYER1
 10
74.1518664636964644
 20
53.4715946267502105
 30
0.0
 40
0.1562499999999948
  0
CIRCLE
  5
208
  8
LAYER1
 10
53.8585036317117272
 20
65.3876605016293979
 30
0.0
 40
0.0624999999999991
  0
CIRCLE
  5
209
  8
LAYER1
 10
4.5164114620476088
 20
50.9796727867953905
 30
0.0
 40
0.0624999999999998
  0
CIRCLE
  5
210
  8
LAYER1
 10
5.2507864620476061
 20
65.3876605016294405
 30
0.0
 40
0.0624999999999998
  0
CIRCLE
  5
211
  8
LAYER1
 10
54.5928786317117272
 20
50.9796727867953265
 30
0.0
 40
0.0624999999999991
  0
CIRCLE
  5
212
  8
LAYER1
 10
35.9218325468796209
 20
65.3876605016294263
 30
0.0
 40
0.0624999999999991
  0
CIRCLE
  5
213
  8
LAYER1
 10
1.3455825468798519
 20
50.9796727867953621
 30
0.0
 40
0.0624999999999998
  0
CIRCLE
  5
214
  8
LAYER1
 10
23.1874575468797204
 20
65.3876605016294405
 30
0.0
 40
0.0624999999999991
  0
CIRCLE
  5
215
  8
LAYER1
 10
57.7637075468794876
 20
50.979672786795291
 30
0.0
 40
0.0624999999999991
  0
POLYLINE
  5
216
  8
LAYER1
 66
     1
 10
0.0
 20
0.0
 30
0.0
 70
     1
  0
VERTEX
  5
100A8
  8
LAYER1
 10
4.8835989620476123
 20
65.0226605016295025
 30
0.0
  0
VERTEX
  5
100A9
  8
LAYER1
 10
4.8835989620476123
 20
65.7526605016294781
 30
0.0
  0
VERTEX
  5
100AA
  8
LAYER1
 10
54.2256911317117769
 20
65.752660501629407
 30
0.0
  0
VERTEX
  5
100AB
  8
LAYER1
 10
54.2256911317117769
 20
65.022660501629403
 30
0.0
  0
VERTEX
  5
100AC
  8
LAYER1
 10
58.1308950468795231
 20
65.022660501629403
 30
0.0
  0
VERTEX
  5
100AD
  8
LAYER1
 10
58.1308950468795587
 20
50.6146727867953317
 30
0.0
  0
VERTEX
  5
100AE
  8
LAYER1
 10
0.9783950468798551
 20
50.6146727867954027
 30
0.0
  0
VERTEX
  5
100AF
  8
LAYER1
 10
0.9783950468798547
 20
65.0226605016295025
 30
0.0
  0
SEQEND
  5
100B0
  8
LAYER1
  0
CIRCLE
  5
217
  8
LAYER1
 10
47.829652669211292
 20
77.837195924241783
 30
0.0
 40
0.4062500000000059
  0
CIRCLE
  5
218
  8
LAYER1
 10
47.829652669211292
 20
73.495195924241699
 30
0.0
 40
0.4062500000000059
  0
CIRCLE
  5
219
  8
LAYER1
 10
31.0630460335306893
 20
84.3423430147332738
 30
0.0
 40
0.0625000000000001
  0
CIRCLE
  5
220
  8
LAYER1
 10
31.0609468022222508
 20
66.9817988510647808
 30
0.0
 40
0.0625000000000001
  0
CIRCLE
  5
221
  8
LAYER1
 10
1.394652669210759
 20
94.5041116639808649
 30
0.0
 40
0.062500000000002
  0
CIRCLE
  5
222
  8
LAYER1
 10
60.7271526692113213
 20
66.9818209242416458
 30
0.0
 40
0.0625000000000001
  0
CIRCLE
  5
223
  8
LAYER1
 10
1.3946526692107371
 20
84.3423430147332169
 30
0.0
 40
0.062500000000002
  0
CIRCLE
  5
224
  8
LAYER1
 10
60.727152669211371
 20
94.5041116639809644
 30
0.0
 40
0.0625000000000001
  0
CIRCLE
  5
225
  8
LAYER1
 10
60.7271526692113497
 20
84.3423430147333164
 30
0.0
 40
0.0625000000000001
  0
CIRCLE
  5
226
  8
LAYER1
 10
1.39465266921072
 20
66.9818209242415605
 30
0.0
 40
0.062500000000002
  0
POLYLINE
  5
227
  8
LAYER1
 66
     1
 10
0.0
 20
0.0
 30
0.0
 70
     1
  0
VERTEX
  5
100B1
  8
LAYER1
 10
61.0921526692113304
 20
66.6168209242417504
 30
0.0
  0
VERTEX
  5
100B2
  8
LAYER1
 10
1.029652669210702
 20
66.6168209242417078
 30
0.0
  0
VERTEX
  5
100B3
  8
LAYER1
 10
1.029652669210761
 20
94.8737168805795648
 30
0.0
  0
VERTEX
  5
100B4
  8
LAYER1
 10
61.0921526692113304
 20
94.87371688057965
 30
0.0
  0
SEQEND
  5
100B5
  8
LAYER1
  0
CIRCLE
  5
228
  8
LAYER1
 10
60.3342463084011271
 20
60.9278089995985823
 30
0.0
 40
0.0624999999999994
  0
POLYLINE
  5
229
  8
LAYER1
 66
     1
 10
0.0
 20
0.0
 30
0.0
 70
     1
  0
VERTEX
  5
100B6
  8
LAYER1
 10
61.6950631951190474
 20
58.4217960038341531
 30
0.0
 42
-0.2920546996529911
  0
VERTEX
  5
100B7
  8
LAYER1
 10
61.2414575662131782
 20
58.1321336690890504
 30
0.0
  0
VERTEX
  5
100B8
  8
LAYER1
 10
59.4270350505896587
 20
58.132133669088887
 30
0.0
 42
-0.2920546996530011
  0
VERTEX
  5
100B9
  8
LAYER1
 10
58.9734294216837398
 20
58.4217960038338902
 30
0.0
 42
-0.4087683042250959
  0
VERTEX
  5
100BA
  8
LAYER1
 10
59.6779963084013829
 20
60.4016366155305704
 30
0.0
 42
0.2870075753932653
  0
VERTEX
  5
100BB
  8
LAYER1
 10
59.9592463084013971
 20
60.8512458208411928
 30
0.0
  0
VERTEX
  5
100BC
  8
LAYER1
 10
59.95924630840139
 20
60.9278089995985397
 30
0.0
 42
-1.0
  0
VERTEX
  5
100BD
  8
LAYER1
 10
60.70924630840085
 20
60.9278089995986107
 30
0.0
  0
VERTEX
  5
100BE
  8
LAYER1
 10
60.7092463084008784
 20
60.851245820841271
 30
0.0
 42
0.2870075753932595
  0
VERTEX
  5
100BF
  8
LAYER1
 10
60.9904963084009992
 20
60.4016366155307125
 30
0.0
 42
-0.4087683042250978
  0
SEQEND
  5
100C0
  8
LAYER1
  0
CIRCLE
  5
230
  8
LAYER1
 10
60.334246308401319
 20
59.0528089995988381
 30
0.0
 40
0.3750000000000023
  0
CIRCLE
  5
231
  8
LAYER1
 10
60.3838215744624733
 20
65.1834198733507293
 30
0.0
 40
0.0624999999999992
  0
POLYLINE
  5
232
  8
LAYER1
 66
     1
 10
0.0
 20
0.0
 30
0.0
 70
     1
  0
VERTEX
  5
100C1
  8
LAYER1
 10
61.7446384611800525
 20
62.6774068775861082
 30
0.0
 42
-0.2920546996530249
  0
VERTEX
  5
100C2
  8
LAYER1
 10
61.2910328322741478
 20
62.3877445428410695
 30
0.0
  0
VERTEX
  5
100C3
  8
LAYER1
 10
59.4766103166506284
 20
62.3877445428411193
 30
0.0
 42
-0.2920546996529956
  0
VERTEX
  5
100C4
  8
LAYER1
 10
59.0230046877447379
 20
62.6774068775862219
 30
0.0
 42
-0.4087683042250977
  0
VERTEX
  5
100C5
  8
LAYER1
 10
59.727571574462651
 20
64.6572474892827955
 30
0.0
 42
0.287007575393258
  0
VERTEX
  5
100C6
  8
LAYER1
 10
60.0088215744627291
 20
65.1068566945933895
 30
0.0
  0
VERTEX
  5
100C7
  8
LAYER1
 10
60.0088215744627291
 20
65.1834198733507435
 30
0.0
 42
-1.0
  0
VERTEX
  5
100C8
  8
LAYER1
 10
60.7588215744622104
 20
65.1834198733507151
 30
0.0
  0
VERTEX
  5
100C9
  8
LAYER1
 10
60.7588215744622104
 20
65.1068566945933611
 30
0.0
 42
0.2870075753932742
  0
VERTEX
  5
100CA
  8
LAYER1
 10
61.0400715744623028
 20
64.6572474892827245
 30
0.0
 42
-0.4087683042250968
  0
SEQEND
  5
100CB
  8
LAYER1
  0
CIRCLE
  5
233
  8
LAYER1
 10
60.3838215744624307
 20
63.3084198733509709
 30
0.0
 40
0.3750000000000008
  0
POLYLINE
  5
234
  8
LAYER1
 10
47.829652669211292
 20
73.6293819964499789
 30
0.0
 66
     1
 70
     8
  0
VERTEX
  8
LAYER1
  5
1010E
 10
47.8297
 20
73.6294
 30
0.00000
  70
    32
  0
VERTEX
  8
LAYER1
  5
1010F
 10
47.8235
 20
73.6292
 30
0.00000
  70
    32
  0
VERTEX
  8
LAYER1
  5
10110
 10
47.8174
 20
73.6288
 30
0.00000
  70
    32
  0
VERTEX
  8
LAYER1
  5
10111
 10
47.8113
 20
73.6280
 30
0.00000
  70
    32
  0
VERTEX
  8
LAYER1
  5
10112
 10
47.8053
 20
73.6270
 30
0.00000
  70
    32
  0
VERTEX
  8
LAYER1
  5
10113
 10
47.7993
 20
73.6256
 30
0.00000
  70
    32
  0
VERTEX
  8
LAYER1
  5
10114
 10
47.7934
 20
73.6240
 30
0.00000
  70
    32
  0
VERTEX
  8
LAYER1
  5
10115
 10
47.7875
 20
73.6221
 30
0.00000
  70
    32
  0
VERTEX
  8
LAYER1
  5
10116
 10
47.7818
 20
73.6199
 30
0.00000
  70
    32
  0
VERTEX
  8
LAYER1
  5
10117
 10
47.7762
 20
73.6174
 30
0.00000
  70
    32
  0
VERTEX
  8
LAYER1
  5
10118
 10
47.7707
 20
73.6146
 30
0.00000
  70
    32
  0
VERTEX
  8
LAYER1
  5
10119
 10
47.7654
 20
73.6116
 30
0.00000
  70
    32
  0
VERTEX
  8
LAYER1
  5
1011A
 10
47.7602
 20
73.6083
 30
0.00000
  70
    32
  0
VERTEX
  8
LAYER1
  5
1011B
 10
47.7552
 20
73.6048
 30
0.00000
  70
    32
  0
VERTEX
  8
LAYER1
  5
1011C
 10
47.7504
 20
73.6010
 30
0.00000
  70
    32
  0
VERTEX
  8
LAYER1
  5
1011D
 10
47.7457
 20
73.5970
 30
0.00000
  70
    32
  0
VERTEX
  8
LAYER1
  5
1011E
 10
47.7413
 20
73.5928
 30
0.00000
  70
    32
  0
VERTEX
  8
LAYER1
  5
1011F
 10
47.7370
 20
73.5883
 30
0.00000
  70
    32
  0
VERTEX
  8
LAYER1
  5
10120
 10
47.7330
 20
73.5837
 30
0.00000
  70
    32
  0
VERTEX
  8
LAYER1
  5
10121
 10
47.7293
 20
73.5788
 30
0.00000
  70
    32
  0
VERTEX
  8
LAYER1
  5
10122
 10
47.7257
 20
73.5738
 30
0.00000
  70
    32
  0
VERTEX
  8
LAYER1
  5
10123
 10
47.7224
 20
73.5686
 30
0.00000
  70
    32
  0
VERTEX
  8
LAYER1
  5
10124
 10
47.7194
 20
73.5633
 30
0.00000
  70
    32
  0
VERTEX
  8
LAYER1
  5
10125
 10
47.7167
 20
73.5578
 30
0.00000
  70
    32
  0
VERTEX
  8
LAYER1
  5
10126
 10
47.7142
 20
73.5522
 30
0.00000
  70
    32
  0
VERTEX
  8
LAYER1
  5
10127
 10
47.7120
 20
73.5465
 30
0.00000
  70
    32
  0
VERTEX
  8
LAYER1
  5
10128
 10
47.7100
 20
73.5407
 30
0.00000
  70
    32
  0
VERTEX
  8
LAYER1
  5
10129
 10
47.7084
 20
73.5348
 30
0.00000
  70
    32
  0
VERTEX
  8
LAYER1
  5
1012A
 10
47.7071
 20
73.5288
 30
0.00000
  70
    32
  0
VERTEX
  8
LAYER1
  5
1012B
 10
47.7060
 20
73.5227
 30
0.00000
  70
    32
  0
VERTEX
  8
LAYER1
  5
1012C
 10
47.7053
 20
73.5166
 30
0.00000
  70
    32
  0
VERTEX
  8
LAYER1
  5
1012D
 10
47.7048
 20
73.5105
 30
0.00000
  70
    32
  0
VERTEX
  8
LAYER1
  5
1012E
 10
47.7047
 20
73.5044
 30
0.00000
  70
    32
  0
VERTEX
  8
LAYER1
  5
1012F
 10
47.7048
 20
73.4982
 30
0.00000
  70
    32
  0
VERTEX
  8
LAYER1
  5
10130
 10
47.7053
 20
73.4921
 30
0.00000
  70
    32
  0
VERTEX
  8
LAYER1
  5
10131
 10
47.7060
 20
73.4860
 30
0.00000
  70
    32
  0
VERTEX
  8
LAYER1
  5
10132
 10
47.7071
 20
73.4800
 30
0.00000
  70
    32
  0
VERTEX
  8
LAYER1
  5
10133
 10
47.7084
 20
73.4740
 30
0.00000
  70
    32
  0
VERTEX
  8
LAYER1
  5
10134
 10
47.7100
 20
73.4681
 30
0.00000
  70
    32
  0
VERTEX
  8
LAYER1
  5
10135
 10
47.7120
 20
73.4623
 30
0.00000
  70
    32
  0
VERTEX
  8
LAYER1
  5
10136
 10
47.7142
 20
73.4565
 30
0.00000
  70
    32
  0
VERTEX
  8
LAYER1
  5
10137
 10
47.7167
 20
73.4509
 30
0.00000
  70
    32
  0
VERTEX
  8
LAYER1
  5
10138
 10
47.7194
 20
73.4455
 30
0.00000
  70
    32
  0
VERTEX
  8
LAYER1
  5
10139
 10
47.7224
 20
73.4401
 30
0.00000
  70
    32
  0
VERTEX
  8
LAYER1
  5
1013A
 10
47.7257
 20
73.4349
 30
0.00000
  70
    32
  0
VERTEX
  8
LAYER1
  5
1013B
 10
47.7293
 20
73.4299
 30
0.00000
  70
    32
  0
VERTEX
  8
LAYER1
  5
1013C
 10
47.7330
 20
73.4251
 30
0.00000
  70
    32
  0
VERTEX
  8
LAYER1
  5
1013D
 10
47.7370
 20
73.4204
 30
0.00000
  70
    32
  0
VERTEX
  8
LAYER1
  5
1013E
 10
47.7413
 20
73.4160
 30
0.00000
  70
    32
  0
VERTEX
  8
LAYER1
  5
1013F
 10
47.7457
 20
73.4118
 30
0.00000
  70
    32
  0
VERTEX
  8
LAYER1
  5
10140
 10
47.7504
 20
73.4078
 30
0.00000
  70
    32
  0
VERTEX
  8
LAYER1
  5
10141
 10
47.7552
 20
73.4040
 30
0.00000
  70
    32
  0
VERTEX
  8
LAYER1
  5
10142
 10
47.7602
 20
73.4004
 30
0.00000
  70
    32
  0
VERTEX
  8
LAYER1
  5
10143
 10
47.7654
 20
73.3972
 30
0.00000
  70
    32
  0
VERTEX
  8
LAYER1
  5
10144
 10
47.7707
 20
73.3941
 30
0.00000
  70
    32
  0
VERTEX
  8
LAYER1
  5
10145
 10
47.7762
 20
73.3914
 30
0.00000
  70
    32
  0
VERTEX
  8
LAYER1
  5
10146
 10
47.7818
 20
73.3889
 30
0.00000
  70
    32
  0
VERTEX
  8
LAYER1
  5
10147
 10
47.7875
 20
73.3867
 30
0.00000
  70
    32
  0
VERTEX
  8
LAYER1
  5
10148
 10
47.7934
 20
73.3848
 30
0.00000
  70
    32
  0
VERTEX
  8
LAYER1
  5
10149
 10
47.7993
 20
73.3831
 30
0.00000
  70
    32
  0
VERTEX
  8
LAYER1
  5
1014A
 10
47.8053
 20
73.3818
 30
0.00000
  70
    32
  0
VERTEX
  8
LAYER1
  5
1014B
 10
47.8113
 20
73.3807
 30
0.00000
  70
    32
  0
VERTEX
  8
LAYER1
  5
1014C
 10
47.8174
 20
73.3800
 30
0.00000
  70
    32
  0
VERTEX
  8
LAYER1
  5
1014D
 10
47.8235
 20
73.3795
 30
0.00000
  70
    32
  0
VERTEX
  8
LAYER1
  5
1014E
 10
47.8297
 20
73.3794
 30
0.00000
  70
    32
  0
VERTEX
  8
LAYER1
  5
1014F
 10
47.8358
 20
73.3795
 30
0.00000
  70
    32
  0
VERTEX
  8
LAYER1
  5
10150
 10
47.8419
 20
73.3800
 30
0.00000
  70
    32
  0
VERTEX
  8
LAYER1
  5
10151
 10
47.8480
 20
73.3807
 30
0.00000
  70
    32
  0
VERTEX
  8
LAYER1
  5
10152
 10
47.8540
 20
73.3818
 30
0.00000
  70
    32
  0
VERTEX
  8
LAYER1
  5
10153
 10
47.8600
 20
73.3831
 30
0.00000
  70
    32
  0
VERTEX
  8
LAYER1
  5
10154
 10
47.8659
 20
73.3848
 30
0.00000
  70
    32
  0
VERTEX
  8
LAYER1
  5
10155
 10
47.8718
 20
73.3867
 30
0.00000
  70
    32
  0
VERTEX
  8
LAYER1
  5
10156
 10
47.8775
 20
73.3889
 30
0.00000
  70
    32
  0
VERTEX
  8
LAYER1
  5
10157
 10
47.8831
 20
73.3914
 30
0.00000
  70
    32
  0
VERTEX
  8
LAYER1
  5
10158
 10
47.8886
 20
73.3941
 30
0.00000
  70
    32
  0
VERTEX
  8
LAYER1
  5
10159
 10
47.8939
 20
73.3972
 30
0.00000
  70
    32
  0
VERTEX
  8
LAYER1
  5
1015A
 10
47.8991
 20
73.4004
 30
0.00000
  70
    32
  0
VERTEX
  8
LAYER1
  5
1015B
 10
47.9041
 20
73.4040
 30
0.00000
  70
    32
  0
VERTEX
  8
LAYER1
  5
1015C
 10
47.9090
 20
73.4078
 30
0.00000
  70
    32
  0
VERTEX
  8
LAYER1
  5
1015D
 10
47.9136
 20
73.4118
 30
0.00000
  70
    32
  0
VERTEX
  8
LAYER1
  5
1015E
 10
47.9180
 20
73.4160
 30
0.00000
  70
    32
  0
VERTEX
  8
LAYER1
  5
1015F
 10
47.9223
 20
73.4204
 30
0.00000
  70
    32
  0
VERTEX
  8
LAYER1
  5
10160
 10
47.9263
 20
73.4251
 30
0.00000
  70
    32
  0
VERTEX
  8
LAYER1
  5
10161
 10
47.9301
 20
73.4299
 30
0.00000
  70
    32
  0
VERTEX
  8
LAYER1
  5
10162
 10
47.9336
 20
73.4349
 30
0.00000
  70
    32
  0
VERTEX
  8
LAYER1
  5
10163
 10
47.9369
 20
73.4401
 30
0.00000
  70
    32
  0
VERTEX
  8
LAYER1
  5
10164
 10
47.9399
 20
73.4455
 30
0.00000
  70
    32
  0
VERTEX
  8
LAYER1
  5
10165
 10
47.9427
 20
73.4509
 30
0.00000
  70
    32
  0
VERTEX
  8
LAYER1
  5
10166
 10
47.9451
 20
73.4565
 30
0.00000
  70
    32
  0
VERTEX
  8
LAYER1
  5
10167
 10
47.9473
 20
73.4623
 30
0.00000
  70
    32
  0
VERTEX
  8
LAYER1
  5
10168
 10
47.9493
 20
73.4681
 30
0.00000
  70
    32
  0
VERTEX
  8
LAYER1
  5
10169
 10
47.9509
 20
73.4740
 30
0.00000
  70
    32
  0
VERTEX
  8
LAYER1
  5
1016A
 10
47.9523
 20
73.4800
 30
0.00000
  70
    32
  0
VERTEX
  8
LAYER1
  5
1016B
 10
47.9533
 20
73.4860
 30
0.00000
  70
    32
  0
VERTEX
  8
LAYER1
  5
1016C
 10
47.9541
 20
73.4921
 30
0.00000
  70
    32
  0
VERTEX
  8
LAYER1
  5
1016D
 10
47.9545
 20
73.4982
 30
0.00000
  70
    32
  0
VERTEX
  8
LAYER1
  5
1016E
 10
47.9547
 20
73.5044
 30
0.00000
  70
    32
  0
VERTEX
  8
LAYER1
  5
1016F
 10
47.9545
 20
73.5105
 30
0.00000
  70
    32
  0
VERTEX
  8
LAYER1
  5
10170
 10
47.9541
 20
73.5166
 30
0.00000
  70
    32
  0
VERTEX
  8
LAYER1
  5
10171
 10
47.9533
 20
73.5227
 30
0.00000
  70
    32
  0
VERTEX
  8
LAYER1
  5
10172
 10
47.9523
 20
73.5288
 30
0.00000
  70
    32
  0
VERTEX
  8
LAYER1
  5
10173
 10
47.9509
 20
73.5348
 30
0.00000
  70
    32
  0
VERTEX
  8
LAYER1
  5
10174
 10
47.9493
 20
73.5407
 30
0.00000
  70
    32
  0
VERTEX
  8
LAYER1
  5
10175
 10
47.9473
 20
73.5465
 30
0.00000
  70
    32
  0
VERTEX
  8
LAYER1
  5
10176
 10
47.9451
 20
73.5522
 30
0.00000
  70
    32
  0
VERTEX
  8
LAYER1
  5
10177
 10
47.9427
 20
73.5578
 30
0.00000
  70
    32
  0
VERTEX
  8
LAYER1
  5
10178
 10
47.9399
 20
73.5633
 30
0.00000
  70
    32
  0
VERTEX
  8
LAYER1
  5
10179
 10
47.9369
 20
73.5686
 30
0.00000
  70
    32
  0
VERTEX
  8
LAYER1
  5
1017A
 10
47.9336
 20
73.5738
 30
0.00000
  70
    32
  0
VERTEX
  8
LAYER1
  5
1017B
 10
47.9301
 20
73.5788
 30
0.00000
  70
    32
  0
VERTEX
  8
LAYER1
  5
1017C
 10
47.9263
 20
73.5837
 30
0.00000
  70
    32
  0
VERTEX
  8
LAYER1
  5
1017D
 10
47.9223
 20
73.5883
 30
0.00000
  70
    32
  0
VERTEX
  8
LAYER1
  5
1017E
 10
47.9180
 20
73.5928
 30
0.00000
  70
    32
  0
VERTEX
  8
LAYER1
  5
1017F
 10
47.9136
 20
73.5970
 30
0.00000
  70
    32
  0
VERTEX
  8
LAYER1
  5
10180
 10
47.9090
 20
73.6010
 30
0.00000
  70
    32
  0
VERTEX
  8
LAYER1
  5
10181
 10
47.9041
 20
73.6048
 30
0.00000
  70
    32
  0
VERTEX
  8
LAYER1
  5
10182
 10
47.8991
 20
73.6083
 30
0.00000
  70
    32
  0
VERTEX
  8
LAYER1
  5
10183
 10
47.8939
 20
73.6116
 30
0.00000
  70
    32
  0
VERTEX
  8
LAYER1
  5
10184
 10
47.8886
 20
73.6146
 30
0.00000
  70
    32
  0
VERTEX
  8
LAYER1
  5
10185
 10
47.8831
 20
73.6174
 30
0.00000
  70
    32
  0
VERTEX
  8
LAYER1
  5
10186
 10
47.8775
 20
73.6199
 30
0.00000
  70
    32
  0
VERTEX
  8
LAYER1
  5
10187
 10
47.8718
 20
73.6221
 30
0.00000
  70
    32
  0
VERTEX
  8
LAYER1
  5
10188
 10
47.8659
 20
73.6240
 30
0.00000
  70
    32
  0
VERTEX
  8
LAYER1
  5
10189
 10
47.8600
 20
73.6256
 30
0.00000
  70
    32
  0
VERTEX
  8
LAYER1
  5
1018A
 10
47.8540
 20
73.6270
 30
0.00000
  70
    32
  0
VERTEX
  8
LAYER1
  5
1018B
 10
47.8480
 20
73.6280
 30
0.00000
  70
    32
  0
VERTEX
  8
LAYER1
  5
1018C
 10
47.8419
 20
73.6288
 30
0.00000
  70
    32
  0
VERTEX
  8
LAYER1
  5
1018D
 10
47.8358
 20
73.6292
 30
0.00000
  70
    32
  0
VERTEX
  8
LAYER1
  5
1018E
 10
47.8297
 20
73.6294
 30
0.00000
  70
    32
  0
SEQEND
  8
LAYER1
  5
1018F
  0
POLYLINE
  5
235
  8
LAYER1
 10
47.829652669211292
 20
77.971382855311191
 30
0.0
 66
     1
 70
     8
  0
VERTEX
  8
LAYER1
  5
10190
 10
47.8297
 20
77.9714
 30
0.00000
  70
    32
  0
VERTEX
  8
LAYER1
  5
10191
 10
47.8235
 20
77.9712
 30
0.00000
  70
    32
  0
VERTEX
  8
LAYER1
  5
10192
 10
47.8174
 20
77.9708
 30
0.00000
  70
    32
  0
VERTEX
  8
LAYER1
  5
10193
 10
47.8113
 20
77.9700
 30
0.00000
  70
    32
  0
VERTEX
  8
LAYER1
  5
10194
 10
47.8053
 20
77.9690
 30
0.00000
  70
    32
  0
VERTEX
  8
LAYER1
  5
10195
 10
47.7993
 20
77.9676
 30
0.00000
  70
    32
  0
VERTEX
  8
LAYER1
  5
10196
 10
47.7934
 20
77.9660
 30
0.00000
  70
    32
  0
VERTEX
  8
LAYER1
  5
10197
 10
47.7875
 20
77.9641
 30
0.00000
  70
    32
  0
VERTEX
  8
LAYER1
  5
10198
 10
47.7818
 20
77.9619
 30
0.00000
  70
    32
  0
VERTEX
  8
LAYER1
  5
10199
 10
47.7762
 20
77.9594
 30
0.00000
  70
    32
  0
VERTEX
  8
LAYER1
  5
1019A
 10
47.7707
 20
77.9566
 30
0.00000
  70
    32
  0
VERTEX
  8
LAYER1
  5
1019B
 10
47.7654
 20
77.9536
 30
0.00000
  70
    32
  0
VERTEX
  8
LAYER1
  5
1019C
 10
47.7602
 20
77.9503
 30
0.00000
  70
    32
  0
VERTEX
  8
LAYER1
  5
1019D
 10
47.7552
 20
77.9468
 30
0.00000
  70
    32
  0
VERTEX
  8
LAYER1
  5
1019E
 10
47.7504
 20
77.9430
 30
0.00000
  70
    32
  0
VERTEX
  8
LAYER1
  5
1019F
 10
47.7457
 20
77.9390
 30
0.00000
  70
    32
  0
VERTEX
  8
LAYER1
  5
101A0
 10
47.7413
 20
77.9348
 30
0.00000
  70
    32
  0
VERTEX
  8
LAYER1
  5
101A1
 10
47.7370
 20
77.9303
 30
0.00000
  70
    32
  0
VERTEX
  8
LAYER1
  5
101A2
 10
47.7330
 20
77.9257
 30
0.00000
  70
    32
  0
VERTEX
  8
LAYER1
  5
101A3
 10
47.7293
 20
77.9208
 30
0.00000
  70
    32
  0
VERTEX
  8
LAYER1
  5
101A4
 10
47.7257
 20
77.9158
 30
0.00000
  70
    32
  0
VERTEX
  8
LAYER1
  5
101A5
 10
47.7224
 20
77.9106
 30
0.00000
  70
    32
  0
VERTEX
  8
LAYER1
  5
101A6
 10
47.7194
 20
77.9053
 30
0.00000
  70
    32
  0
VERTEX
  8
LAYER1
  5
101A7
 10
47.7167
 20
77.8998
 30
0.00000
  70
    32
  0
VERTEX
  8
LAYER1
  5
101A8
 10
47.7142
 20
77.8942
 30
0.00000
  70
    32
  0
VERTEX
  8
LAYER1
  5
101A9
 10
47.7120
 20
77.8885
 30
0.00000
  70
    32
  0
VERTEX
  8
LAYER1
  5
101AA
 10
47.7100
 20
77.8827
 30
0.00000
  70
    32
  0
VERTEX
  8
LAYER1
  5
101AB
 10
47.7084
 20
77.8768
 30
0.00000
  70
    32
  0
VERTEX
  8
LAYER1
  5
101AC
 10
47.7071
 20
77.8708
 30
0.00000
  70
    32
  0
VERTEX
  8
LAYER1
  5
101AD
 10
47.7060
 20
77.8647
 30
0.00000
  70
    32
  0
VERTEX
  8
LAYER1
  5
101AE
 10
47.7053
 20
77.8586
 30
0.00000
  70
    32
  0
VERTEX
  8
LAYER1
  5
101AF
 10
47.7048
 20
77.8525
 30
0.00000
  70
    32
  0
VERTEX
  8
LAYER1
  5
101B0
 10
47.7047
 20
77.8464
 30
0.00000
  70
    32
  0
VERTEX
  8
LAYER1
  5
101B1
 10
47.7048
 20
77.8402
 30
0.00000
  70
    32
  0
VERTEX
  8
LAYER1
  5
101B2
 10
47.7053
 20
77.8341
 30
0.00000
  70
    32
  0
VERTEX
  8
LAYER1
  5
101B3
 10
47.7060
 20
77.8280
 30
0.00000
  70
    32
  0
VERTEX
  8
LAYER1
  5
101B4
 10
47.7071
 20
77.8220
 30
0.00000
  70
    32
  0
VERTEX
  8
LAYER1
  5
101B5
 10
47.7084
 20
77.8160
 30
0.00000
  70
    32
  0
VERTEX
  8
LAYER1
  5
101B6
 10
47.7100
 20
77.8101
 30
0.00000
  70
    32
  0
VERTEX
  8
LAYER1
  5
101B7
 10
47.7120
 20
77.8043
 30
0.00000
  70
    32
  0
VERTEX
  8
LAYER1
  5
101B8
 10
47.7142
 20
77.7985
 30
0.00000
  70
    32
  0
VERTEX
  8
LAYER1
  5
101B9
 10
47.7167
 20
77.7929
 30
0.00000
  70
    32
  0
VERTEX
  8
LAYER1
  5
101BA
 10
47.7194
 20
77.7875
 30
0.00000
  70
    32
  0
VERTEX
  8
LAYER1
  5
101BB
 10
47.7224
 20
77.7821
 30
0.00000
  70
    32
  0
VERTEX
  8
LAYER1
  5
101BC
 10
47.7257
 20
77.7769
 30
0.00000
  70
    32
  0
VERTEX
  8
LAYER1
  5
101BD
 10
47.7293
 20
77.7719
 30
0.00000
  70
    32
  0
VERTEX
  8
LAYER1
  5
101BE
 10
47.7330
 20
77.7671
 30
0.00000
  70
    32
  0
VERTEX
  8
LAYER1
  5
101BF
 10
47.7370
 20
77.7624
 30
0.00000
  70
    32
  0
VERTEX
  8
LAYER1
  5
101C0
 10
47.7413
 20
77.7580
 30
0.00000
  70
    32
  0
VERTEX
  8
LAYER1
  5
101C1
 10
47.7457
 20
77.7538
 30
0.00000
  70
    32
  0
VERTEX
  8
LAYER1
  5
101C2
 10
47.7504
 20
77.7498
 30
0.00000
  70
    32
  0
VERTEX
  8
LAYER1
  5
101C3
 10
47.7552
 20
77.7460
 30
0.00000
  70
    32
  0
VERTEX
  8
LAYER1
  5
101C4
 10
47.7602
 20
77.7424
 30
0.00000
  70
    32
  0
VERTEX
  8
LAYER1
  5
101C5
 10
47.7654
 20
77.7392
 30
0.00000
  70
    32
  0
VERTEX
  8
LAYER1
  5
101C6
 10
47.7707
 20
77.7361
 30
0.00000
  70
    32
  0
VERTEX
  8
LAYER1
  5
101C7
 10
47.7762
 20
77.7334
 30
0.00000
  70
    32
  0
VERTEX
  8
LAYER1
  5
101C8
 10
47.7818
 20
77.7309
 30
0.00000
  70
    32
  0
VERTEX
  8
LAYER1
  5
101C9
 10
47.7875
 20
77.7287
 30
0.00000
  70
    32
  0
VERTEX
  8
LAYER1
  5
101CA
 10
47.7934
 20
77.7268
 30
0.00000
  70
    32
  0
VERTEX
  8
LAYER1
  5
101CB
 10
47.7993
 20
77.7251
 30
0.00000
  70
    32
  0
VERTEX
  8
LAYER1
  5
101CC
 10
47.8053
 20
77.7238
 30
0.00000
  70
    32
  0
VERTEX
  8
LAYER1
  5
101CD
 10
47.8113
 20
77.7227
 30
0.00000
  70
    32
  0
VERTEX
  8
LAYER1
  5
101CE
 10
47.8174
 20
77.7220
 30
0.00000
  70
    32
  0
VERTEX
  8
LAYER1
  5
101CF
 10
47.8235
 20
77.7215
 30
0.00000
  70
    32
  0
VERTEX
  8
LAYER1
  5
101D0
 10
47.8297
 20
77.7214
 30
0.00000
  70
    32
  0
VERTEX
  8
LAYER1
  5
101D1
 10
47.8358
 20
77.7215
 30
0.00000
  70
    32
  0
VERTEX
  8
LAYER1
  5
101D2
 10
47.8419
 20
77.7220
 30
0.00000
  70
    32
  0
VERTEX
  8
LAYER1
  5
101D3
 10
47.8480
 20
77.7227
 30
0.00000
  70
    32
  0
VERTEX
  8
LAYER1
  5
101D4
 10
47.8540
 20
77.7238
 30
0.00000
  70
    32
  0
VERTEX
  8
LAYER1
  5
101D5
 10
47.8600
 20
77.7251
 30
0.00000
  70
    32
  0
VERTEX
  8
LAYER1
  5
101D6
 10
47.8659
 20
77.7268
 30
0.00000
  70
    32
  0
VERTEX
  8
LAYER1
  5
101D7
 10
47.8718
 20
77.7287
 30
0.00000
  70
    32
  0
VERTEX
  8
LAYER1
  5
101D8
 10
47.8775
 20
77.7309
 30
0.00000
  70
    32
  0
VERTEX
  8
LAYER1
  5
101D9
 10
47.8831
 20
77.7334
 30
0.00000
  70
    32
  0
VERTEX
  8
LAYER1
  5
101DA
 10
47.8886
 20
77.7361
 30
0.00000
  70
    32
  0
VERTEX
  8
LAYER1
  5
101DB
 10
47.8939
 20
77.7392
 30
0.00000
  70
    32
  0
VERTEX
  8
LAYER1
  5
101DC
 10
47.8991
 20
77.7424
 30
0.00000
  70
    32
  0
VERTEX
  8
LAYER1
  5
101DD
 10
47.9041
 20
77.7460
 30
0.00000
  70
    32
  0
VERTEX
  8
LAYER1
  5
101DE
 10
47.9090
 20
77.7498
 30
0.00000
  70
    32
  0
VERTEX
  8
LAYER1
  5
101DF
 10
47.9136
 20
77.7538
 30
0.00000
  70
    32
  0
VERTEX
  8
LAYER1
  5
101E0
 10
47.9180
 20
77.7580
 30
0.00000
  70
    32
  0
VERTEX
  8
LAYER1
  5
101E1
 10
47.9223
 20
77.7624
 30
0.00000
  70
    32
  0
VERTEX
  8
LAYER1
  5
101E2
 10
47.9263
 20
77.7671
 30
0.00000
  70
    32
  0
VERTEX
  8
LAYER1
  5
101E3
 10
47.9301
 20
77.7719
 30
0.00000
  70
    32
  0
VERTEX
  8
LAYER1
  5
101E4
 10
47.9336
 20
77.7769
 30
0.00000
  70
    32
  0
VERTEX
  8
LAYER1
  5
101E5
 10
47.9369
 20
77.7821
 30
0.00000
  70
    32
  0
VERTEX
  8
LAYER1
  5
101E6
 10
47.9399
 20
77.7875
 30
0.00000
  70
    32
  0
VERTEX
  8
LAYER1
  5
101E7
 10
47.9427
 20
77.7929
 30
0.00000
  70
    32
  0
VERTEX
  8
LAYER1
  5
101E8
 10
47.9451
 20
77.7985
 30
0.00000
  70
    32
  0
VERTEX
  8
LAYER1
  5
101E9
 10
47.9473
 20
77.8043
 30
0.00000
  70
    32
  0
VERTEX
  8
LAYER1
  5
101EA
 10
47.9493
 20
77.8101
 30
0.00000
  70
    32
  0
VERTEX
  8
LAYER1
  5
101EB
 10
47.9509
 20
77.8160
 30
0.00000
  70
    32
  0
VERTEX
  8
LAYER1
  5
101EC
 10
47.9523
 20
77.8220
 30
0.00000
  70
    32
  0
VERTEX
  8
LAYER1
  5
101ED
 10
47.9533
 20
77.8280
 30
0.00000
  70
    32
  0
VERTEX
  8
LAYER1
  5
101EE
 10
47.9541
 20
77.8341
 30
0.00000
  70
    32
  0
VERTEX
  8
LAYER1
  5
101EF
 10
47.9545
 20
77.8402
 30
0.00000
  70
    32
  0
VERTEX
  8
LAYER1
  5
101F0
 10
47.9547
 20
77.8464
 30
0.00000
  70
    32
  0
VERTEX
  8
LAYER1
  5
101F1
 10
47.9545
 20
77.8525
 30
0.00000
  70
    32
  0
VERTEX
  8
LAYER1
  5
101F2
 10
47.9541
 20
77.8586
 30
0.00000
  70
    32
  0
VERTEX
  8
LAYER1
  5
101F3
 10
47.9533
 20
77.8647
 30
0.00000
  70
    32
  0
VERTEX
  8
LAYER1
  5
101F4
 10
47.9523
 20
77.8708
 30
0.00000
  70
    32
  0
VERTEX
  8
LAYER1
  5
101F5
 10
47.9509
 20
77.8768
 30
0.00000
  70
    32
  0
VERTEX
  8
LAYER1
  5
101F6
 10
47.9493
 20
77.8827
 30
0.00000
  70
    32
  0
VERTEX
  8
LAYER1
  5
101F7
 10
47.9473
 20
77.8885
 30
0.00000
  70
    32
  0
VERTEX
  8
LAYER1
  5
101F8
 10
47.9451
 20
77.8942
 30
0.00000
  70
    32
  0
VERTEX
  8
LAYER1
  5
101F9
 10
47.9427
 20
77.8998
 30
0.00000
  70
    32
  0
VERTEX
  8
LAYER1
  5
101FA
 10
47.9399
 20
77.9053
 30
0.00000
  70
    32
  0
VERTEX
  8
LAYER1
  5
101FB
 10
47.9369
 20
77.9106
 30
0.00000
  70
    32
  0
VERTEX
  8
LAYER1
  5
101FC
 10
47.9336
 20
77.9158
 30
0.00000
  70
    32
  0
VERTEX
  8
LAYER1
  5
101FD
 10
47.9301
 20
77.9208
 30
0.00000
  70
    32
  0
VERTEX
  8
LAYER1
  5
101FE
 10
47.9263
 20
77.9257
 30
0.00000
  70
    32
  0
VERTEX
  8
LAYER1
  5
101FF
 10
47.9223
 20
77.9303
 30
0.00000
  70
    32
  0
VERTEX
  8
LAYER1
  5
10200
 10
47.9180
 20
77.9348
 30
0.00000
  70
    32
  0
VERTEX
  8
LAYER1
  5
10201
 10
47.9136
 20
77.9390
 30
0.00000
  70
    32
  0
VERTEX
  8
LAYER1
  5
10202
 10
47.9090
 20
77.9430
 30
0.00000
  70
    32
  0
VERTEX
  8
LAYER1
  5
10203
 10
47.9041
 20
77.9468
 30
0.00000
  70
    32
  0
VERTEX
  8
LAYER1
  5
10204
 10
47.8991
 20
77.9503
 30
0.00000
  70
    32
  0
VERTEX
  8
LAYER1
  5
10205
 10
47.8939
 20
77.9536
 30
0.00000
  70
    32
  0
VERTEX
  8
LAYER1
  5
10206
 10
47.8886
 20
77.9566
 30
0.00000
  70
    32
  0
VERTEX
  8
LAYER1
  5
10207
 10
47.8831
 20
77.9594
 30
0.00000
  70
    32
  0
VERTEX
  8
LAYER1
  5
10208
 10
47.8775
 20
77.9619
 30
0.00000
  70
    32
  0
VERTEX
  8
LAYER1
  5
10209
 10
47.8718
 20
77.9641
 30
0.00000
  70
    32
  0
VERTEX
  8
LAYER1
  5
1020A
 10
47.8659
 20
77.9660
 30
0.00000
  70
    32
  0
VERTEX
  8
LAYER1
  5
1020B
 10
47.8600
 20
77.9676
 30
0.00000
  70
    32
  0
VERTEX
  8
LAYER1
  5
1020C
 10
47.8540
 20
77.9690
 30
0.00000
  70
    32
  0
VERTEX
  8
LAYER1
  5
1020D
 10
47.8480
 20
77.9700
 30
0.00000
  70
    32
  0
VERTEX
  8
LAYER1
  5
1020E
 10
47.8419
 20
77.9708
 30
0.00000
  70
    32
  0
VERTEX
  8
LAYER1
  5
1020F
 10
47.8358
 20
77.9712
 30
0.00000
  70
    32
  0
VERTEX
  8
LAYER1
  5
10210
 10
47.8297
 20
77.9714
 30
0.00000
  70
    32
  0
SEQEND
  8
LAYER1
  5
10211
  0
POLYLINE
  5
10061
  8
0
  6
CONTINUOUS
 66
     1
 10
0.0
 20
0.0
 30
0.0
 70
     1
  0
VERTEX
  5
10109
  8
0
  6
CONTINUOUS
 10
-0.0624999999999991
 20
97.5814629588013105
 30
0.0
  0
VERTEX
  5
1010A
  8
0
  6
CONTINUOUS
 10
95.9375
 20
97.5814629588013105
 30
0.0
  0
VERTEX
  5
1010B
  8
0
  6
CONTINUOUS
 10
95.9375
 20
49.5814629588013318
 30
0.0
  0
VERTEX
  5
1010C
  8
0
  6
CONTINUOUS
 10
-0.0624999999999991
 20
49.5814629588013318
 30
0.0
  0
SEQEND
  5
1010D
  8
0
  6
CONTINUOUS
  0
ENDSEC
  0
EOF
