0
SECTION
2
HEADER
9
$INSUNITS
70
1
9
$ACADVER
1
AC1014
9
$HANDSEED
5
FFFF
0
ENDSEC
0
SECTION
2
TABLES
0
TABLE
2
VPORT
5
8
100
AcDbSymbolTable
0
ENDTAB
0
TABLE
2
LTYPE
5
5
100
AcDbSymbolTable
0
LTYPE
5
14
100
AcDbSymbolTableRecord
100
AcDbLinetypeTableRecord
2
BYBLOCK
70
0
0
LTYPE
5
15
100
AcDbSymbolTableRecord
100
AcDbLinetypeTableRecord
2
BYLAYER
70
0
0
ENDTAB
0
TABLE
2
LAYER
5
2
100
AcDbSymbolTable
70
2
0
LAYER
5
50
100
AcDbSymbolTableRecord
100
AcDbLayerTableRecord
2
0
70
0
6
CONTINUOUS
0
ENDTAB
0
TABLE
2
STYLE
5
3
100
AcDbSymbolTable
70
1
0
STYLE
5
11
100
AcDbSymbolTableRecord
100
AcDbTextStyleTableRecord
2
STANDARD
70
0
0
ENDTAB
0
TABLE
2
VIEW
5
6
100
AcDbSymbolTable
70
0
0
ENDTAB
0
TABLE
2
UCS
5
7
100
AcDbSymbolTable
70
0
0
ENDTAB
0
TABLE
2
APPID
5
9
100
AcDbSymbolTable
70
2
0
APPID
5
12
100
AcDbSymbolTableRecord
100
AcDbRegAppTableRecord
2
ACAD
70
0
0
ENDTAB
0
TABLE
2
DIMSTYLE
5
A
100
AcDbSymbolTable
70
1
0
ENDTAB
0
TABLE
2
BLOCK_RECORD
5
1
100
AcDbSymbolTable
70
1
0
BLOCK_RECORD
5
1F
100
AcDbSymbolTableRecord
100
AcDbBlockTableRecord
2
*MODEL_SPACE
0
BLOCK_RECORD
5
1B
100
AcDbSymbolTableRecord
100
AcDbBlockTableRecord
2
*PAPER_SPACE
0
ENDTAB
0
ENDSEC
0
SECTION
2
BLOCKS
0
BLOCK
5
20
100
AcDbEntity
100
AcDbBlockBegin
2
*MODEL_SPACE
0
ENDBLK
5
21
100
AcDbEntity
100
AcDbBlockEnd
0
BLOCK
5
1C
100
AcDbEntity
100
AcDbBlockBegin
2
*PAPER_SPACE
0
ENDBLK
5
1D
100
AcDbEntity
100
AcDbBlockEnd
0
ENDSEC
0
SECTION
2
ENTITIES
0
LWPOLYLINE
5
100
100
AcDbEntity
8
0
100
AcDbPolyline
90
4
70
1
43
0.0
10
62.121398498930496
20
-96.567323299456746
10
62.121398498930496
20
-48.567323299456724
10
158.12139849893049
20
-48.567323299456739
10
158.12139849893046
20
-96.567323299456746
0
CIRCLE
5
101
100
AcDbEntity
8
0
100
AcDbCircle
10
120.60082692914258
20
-50.643964454540907
30
0
40
0.12499999999999815
0
CIRCLE
5
102
100
AcDbEntity
8
0
100
AcDbCircle
10
120.6008269291427
20
-94.643964454537809
30
0
40
0.12500000000000097
0
ARC
5
103
100
AcDbEntity
8
0
100
AcDbCircle
10
122.74243858149447
20
-59.555576106889852
30
4.7815129301806833e-48
40
0.12499999999998089
100
AcDbArc
50
-135
51
45.000000000006906
0
LINE
5
104
100
AcDbEntity
8
0
100
AcDbLine
10
122.65405023384616
20
-59.643964454538157
30
2.467597741245371e-34
11
119.8308269291428
21
-59.643964454538157
31
-1.5013154684593411e-31
0
LINE
5
105
100
AcDbEntity
8
0
100
AcDbLine
10
119.8308269291428
20
-59.643964454538157
30
-1.5013154684593411e-31
11
119.83082692914279
21
-70.967187759241511
31
-6.7879153997759846e-33
0
ARC
5
106
100
AcDbEntity
8
0
100
AcDbCircle
10
119.74243858149447
20
-71.055576106889816
30
3.7814359299950054e-47
40
0.12499999999999674
100
AcDbArc
50
-134.99999999999082
51
44.999999999995396
0
LINE
5
107
100
AcDbEntity
8
0
100
AcDbLine
10
119.65405023384616
20
-71.14396445453815
30
2.6481536735314944e-34
11
119.33082692914279
21
-71.143964454538164
31
0
0
LINE
5
108
100
AcDbEntity
8
0
100
AcDbLine
10
119.33082692914279
20
-71.143964454538164
30
0
11
119.33082692914279
21
-74.143964454538164
31
-1.15555796663234e-33
0
LINE
5
109
100
AcDbEntity
8
0
100
AcDbLine
10
119.33082692914279
20
-74.143964454538164
30
-1.15555796663234e-33
11
119.65405023384614
21
-74.143964454538164
31
0
0
ARC
5
110
100
AcDbEntity
8
0
100
AcDbCircle
10
119.74243858149447
20
-74.232352802186469
30
-2.0952791695809368e-47
40
0.12499999999999674
100
AcDbArc
50
-44.999999999995367
51
135.00000000000924
0
LINE
5
111
100
AcDbEntity
8
0
100
AcDbLine
10
119.83082692914279
20
-74.320741149834774
30
-3.3101920919154795e-34
11
119.83082692914276
21
-85.64396445453815
31
-4.3615469659023162e-33
0
LINE
5
112
100
AcDbEntity
8
0
100
AcDbLine
10
119.83082692914276
20
-85.64396445453815
30
-4.3615469659023162e-33
11
122.65405023384612
21
-85.64396445453815
31
0
0
ARC
5
113
100
AcDbEntity
8
0
100
AcDbCircle
10
122.74243858149444
20
-85.732352802186455
30
-2.0952791695809368e-47
40
0.12499999999999674
100
AcDbArc
50
-44.999999999995367
51
135.00000000000463
0
LINE
5
114
100
AcDbEntity
8
0
100
AcDbLine
10
122.83082692914276
20
-85.82074114983476
30
-3.3101920919154795e-34
11
122.83082692914276
21
-85.967187759241511
31
-5.6409182062076667e-35
0
ARC
5
115
100
AcDbEntity
8
0
100
AcDbCircle
10
122.74243858149447
20
-86.055576106889831
30
-4.7949819806882348e-47
40
0.12500000000000464
100
AcDbArc
50
-135
51
45.000000000009209
0
LINE
5
116
100
AcDbEntity
8
0
100
AcDbLine
10
122.65405023384615
20
-86.14396445453815
30
2.7083389842940227e-34
11
119.83082692914279
21
-86.143964454538136
31
0
0
LINE
5
117
100
AcDbEntity
8
0
100
AcDbLine
10
119.83082692914279
20
-86.143964454538136
30
0
11
119.83082692914276
21
-92.967187759241455
31
-2.6282100159537845e-33
0
ARC
5
118
100
AcDbEntity
8
0
100
AcDbCircle
10
119.74243858149444
20
-93.055576106889774
30
4.3707068897003711e-47
40
0.12499999999999674
100
AcDbArc
50
-134.99999999999082
51
45
0
LINE
5
119
100
AcDbEntity
8
0
100
AcDbLine
10
119.65405023384614
20
-93.143964454538107
30
-4.8148248609502537e-35
11
119.33082692914279
21
-93.143964454538107
31
0
0
LINE
5
120
100
AcDbEntity
8
0
100
AcDbLine
10
119.33082692914279
20
-93.143964454538107
30
0
11
119.33082692914277
21
-96.143964454538107
31
-3.5819264005060161e-33
0
LINE
5
121
100
AcDbEntity
8
0
100
AcDbLine
10
119.33082692914277
20
-96.143964454538107
30
-3.5819264005060161e-33
11
157.3308269291426
21
-96.143964454538221
31
-7.7158516197183108e-31
0
LINE
5
122
100
AcDbEntity
8
0
100
AcDbLine
10
157.3308269291426
20
-96.143964454538221
30
-7.7158516197183108e-31
11
157.3308269291426
21
-93.143964454538278
31
1.1555579666323184e-33
0
LINE
5
123
100
AcDbEntity
8
0
100
AcDbLine
10
157.3308269291426
20
-93.143964454538278
30
1.1555579666323184e-33
11
157.00760362443933
21
-93.143964454538278
31
0
0
ARC
5
124
100
AcDbEntity
8
0
100
AcDbCircle
10
156.91921527679105
20
-93.055576106889944
30
1.1617056062762928e-47
40
0.12500000000000464
100
AcDbArc
50
135.00000000000463
51
314.99999999998158
0
LINE
5
125
100
AcDbEntity
8
0
100
AcDbLine
10
156.83082692914272
20
-92.967187759241625
30
4.7546395502060937e-34
11
156.83082692914269
21
-86.143964454538235
31
2.9315060701880258e-33
0
LINE
5
126
100
AcDbEntity
8
0
100
AcDbLine
10
156.83082692914269
20
-86.143964454538235
30
2.9315060701880258e-33
11
154.00760362443935
21
-86.143964454538221
31
1.0836768017788335e-30
0
ARC
5
127
100
AcDbEntity
8
0
100
AcDbCircle
10
153.91921527679102
20
-86.055576106889887
30
-2.3570838388214635e-49
40
0.12500000000000464
100
AcDbArc
50
135.00000000000463
51
315
0
LINE
5
128
100
AcDbEntity
8
0
100
AcDbLine
10
153.83082692914269
20
-85.967187759241568
30
-5.8379751439238258e-34
11
153.83082692914272
21
-85.820741149834859
31
5.640918206207548e-35
0
ARC
5
129
100
AcDbEntity
8
0
100
AcDbCircle
10
153.91921527679102
20
-85.732352802186526
30
1.3469050507551221e-48
40
0.12500000000000464
100
AcDbArc
50
44.999999999995396
51
225.00000000000918
0
LINE
5
130
100
AcDbEntity
8
0
100
AcDbLine
10
154.00760362443935
20
-85.643964454538207
30
-2.5879683627704149e-34
11
156.83082692914269
21
-85.643964454538221
31
-1.0836768017788335e-30
0
LINE
5
131
100
AcDbEntity
8
0
100
AcDbLine
10
156.83082692914269
20
-85.643964454538221
30
-1.0836768017788335e-30
11
156.83082692914272
21
-74.32074114983493
31
4.664843020136496e-33
0
ARC
5
132
100
AcDbEntity
8
0
100
AcDbCircle
10
156.91921527679108
20
-74.232352802186611
30
8.0140850519929769e-48
40
0.12499999999999674
100
AcDbArc
50
45.000000000041446
51
224.99999999998619
0
LINE
5
133
100
AcDbEntity
8
0
100
AcDbLine
10
157.00760362443933
20
-74.143964454538235
30
4.9953807932536805e-34
11
157.33082692914263
21
-74.143964454538292
31
-1.0374620655148958e-31
0
LINE
5
134
100
AcDbEntity
8
0
100
AcDbLine
10
157.33082692914263
20
-74.143964454538292
30
-1.0374620655148958e-31
11
157.33082692914266
21
-71.143964454538292
31
2.026320938338755e-32
0
LINE
5
135
100
AcDbEntity
8
0
100
AcDbLine
10
157.33082692914266
20
-71.143964454538292
30
2.026320938338755e-32
11
157.00760362443935
21
-71.143964454538292
31
0
0
ARC
5
136
100
AcDbEntity
8
0
100
AcDbCircle
10
156.91921527679105
20
-71.055576106889959
30
-4.0407151522653663e-49
40
0.12500000000000464
100
AcDbArc
50
135.00000000000463
51
314.99999999999079
0
LINE
5
137
100
AcDbEntity
8
0
100
AcDbLine
10
156.83082692914272
20
-70.967187759241639
30
4.7546395502060167e-34
11
156.83082692914272
21
-59.643964454538242
31
4.0582509116681201e-33
0
LINE
5
138
100
AcDbEntity
8
0
100
AcDbLine
10
156.83082692914272
20
-59.643964454538242
30
4.0582509116681201e-33
11
154.00760362443938
21
-59.643964454538228
31
1.0891361307550493e-30
0
ARC
5
139
100
AcDbEntity
8
0
100
AcDbCircle
10
153.91921527679108
20
-59.555576106889916
30
7.1638512387038061e-48
40
0.12499999999999674
100
AcDbArc
50
134.99999999999082
51
314.99999999999773
0
LINE
5
140
100
AcDbEntity
8
0
100
AcDbLine
10
153.83082692914277
20
-59.467187759241583
30
3.1898214703907654e-34
11
153.83082692914275
21
-59.320741149834866
31
5.640918206207548e-35
0
ARC
5
141
100
AcDbEntity
8
0
100
AcDbCircle
10
153.91921527679108
20
-59.232352802186547
30
6.0610727283980498e-49
40
0.12499999999998883
100
AcDbArc
50
45.000000000016122
51
224.99999999999537
0
LINE
5
142
100
AcDbEntity
8
0
100
AcDbLine
10
154.00760362443935
20
-59.143964454538221
30
-5.657419211637513e-34
11
156.83082692914275
21
-59.143964454538235
31
-1.0879229465381126e-30
0
LINE
5
143
100
AcDbEntity
8
0
100
AcDbLine
10
156.83082692914275
20
-59.143964454538235
30
-1.0879229465381126e-30
11
156.83082692914275
21
-52.320741149834937
31
2.3249139617195692e-33
0
ARC
5
144
100
AcDbEntity
8
0
100
AcDbCircle
10
156.91921527679108
20
-52.232352802186611
30
-1.1145639294998635e-47
40
0.12500000000001255
100
AcDbArc
50
45.000000000032237
51
224.99999999999767
0
LINE
5
145
100
AcDbEntity
8
0
100
AcDbLine
10
157.00760362443935
20
-52.143964454538235
30
-4.15278644258388e-34
11
157.33082692914266
21
-52.143964454538292
31
-1.0435279865995799e-31
0
LINE
5
146
100
AcDbEntity
8
0
100
AcDbLine
10
157.33082692914266
20
-52.143964454538292
30
-1.0435279865995799e-31
11
157.33082692914266
21
-49.143964454538242
31
1.1555579666323615e-33
0
LINE
5
147
100
AcDbEntity
8
0
100
AcDbLine
10
157.33082692914266
20
-49.143964454538242
30
1.1555579666323615e-33
11
119.33082692914282
21
-49.143964454538107
31
7.7158516197183108e-31
0
LINE
5
148
100
AcDbEntity
8
0
100
AcDbLine
10
119.33082692914282
20
-49.143964454538107
30
7.7158516197183108e-31
11
119.33082692914282
21
-52.143964454538114
31
-1.15555796663234e-33
0
LINE
5
149
100
AcDbEntity
8
0
100
AcDbLine
10
119.33082692914282
20
-52.143964454538114
30
-1.15555796663234e-33
11
119.65405023384616
21
-52.143964454538121
31
0
0
ARC
5
150
100
AcDbEntity
8
0
100
AcDbCircle
10
119.74243858149447
20
-52.232352802186469
30
5.0340576271972691e-47
40
0.12500000000001255
100
AcDbArc
50
-44.999999999974662
51
134.99999999998619
0
LINE
5
151
100
AcDbEntity
8
0
100
AcDbLine
10
119.83082692914283
20
-52.320741149834753
30
-3.0694508488675844e-34
11
119.8308269291428
21
-59.143964454538157
31
-2.0184158208014461e-34
0
LINE
5
152
100
AcDbEntity
8
0
100
AcDbLine
10
119.8308269291428
20
-59.143964454538157
30
-2.0184158208014461e-34
11
122.65405023384616
21
-59.143964454538171
31
1.5013154684593411e-31
0
ARC
5
153
100
AcDbEntity
8
0
100
AcDbCircle
10
122.74243858149447
20
-59.232352802186497
30
2.3431938804855513e-47
40
0.12499999999999674
100
AcDbArc
50
-44.999999999986159
51
134.99999999999309
0
LINE
5
154
100
AcDbEntity
8
0
100
AcDbLine
10
122.8308269291428
20
-59.320741149834788
30
-3.0694508488677567e-34
11
122.83082692914276
21
-59.46718775924154
31
-2.4675977412452757e-34
0
CIRCLE
5
155
100
AcDbEntity
8
0
100
AcDbCircle
10
157.08082692914266
20
-72.643964454538292
30
0
40
0.062499999999999986
0
CIRCLE
5
156
100
AcDbEntity
8
0
100
AcDbCircle
10
119.58082692914282
20
-50.643964454538121
30
0
40
0.062499999999999986
0
CIRCLE
5
157
100
AcDbEntity
8
0
100
AcDbCircle
10
119.58082692914276
20
-94.64396445453815
30
0
40
0.062499999999999986
0
CIRCLE
5
158
100
AcDbEntity
8
0
100
AcDbCircle
10
119.58082692914279
20
-72.643964454538164
30
0
40
0.062499999999999986
0
CIRCLE
5
159
100
AcDbEntity
8
0
100
AcDbCircle
10
157.08082692914266
20
-50.643964454538192
30
0
40
0.062499999999999986
0
CIRCLE
5
160
100
AcDbEntity
8
0
100
AcDbCircle
10
157.0808269291426
20
-94.643964454539159
30
0
40
0.062499999999999986
0
CIRCLE
5
161
100
AcDbEntity
8
0
100
AcDbCircle
10
136.79082692914272
20
-94.643964454538178
30
0
40
0.13625000000000098
0
CIRCLE
5
162
100
AcDbEntity
8
0
100
AcDbCircle
10
136.79082692914278
20
-50.643964454538192
30
0
40
0.13624999999999959
0
CIRCLE
5
163
100
AcDbEntity
8
0
100
AcDbCircle
10
155.01568222725146
20
-61.050249575368625
30
0
40
0.12499999999999815
0
CIRCLE
5
164
100
AcDbEntity
8
0
100
AcDbCircle
10
148.32454670047406
20
-93.913964454539325
30
0
40
0.12500000000000028
0
CIRCLE
5
165
100
AcDbEntity
8
0
100
AcDbCircle
10
155.01568222725149
20
-51.373964454529279
30
0
40
0.12500000000000377
0
CIRCLE
5
166
100
AcDbEntity
8
0
100
AcDbCircle
10
155.01568222725143
20
-84.237679333710105
30
0
40
0.12499999999999815
0
CIRCLE
5
167
100
AcDbEntity
8
0
100
AcDbCircle
10
155.0156822272514
20
-93.913964454550296
30
0
40
0.12500000000000028
0
CIRCLE
5
168
100
AcDbEntity
8
0
100
AcDbCircle
10
148.32454670047534
20
-51.373964454529258
30
0
40
0.12499999999999815
0
CIRCLE
5
169
100
AcDbEntity
8
0
100
AcDbCircle
10
132.60082692914253
20
-94.643964454538164
30
0
40
0.12499999999999957
0
CIRCLE
5
170
100
AcDbEntity
8
0
100
AcDbCircle
10
144.6008269291425
20
-94.643964454538192
30
0
40
0.12499999999999957
0
CIRCLE
5
171
100
AcDbEntity
8
0
100
AcDbCircle
10
150.60082692914267
20
-57.643964454538221
30
0
40
0.12499999999999815
0
CIRCLE
5
172
100
AcDbEntity
8
0
100
AcDbCircle
10
138.6008269291427
20
-57.6439644545382
30
0
40
0.12499999999999815
0
CIRCLE
5
173
100
AcDbEntity
8
0
100
AcDbCircle
10
126.60082692914274
20
-57.643964454538178
30
0
40
0.12499999999999815
0
CIRCLE
5
174
100
AcDbEntity
8
0
100
AcDbCircle
10
132.6008269291427
20
-57.643964454538192
30
0
40
0.12499999999999815
0
CIRCLE
5
175
100
AcDbEntity
8
0
100
AcDbCircle
10
144.6008269291427
20
-57.643964454538214
30
0
40
0.12499999999999815
0
CIRCLE
5
176
100
AcDbEntity
8
0
100
AcDbCircle
10
150.60082692914264
20
-87.643964454538221
30
0
40
0.12499999999999957
0
CIRCLE
5
177
100
AcDbEntity
8
0
100
AcDbCircle
10
138.6008269291425
20
-94.643964454538178
30
0
40
0.12499999999999957
0
CIRCLE
5
178
100
AcDbEntity
8
0
100
AcDbCircle
10
126.60082692914253
20
-94.643964454538164
30
0
40
0.12499999999999957
0
CIRCLE
5
179
100
AcDbEntity
8
0
100
AcDbCircle
10
132.60082692914267
20
-87.643964454538164
30
0
40
0.12499999999999957
0
CIRCLE
5
180
100
AcDbEntity
8
0
100
AcDbCircle
10
144.60082692914267
20
-87.643964454538192
30
0
40
0.12499999999999957
0
CIRCLE
5
181
100
AcDbEntity
8
0
100
AcDbCircle
10
150.60082692914253
20
-50.643964454538221
30
0
40
0.12499999999999815
0
CIRCLE
5
182
100
AcDbEntity
8
0
100
AcDbCircle
10
138.60082692914256
20
-50.6439644545382
30
0
40
0.12499999999999815
0
CIRCLE
5
183
100
AcDbEntity
8
0
100
AcDbCircle
10
126.60082692914257
20
-50.643964454538178
30
0
40
0.12499999999999815
0
CIRCLE
5
184
100
AcDbEntity
8
0
100
AcDbCircle
10
132.60082692914258
20
-50.643964454538192
30
0
40
0.12499999999999815
0
CIRCLE
5
185
100
AcDbEntity
8
0
100
AcDbCircle
10
144.60082692914253
20
-50.643964454538214
30
0
40
0.12499999999999815
0
CIRCLE
5
186
100
AcDbEntity
8
0
100
AcDbCircle
10
150.6008269291425
20
-94.643964454538207
30
0
40
0.12499999999999957
0
CIRCLE
5
187
100
AcDbEntity
8
0
100
AcDbCircle
10
138.60082692914267
20
-87.643964454538192
30
0
40
0.12499999999999957
0
CIRCLE
5
188
100
AcDbEntity
8
0
100
AcDbCircle
10
126.6008269291427
20
-87.643964454538164
30
0
40
0.12499999999999957
0
CIRCLE
5
189
100
AcDbEntity
8
0
100
AcDbCircle
10
129.64332692914266
20
-72.643964454539258
30
0
40
0.094999999999998155
0
CIRCLE
5
190
100
AcDbEntity
8
0
100
AcDbCircle
10
128.39457692914269
20
-73.364930603189791
30
0
40
0.094999999999998155
0
CIRCLE
5
191
100
AcDbEntity
8
0
100
AcDbCircle
10
128.81082692914268
20
-72.643964454539258
30
0
40
0.66992187500000067
0
CIRCLE
5
192
100
AcDbEntity
8
0
100
AcDbCircle
10
128.39457692914269
20
-71.922998305888711
30
0
40
0.094999999999998155
0
ARC
5
193
100
AcDbEntity
8
0
100
AcDbCircle
10
118.40381686089071
20
-75.701024625249175
30
2.6938101015102442e-49
40
0.12499999999998089
100
AcDbArc
50
134.99999999977891
51
314.99999999977894
0
LINE
5
194
100
AcDbEntity
8
0
100
AcDbLine
10
118.31542851324275
20
-75.612636277600529
30
-2.1546341252796272e-33
11
118.31542851324275
21
-58.7894129728978
31
4.0134658864616567e-34
0
LINE
5
195
100
AcDbEntity
8
0
100
AcDbLine
10
118.31542851324275
20
-58.7894129728978
30
4.0134658864616567e-34
11
101.31542851324276
21
-58.789412972897772
31
-1.1804282430795467e-30
0
LINE
5
196
100
AcDbEntity
8
0
100
AcDbLine
10
101.31542851324276
20
-58.789412972897772
30
-1.1804282430795467e-30
11
101.31542851324279
21
-61.789412972897779
31
3.6111186457260638e-34
0
LINE
5
197
100
AcDbEntity
8
0
100
AcDbLine
10
101.31542851324279
20
-61.789412972897779
30
3.6111186457260638e-34
11
101.63865181794549
21
-61.789412972897779
31
7.5634453524656202e-33
0
ARC
5
198
100
AcDbEntity
8
0
100
AcDbCircle
10
101.72704016559412
20
-61.877801320545771
30
1.1664197739539357e-46
40
0.12499999999998883
100
AcDbArc
50
-44.999999999785807
51
135.00000000020728
0
LINE
5
199
100
AcDbEntity
8
0
100
AcDbLine
10
101.81542851324276
20
-61.966189668193756
30
4.2490829398057021e-33
11
101.81542851324278
21
-92.61263627760124
31
3.6889318258826601e-33
0
ARC
5
200
100
AcDbEntity
8
0
100
AcDbCircle
10
101.7270401655941
20
-92.70102462524919
30
1.7240384649665563e-46
40
0.12499999999999674
100
AcDbArc
50
-134.99999999986184
51
44.999999999765095
0
LINE
5
201
100
AcDbEntity
8
0
100
AcDbLine
10
101.638651817946
20
-92.789412972897722
30
-6.0185310764453059e-34
11
101.31542851324279
21
-92.789412972897722
31
1.574296081509448e-31
0
LINE
5
202
100
AcDbEntity
8
0
100
AcDbLine
10
101.31542851324279
20
-92.789412972897722
30
1.574296081509448e-31
11
101.31542851324279
21
-95.789412972897708
31
3.6111186457260625e-34
0
LINE
5
203
100
AcDbEntity
8
0
100
AcDbLine
10
101.31542851324279
20
-95.789412972897708
30
3.6111186457260625e-34
11
118.31542851324276
21
-95.78941297289775
31
-6.4298763497652594e-32
0
LINE
5
204
100
AcDbEntity
8
0
100
AcDbLine
10
118.31542851324276
20
-95.78941297289775
30
-6.4298763497652594e-32
11
118.31542851324275
21
-78.966189668194431
31
-2.0250218452275817e-33
0
ARC
5
205
100
AcDbEntity
8
0
100
AcDbCircle
10
118.4038168608908
20
-78.877801320545814
30
-2.2520252448625641e-46
40
0.12500000000000464
100
AcDbArc
50
44.999999999834188
51
225.00000000018423
0
LINE
5
206
100
AcDbEntity
8
0
100
AcDbLine
10
118.49220520853937
20
-78.78941297289775
30
-2.7324131086011096e-33
11
118.81542851324289
21
-78.78941297289775
31
-1.002772579311858e-32
0
LINE
5
207
100
AcDbEntity
8
0
100
AcDbLine
10
118.81542851324289
20
-78.78941297289775
30
-1.002772579311858e-32
11
118.81542851324288
21
-75.789412972897736
31
-1.0066585600067316e-32
0
LINE
5
208
100
AcDbEntity
8
0
100
AcDbLine
10
118.81542851324288
20
-75.789412972897736
30
-1.0066585600067316e-32
11
118.49220520853868
21
-75.789412972897821
31
2.1546341252796272e-33
0
CIRCLE
5
209
100
AcDbEntity
8
0
100
AcDbCircle
10
101.56542851324279
20
-60.289412972897772
30
0
40
0.062500000000000416
0
CIRCLE
5
210
100
AcDbEntity
8
0
100
AcDbCircle
10
118.56542851324288
20
-77.28941297289775
30
0
40
0.062499999999999015
0
CIRCLE
5
211
100
AcDbEntity
8
0
100
AcDbCircle
10
101.56542851324279
20
-94.289412972897722
30
0
40
0.062499999999999015
0
CIRCLE
5
212
100
AcDbEntity
8
0
100
AcDbCircle
10
103.31542851324278
20
-82.908937917395136
30
0
40
0.12500000000000083
0
CIRCLE
5
213
100
AcDbEntity
8
0
100
AcDbCircle
10
103.31542851324278
20
-70.908937917395164
30
0
40
0.12500000000000083
0
CIRCLE
5
214
100
AcDbEntity
8
0
100
AcDbCircle
10
103.31542851324278
20
-64.908937917395178
30
0
40
0.12500000000000083
0
CIRCLE
5
215
100
AcDbEntity
8
0
100
AcDbCircle
10
103.31542851324278
20
-76.90893791739515
30
0
40
0.12500000000000083
0
CIRCLE
5
216
100
AcDbEntity
8
0
100
AcDbCircle
10
103.31542851324278
20
-88.908937917395122
30
0
40
0.12500000000000083
0
CIRCLE
5
217
100
AcDbEntity
8
0
100
AcDbCircle
10
116.81542851324279
20
-82.956618398306503
30
0
40
0.12499999999999803
0
CIRCLE
5
218
100
AcDbEntity
8
0
100
AcDbCircle
10
116.81542851324279
20
-70.956618398306532
30
0
40
0.12499999999999803
0
CIRCLE
5
219
100
AcDbEntity
8
0
100
AcDbCircle
10
116.81542851324279
20
-64.956618398306532
30
0
40
0.12499999999999803
0
CIRCLE
5
220
100
AcDbEntity
8
0
100
AcDbCircle
10
116.81542851324279
20
-76.956618398306503
30
0
40
0.12499999999999803
0
CIRCLE
5
221
100
AcDbEntity
8
0
100
AcDbCircle
10
116.81542851324279
20
-88.956618398306489
30
0
40
0.12499999999999803
0
CIRCLE
5
222
100
AcDbEntity
8
0
100
AcDbCircle
10
83.950621517741169
20
-94.01368925052418
30
0
40
0.062500000000000708
0
CIRCLE
5
223
100
AcDbEntity
8
0
100
AcDbCircle
10
100.9506215177412
20
-77.013689250524138
30
0
40
0.062499999999999306
0
CIRCLE
5
224
100
AcDbEntity
8
0
100
AcDbCircle
10
83.950621517741155
20
-60.013689250524074
30
0
40
0.062499999999999306
0
CIRCLE
5
225
100
AcDbEntity
8
0
100
AcDbCircle
10
85.700621517741141
20
-71.394164306026724
30
0
40
0.12500000000000142
0
CIRCLE
5
226
100
AcDbEntity
8
0
100
AcDbCircle
10
85.700621517741155
20
-83.394164306026752
30
0
40
0.12500000000000142
0
CIRCLE
5
227
100
AcDbEntity
8
0
100
AcDbCircle
10
85.700621517741169
20
-89.394164306026781
30
0
40
0.12500000000000142
0
CIRCLE
5
228
100
AcDbEntity
8
0
100
AcDbCircle
10
85.700621517741141
20
-77.394164306026738
30
0
40
0.12500000000000142
0
CIRCLE
5
229
100
AcDbEntity
8
0
100
AcDbCircle
10
85.700621517741141
20
-65.394164306026695
30
0
40
0.12500000000000142
0
CIRCLE
5
230
100
AcDbEntity
8
0
100
AcDbCircle
10
99.200621517741112
20
-71.346483825115357
30
0
40
0.12499999999999861
0
CIRCLE
5
231
100
AcDbEntity
8
0
100
AcDbCircle
10
99.200621517741112
20
-83.346483825115385
30
0
40
0.12499999999999861
0
CIRCLE
5
232
100
AcDbEntity
8
0
100
AcDbCircle
10
99.200621517741126
20
-89.346483825115413
30
0
40
0.12499999999999861
0
CIRCLE
5
233
100
AcDbEntity
8
0
100
AcDbCircle
10
99.200621517741112
20
-77.346483825115385
30
0
40
0.12499999999999861
0
CIRCLE
5
234
100
AcDbEntity
8
0
100
AcDbCircle
10
99.200621517741112
20
-65.346483825115342
30
0
40
0.12499999999999861
0
ARC
5
235
100
AcDbEntity
8
0
100
AcDbCircle
10
100.78900986538905
20
-78.602077598172727
30
2.0526832973508063e-46
40
0.12500000000001255
100
AcDbArc
50
45.000000000165812
51
225.00000000016118
0
LINE
5
236
100
AcDbEntity
8
0
100
AcDbLine
10
100.87739821303713
20
-78.513689250524138
30
1.9740781929931217e-33
11
101.2006215177412
21
-78.513689250524138
31
-1.5316450738827623e-32
0
LINE
5
237
100
AcDbEntity
8
0
100
AcDbLine
10
101.2006215177412
20
-78.513689250524138
30
-1.5316450738827623e-32
11
101.20062151774121
21
-75.513689250524124
31
-3.7912006779920653e-36
0
LINE
5
238
100
AcDbEntity
8
0
100
AcDbLine
10
101.20062151774121
20
-75.513689250524124
30
-3.7912006779920653e-36
11
100.87739821303767
21
-75.513689250524138
31
1.0463713871080257e-32
0
ARC
5
239
100
AcDbEntity
8
0
100
AcDbCircle
10
100.78900986538909
20
-75.42530090287606
30
1.4061688729883474e-46
40
0.12499999999999674
100
AcDbArc
50
134.99999999981119
51
315.00000000016121
0
LINE
5
240
100
AcDbEntity
8
0
100
AcDbLine
10
100.70062151774107
20
-75.336912555227457
30
-1.4564845204720669e-33
11
100.70062151774106
21
-58.513689250524052
31
-8.1000873809104064e-33
0
LINE
5
241
100
AcDbEntity
8
0
100
AcDbLine
10
100.70062151774106
20
-58.513689250524052
30
-8.1000873809104064e-33
11
83.700621517741155
21
-58.513689250524074
31
-1.1549513745238731e-30
0
LINE
5
242
100
AcDbEntity
8
0
100
AcDbLine
10
83.700621517741155
20
-58.513689250524074
30
-1.1549513745238731e-30
11
83.700621517741141
21
-61.513689250524081
31
3.7912006779403439e-36
0
LINE
5
243
100
AcDbEntity
8
0
100
AcDbLine
10
83.700621517741141
20
-61.513689250524081
30
3.7912006779403439e-36
11
84.02384482244436
21
-61.513689250524081
31
-1.5786559622890649e-31
0
ARC
5
244
100
AcDbEntity
8
0
100
AcDbCircle
10
84.112233170092452
20
-61.602077598172627
30
1.3846183921762655e-46
40
0.12500000000000464
100
AcDbArc
50
-44.999999999762807
51
134.99999999985263
0
LINE
5
245
100
AcDbEntity
8
0
100
AcDbLine
10
84.200621517741141
20
-61.690465945820584
30
-5.5490856522508277e-33
11
84.200621517741183
21
-92.33691255522821
31
1.4755727303530791e-32
0
ARC
5
246
100
AcDbEntity
8
0
100
AcDbCircle
10
84.112233170092495
20
-92.425300902876188
30
9.8054687694972896e-46
40
0.12499999999999674
100
AcDbArc
50
-135.00000000020728
51
44.999999999769706
0
LINE
5
247
100
AcDbEntity
8
0
100
AcDbLine
10
84.023844822443863
20
-92.51368925052418
30
-9.569464411169918e-33
11
83.700621517741183
21
-92.51368925052418
31
-7.1274572745039434e-33
0
LINE
5
248
100
AcDbEntity
8
0
100
AcDbLine
10
83.700621517741183
20
-92.51368925052418
30
-7.1274572745039434e-33
11
83.700621517741169
21
-95.513689250524195
31
3.7912006779408832e-36
0
LINE
5
249
100
AcDbEntity
8
0
100
AcDbLine
10
83.700621517741169
20
-95.513689250524195
30
3.7912006779408832e-36
11
100.70062151774111
21
-95.513689250524195
31
1.1573777429577467e-30
0
LINE
5
250
100
AcDbEntity
8
0
100
AcDbLine
10
100.70062151774111
20
-95.513689250524195
30
1.1573777429577467e-30
11
100.70062151774097
21
-78.690465945821302
31
-1.9740781929927108e-33
0
LINE
5
251
100
AcDbEntity
8
0
100
AcDbLine
10
82.573191108667487
20
-92.549352912105434
30
0
11
82.898238132076244
21
-92.549352912105434
31
1.8956003389638147e-35
0
LINE
5
252
100
AcDbEntity
8
0
100
AcDbLine
10
82.898238132076244
20
-92.549352912105434
30
1.8956003389638147e-35
11
82.898238132076244
21
-52.56481930111498
31
-1.5691847408905042e-33
0
LINE
5
253
100
AcDbEntity
8
0
100
AcDbLine
10
82.898238132076244
20
-52.56481930111498
30
-1.5691847408905042e-33
11
82.574870125481581
21
-52.564819301114994
31
-3.1453696424426576e-31
0
ARC
5
254
100
AcDbEntity
8
0
100
AcDbCircle
10
82.486481777833205
20
-52.476430953466739
30
6.7345252537756103e-47
40
0.12499999999999674
100
AcDbArc
50
134.99999999993784
51
315.00000000003911
0
LINE
5
255
100
AcDbEntity
8
0
100
AcDbLine
10
82.398093430184986
20
-52.388042605818328
30
4.6763986462183244e-33
11
82.398093430184986
21
-49.564819301110454
31
8.4192153392476594e-34
0
LINE
5
256
100
AcDbEntity
8
0
100
AcDbLine
10
82.398093430184986
20
-49.564819301110454
30
8.4192153392476594e-34
11
81.075014827372527
21
-49.56481930111498
31
4.7063965215793587e-31
0
ARC
5
257
100
AcDbEntity
8
0
100
AcDbCircle
10
80.986626479724322
20
-49.476430953466568
30
6.5082452052487503e-46
40
0.12500000000000069
100
AcDbArc
50
134.99999999982268
51
314.99999999993327
0
LINE
5
258
100
AcDbEntity
8
0
100
AcDbLine
10
80.898238132076273
20
-49.388042605817972
30
-1.9800967240822555e-33
11
80.898238132076273
21
-49.064819301114987
31
6.3614358209027639e-33
0
LINE
5
259
100
AcDbEntity
8
0
100
AcDbLine
10
80.898238132076273
20
-49.064819301114987
30
6.3614358209027639e-33
11
75.391957903408908
21
-49.064819301105992
31
-1.0585032292773941e-31
0
LINE
5
260
100
AcDbEntity
8
0
100
AcDbLine
10
75.391957903408908
20
-49.064819301105992
30
-1.0585032292773941e-31
11
75.391957903408908
21
-49.388042605809495
31
6.143734264840757e-34
0
ARC
5
261
100
AcDbEntity
8
0
100
AcDbCircle
10
75.30356955576049
20
-49.476430953457722
30
1.7024879841544744e-46
40
0.12500000000000069
100
AcDbArc
50
-135.00000000002993
51
44.99999999993782
0
LINE
5
262
100
AcDbEntity
8
0
100
AcDbLine
10
75.215181208112128
20
-49.564819301105992
30
3.1531084308268094e-32
11
72.391957903408922
21
-49.564819301105992
31
-9.4021776812605207e-32
0
LINE
5
263
100
AcDbEntity
8
0
100
AcDbLine
10
72.391957903408922
20
-49.564819301105992
30
-9.4021776812605207e-32
11
72.391957903408837
21
-51.396946458388044
31
-3.1498682783431131e-32
0
ARC
5
264
100
AcDbEntity
8
0
100
AcDbCircle
10
73.891957903408738
20
-51.396946458388136
30
-3.011679693488453e-46
40
1.4999999999999001
100
AcDbArc
50
180
51
227.32841941074867
0
ARC
5
265
100
AcDbEntity
8
0
100
AcDbCircle
10
54.378238132076198
20
-72.564819301116088
30
6.206538473879603e-46
40
27.290000000000024
100
AcDbArc
50
-47.32841941075025
51
47.328419410746839
0
ARC
5
266
100
AcDbEntity
8
0
100
AcDbCircle
10
73.891957903407516
20
-93.732692143845327
30
1.2585480794255861e-45
40
1.4999999999999869
100
AcDbArc
50
132.67158058924574
51
180
0
LINE
5
267
100
AcDbEntity
8
0
100
AcDbLine
10
72.391957903407516
20
-93.73269214384527
30
-8.565573427662215e-32
11
72.391957903408866
21
-95.564819301110461
31
5.7994616255273529e-31
0
LINE
5
268
100
AcDbEntity
8
0
100
AcDbLine
10
72.391957903408866
20
-95.564819301110461
30
5.7994616255273529e-31
11
75.215181208112298
21
-95.564819301110475
31
-1.2677775066989992e-31
0
ARC
5
269
100
AcDbEntity
8
0
100
AcDbCircle
10
75.30356955576049
20
-95.653207648758908
30
2.569894836840773e-46
40
0.12500000000000464
100
AcDbArc
50
-44.999999999967741
51
134.9999999999217
0
LINE
5
270
100
AcDbEntity
8
0
100
AcDbLine
10
75.391957903408866
20
-95.741595996407185
30
-4.212971753344724e-33
11
75.391957903408866
21
-96.064819301110475
31
7.7813180156587575e-36
0
LINE
5
271
100
AcDbEntity
8
0
100
AcDbLine
10
75.391957903408866
20
-96.064819301110475
30
7.7813180156587575e-36
11
80.898238132076187
21
-96.064819301110475
31
1.3226740925153913e-30
0
LINE
5
272
100
AcDbEntity
8
0
100
AcDbLine
10
80.898238132076187
20
-96.064819301110475
30
1.3226740925153913e-30
11
80.898238132076216
21
-95.741595996407327
31
1.6966836791337622e-36
0
ARC
5
273
100
AcDbEntity
8
0
100
AcDbCircle
10
80.986626479724521
20
-95.653207648758979
30
1.2714783679128353e-45
40
0.12500000000000464
100
AcDbArc
50
45.000000000101323
51
225.00000000001381
0
LINE
5
274
100
AcDbEntity
8
0
100
AcDbLine
10
81.075014827372684
20
-95.564819301110504
30
9.1240931115265969e-33
11
82.398093430184957
21
-95.564819301110489
31
-5.5404606707234376e-31
0
LINE
5
275
100
AcDbEntity
8
0
100
AcDbLine
10
82.398093430184957
20
-95.564819301110489
30
-5.5404606707234376e-31
11
82.398093430184957
21
-92.727792826334351
31
5.3829318045853545e-34
0
ARC
5
276
100
AcDbEntity
8
0
100
AcDbCircle
10
82.485642269425341
20
-92.638572869219018
30
7.0685577063628813e-46
40
0.12499999999999195
100
AcDbArc
50
45.541640554343573
51
225.54164055548122
0
CIRCLE
5
277
100
AcDbEntity
8
0
100
AcDbCircle
10
80.583093430185002
20
-60.971104421945363
30
0
40
0.12499999999999838
0
CIRCLE
5
278
100
AcDbEntity
8
0
100
AcDbCircle
10
73.891957903407615
20
-93.834819301116141
30
0
40
0.12500000000000047
0
CIRCLE
5
279
100
AcDbEntity
8
0
100
AcDbCircle
10
80.583093430185002
20
-51.294819301105996
30
0
40
0.12500000000000397
0
CIRCLE
5
280
100
AcDbEntity
8
0
100
AcDbCircle
10
80.583093430184988
20
-84.158534180286864
30
0
40
0.12499999999999838
0
CIRCLE
5
281
100
AcDbEntity
8
0
100
AcDbCircle
10
80.583093430184988
20
-93.834819301127084
30
0
40
0.12500000000000047
0
CIRCLE
5
282
100
AcDbEntity
8
0
100
AcDbCircle
10
73.891957903408837
20
-51.294819301105996
30
0
40
0.12499999999999838
0
ARC
5
283
100
AcDbEntity
8
0
100
AcDbCircle
10
71.200116156432799
20
-73.976408676765985
30
-3.8790865461747519e-47
40
0.12499999999998883
100
AcDbArc
50
134.99999999989407
51
314.99999999990325
0
LINE
5
284
100
AcDbEntity
8
0
100
AcDbLine
10
71.11172780878465
20
-73.888020329117509
30
4.3333423748745821e-34
11
71.111727808784636
21
-71.241573719711084
31
2.8669898088410696e-34
0
ARC
5
285
100
AcDbEntity
8
0
100
AcDbCircle
10
71.200116156432813
20
-71.153185372062623
30
1.7021512578917857e-47
40
0.12500000000000464
100
AcDbArc
50
45.000000000004604
51
225.00000000009209
0
LINE
5
286
100
AcDbEntity
8
0
100
AcDbLine
10
71.288504504081132
20
-71.06479702441429
30
-7.1018666699204476e-34
11
71.611727808784636
21
-71.064797024414304
31
-2.5115567131067165e-30
0
LINE
5
287
100
AcDbEntity
8
0
100
AcDbLine
10
71.611727808784636
20
-71.064797024414304
30
-2.5115567131067165e-30
11
71.61172780878465
21
-52.564797024414304
31
7.9098663143983017e-34
0
LINE
5
288
100
AcDbEntity
8
0
100
AcDbLine
10
71.61172780878465
20
-52.564797024414304
30
7.9098663143983017e-34
11
71.288504504081146
21
-52.564797024414304
31
3.2414765796281231e-32
0
ARC
5
289
100
AcDbEntity
8
0
100
AcDbCircle
10
71.200116156432827
20
-52.476408676765971
30
-2.5321814954196296e-47
40
0.12499999999998089
100
AcDbArc
50
134.99999999990789
51
314.9999999999954
0
LINE
5
290
100
AcDbEntity
8
0
100
AcDbLine
10
71.111727808784664
20
-52.388020329117523
30
-1.8657446336134265e-34
11
71.11172780878465
21
-49.564797024414297
31
-1.5139264959055963e-33
0
LINE
5
291
100
AcDbEntity
8
0
100
AcDbLine
10
71.11172780878465
20
-49.564797024414297
30
-1.5139264959055963e-33
11
69.155727808792932
21
-49.564797024414297
31
-3.4272454128465768e-32
0
LINE
5
292
100
AcDbEntity
8
0
100
AcDbLine
10
69.155727808792932
20
-49.564797024414297
30
-3.4272454128465768e-32
11
69.155727808792903
21
-95.56479702441419
31
-4.983343731098785e-33
0
LINE
5
293
100
AcDbEntity
8
0
100
AcDbLine
10
69.155727808792903
20
-95.56479702441419
30
-4.983343731098785e-33
11
71.111727808784636
21
-95.56479702441419
31
3.6092230453871033e-32
0
LINE
5
294
100
AcDbEntity
8
0
100
AcDbLine
10
71.111727808784636
20
-95.56479702441419
30
3.6092230453871033e-32
11
71.111727808784636
21
-92.741573719710971
31
3.0584982949967076e-34
0
ARC
5
295
100
AcDbEntity
8
0
100
AcDbCircle
10
71.200116156432813
20
-92.653185372062524
30
5.4246600919162542e-47
40
0.12500000000001255
100
AcDbArc
50
45.000000000004604
51
225.00000000008751
0
LINE
5
296
100
AcDbEntity
8
0
100
AcDbLine
10
71.288504504081132
20
-92.56479702441419
30
-7.0416813591589495e-34
11
71.61172780878465
21
-92.56479702441419
31
-2.085160372860196e-33
0
LINE
5
297
100
AcDbEntity
8
0
100
AcDbLine
10
71.61172780878465
20
-92.56479702441419
30
-2.085160372860196e-33
11
71.611727808784636
21
-74.06479702441429
31
1.3975787399083513e-33
0
LINE
5
298
100
AcDbEntity
8
0
100
AcDbLine
10
71.611727808784636
20
-74.06479702441429
30
1.3975787399083513e-33
11
71.288504504080962
21
-74.064797024414446
31
-4.3333423748753578e-34
0
ARC
5
299
100
AcDbEntity
8
0
100
AcDbCircle
10
67.70774941557282
20
-71.153185372086924
30
1.5637567639266968e-46
40
0.12500000000000464
100
AcDbArc
50
44.999999999981576
51
224.99999999998619
0
LINE
5
300
100
AcDbEntity
8
0
100
AcDbLine
10
67.796137763221168
20
-71.064797024438633
30
2.3472271196812202e-34
11
68.119361067924672
21
-71.064797024438661
31
-2.5108742969846897e-30
0
LINE
5
301
100
AcDbEntity
8
0
100
AcDbLine
10
68.119361067924672
20
-71.064797024438661
30
-2.5108742969846897e-30
11
68.119361067927386
21
-52.56479702443886
31
1.1741962799384648e-30
0
LINE
5
302
100
AcDbEntity
8
0
100
AcDbLine
10
68.119361067927386
20
-52.56479702443886
30
1.1741962799384648e-30
11
67.796137763223882
21
-52.564797024438832
31
9.8564952853904274e-24
0
ARC
5
303
100
AcDbEntity
8
0
100
AcDbCircle
10
67.707749415575577
20
-52.476408676790498
30
-7.3810396781380688e-47
40
0.12499999999998883
100
AcDbArc
50
225.00000000003223
51
314.99999999999079
0
ARC
5
304
100
AcDbEntity
8
0
100
AcDbCircle
10
67.707749415575577
20
-52.476408676790498
30
-7.3810396781380688e-47
40
0.12500000000001255
100
AcDbArc
50
134.99999999990101
51
225.00000000003223
0
LINE
5
305
100
AcDbEntity
8
0
100
AcDbLine
10
67.6193610679274
20
-52.388020329142016
30
-3.8638969509186935e-33
11
67.619361067927827
21
-49.564797024438825
31
1.7937531838153666e-31
0
LINE
5
306
100
AcDbEntity
8
0
100
AcDbLine
10
67.619361067927827
20
-49.564797024438825
30
1.7937531838153666e-31
11
65.663361067936094
21
-49.564797024438533
31
-1.1783051706999072e-31
0
LINE
5
307
100
AcDbEntity
8
0
100
AcDbLine
10
65.663361067936094
20
-49.564797024438533
30
-1.1783051706999072e-31
11
65.66336106792933
21
-95.56479702443805
31
2.7824266879667954e-32
0
LINE
5
308
100
AcDbEntity
8
0
100
AcDbLine
10
65.66336106792933
20
-95.56479702443805
30
2.7824266879667954e-32
11
67.619361067921076
21
-95.564797024438349
31
1.1601074074458545e-31
0
LINE
5
309
100
AcDbEntity
8
0
100
AcDbLine
10
67.619361067921076
20
-95.564797024438349
30
1.1601074074458545e-31
11
67.619361067921488
21
-92.741573719735143
31
-3.2089061748181371e-33
0
ARC
5
310
100
AcDbEntity
8
0
100
AcDbCircle
10
67.707749415569694
20
-92.653185372086725
30
-5.5384735687050619e-46
40
0.12500000000000464
100
AcDbArc
50
44.999999999995396
51
225.00000000006906
0
LINE
5
311
100
AcDbEntity
8
0
100
AcDbLine
10
67.796137763218027
20
-92.564797024438406
30
4.7787136745147941e-33
11
68.119361067921503
21
-92.564797024438448
31
-3.1732349674254259e-32
0
LINE
5
312
100
AcDbEntity
8
0
100
AcDbLine
10
68.119361067921503
20
-92.564797024438448
30
-3.1732349674254259e-32
11
68.119361067924231
21
-74.064797024438633
31
1.176622648372339e-30
0
LINE
5
313
100
AcDbEntity
8
0
100
AcDbLine
10
68.119361067924231
20
-74.064797024438633
30
1.176622648372339e-30
11
67.796137763220713
21
-74.06479702443859
31
2.6273020698038471e-32
0
ARC
5
314
100
AcDbEntity
8
0
100
AcDbCircle
10
67.707749415572408
20
-73.976408676790271
30
4.9997115484030133e-46
40
0.12499999999998883
100
AcDbArc
50
134.99999999988486
51
314.9999999999954
0
LINE
5
315
100
AcDbEntity
8
0
100
AcDbLine
10
67.619361067924274
20
-73.888020329141781
30
-1.4324103961439073e-33
11
67.619361067924473
21
-71.241573719735229
31
-2.3472271196780898e-34
0
ENDSEC
0
SECTION
2
OBJECTS
0
DICTIONARY
5
C
100
AcDbDictionary
3
ACAD_GROUP
350
D
3
ACAD_MLINESTYLE
350
17
0
DICTIONARY
5
D
100
AcDbDictionary
0
DICTIONARY
5
1A
330
C
100
AcDbDictionary
0
DICTIONARY
5
17
100
AcDbDictionary
0
ENDSEC
0
EOF
