0
SECTION
2
HEADER
9
$INSUNITS
70
4
9
$ACADVER
1
AC1014
9
$HANDSEED
5
FFFF
0
ENDSEC
0
SECTION
2
TABLES
0
TABLE
2
VPORT
5
8
100
AcDbSymbolTable
0
ENDTAB
0
TABLE
2
LTYPE
5
5
100
AcDbSymbolTable
0
LTYPE
5
14
100
AcDbSymbolTableRecord
100
AcDbLinetypeTableRecord
2
BYBLOCK
70
0
0
LTYPE
5
15
100
AcDbSymbolTableRecord
100
AcDbLinetypeTableRecord
2
BYLAYER
70
0
0
ENDTAB
0
TABLE
2
LAYER
5
2
100
AcDbSymbolTable
70
2
0
LAYER
5
50
100
AcDbSymbolTableRecord
100
AcDbLayerTableRecord
2
0
70
0
6
CONTINUOUS
0
ENDTAB
0
TABLE
2
STYLE
5
3
100
AcDbSymbolTable
70
1
0
STYLE
5
11
100
AcDbSymbolTableRecord
100
AcDbTextStyleTableRecord
2
STANDARD
70
0
0
ENDTAB
0
TABLE
2
VIEW
5
6
100
AcDbSymbolTable
70
0
0
ENDTAB
0
TABLE
2
UCS
5
7
100
AcDbSymbolTable
70
0
0
ENDTAB
0
TABLE
2
APPID
5
9
100
AcDbSymbolTable
70
2
0
APPID
5
12
100
AcDbSymbolTableRecord
100
AcDbRegAppTableRecord
2
ACAD
70
0
0
ENDTAB
0
TABLE
2
DIMSTYLE
5
A
100
AcDbSymbolTable
70
1
0
ENDTAB
0
TABLE
2
BLOCK_RECORD
5
1
100
AcDbSymbolTable
70
1
0
BLOCK_RECORD
5
1F
100
AcDbSymbolTableRecord
100
AcDbBlockTableRecord
2
*MODEL_SPACE
0
BLOCK_RECORD
5
1B
100
AcDbSymbolTableRecord
100
AcDbBlockTableRecord
2
*PAPER_SPACE
0
ENDTAB
0
ENDSEC
0
SECTION
2
BLOCKS
0
BLOCK
5
20
100
AcDbEntity
100
AcDbBlockBegin
2
*MODEL_SPACE
0
ENDBLK
5
21
100
AcDbEntity
100
AcDbBlockEnd
0
BLOCK
5
1C
100
AcDbEntity
100
AcDbBlockBegin
2
*PAPER_SPACE
0
ENDBLK
5
1D
100
AcDbEntity
100
AcDbBlockEnd
0
ENDSEC
0
SECTION
2
ENTITIES
0
CIRCLE
5
100
100
AcDbEntity
8
0
100
AcDbCircle
10
0
20
0
30
0
40
67.5
0
CIRCLE
5
101
100
AcDbEntity
8
0
100
AcDbCircle
10
0
20
-5.500000074505806
30
0
40
0.97500000000000009
0
CIRCLE
5
102
100
AcDbEntity
8
0
100
AcDbCircle
10
-4.7631397853383319
20
2.7500000372529056
30
0
40
0.97500000000000009
0
CIRCLE
5
103
100
AcDbEntity
8
0
100
AcDbCircle
10
4.7631397853383337
20
2.7500000372529021
30
0
40
0.97500000000000009
0
CIRCLE
5
104
100
AcDbEntity
8
0
100
AcDbCircle
10
0
20
0
30
0
40
2.4750000000000001
0
LINE
5
105
100
AcDbEntity
8
0
100
AcDbLine
10
-5.2494629742969376
20
14.624787304311376
30
0
11
-5.2074786404764195
21
57.294233489448203
31
0
0
LINE
5
106
100
AcDbEntity
8
0
100
AcDbLine
10
-5.2074786404764373
20
60.294233489448175
30
0
11
-5.2074786404764195
21
57.294233489448203
31
0
0
ARC
5
107
100
AcDbEntity
8
0
100
AcDbCircle
10
-4.2074786404764453
20
60.294233489448182
30
0
40
0.99999999999999378
100
AcDbArc
50
89.999999999998991
51
180
0
LINE
5
108
100
AcDbEntity
8
0
100
AcDbLine
10
4.2925213595236045
20
61.294233489448196
30
0
11
-4.2074786404764275
21
61.294233489448175
31
0
0
ARC
5
109
100
AcDbEntity
8
0
100
AcDbCircle
10
4.2925213595236
20
60.294233489448203
30
0
40
0.99999999999999201
100
AcDbArc
50
0
51
89.999999999999744
0
LINE
5
110
100
AcDbEntity
8
0
100
AcDbLine
10
5.2925213595235876
20
57.294233489448203
30
0
11
5.292521359523592
21
60.29423348944821
31
0
0
LINE
5
111
100
AcDbEntity
8
0
100
AcDbLine
10
5.2925213595235876
20
57.294233489448203
30
0
11
5.2497808650233075
21
13.856287378362635
31
0
0
LINE
5
112
100
AcDbEntity
8
0
100
AcDbLine
10
9.4216698889271306
20
11.447646127382519
30
0
11
5.1905089424491777
21
13.890508038816193
31
0
0
ARC
5
113
100
AcDbEntity
8
0
100
AcDbCircle
10
12.62750041887551
20
7.2898706621614302
30
0
40
5.2501853496751494
100
AcDbArc
50
119.51855408664824
51
127.63382770419086
0
LINE
5
114
100
AcDbEntity
8
0
100
AcDbLine
10
49.520950359769635
20
34.608588872213708
30
0
11
46.922874148416355
21
33.108588872213701
31
0
0
ARC
5
115
100
AcDbEntity
8
0
100
AcDbCircle
10
50.020950359769628
20
33.74256346842926
30
0
40
1.0000000000000093
100
AcDbArc
50
29.999999999999368
51
119.99999999999937
0
LINE
5
116
100
AcDbEntity
8
0
100
AcDbLine
10
55.136975763554119
20
26.881347536261522
30
0
11
50.886975763554076
21
34.242563468429253
31
0
0
ARC
5
117
100
AcDbEntity
8
0
100
AcDbCircle
10
54.270950359769685
20
26.381347536261529
30
0
40
0.99999999999999512
100
AcDbArc
50
-60.00000000000054
51
29.99999999999979
0
LINE
5
118
100
AcDbEntity
8
0
100
AcDbLine
10
52.172874148416362
20
24.01532213247711
30
0
11
54.770950359769671
21
25.515322132477095
31
0
0
LINE
5
119
100
AcDbEntity
8
0
100
AcDbLine
10
52.172874148416362
20
24.01532213247711
30
0
11
15.290705843329331
21
2.7652952043860459
31
0
0
ARC
5
120
100
AcDbEntity
8
0
100
AcDbCircle
10
12.62750041887551
20
7.2898706621614302
30
0
40
5.2501853496875297
100
AcDbArc
50
209.63895325280683
51
300.48144591335182
0
ARC
5
121
100
AcDbEntity
8
0
100
AcDbCircle
10
-0.087684891457463304
20
0.055201357404882488
30
0
40
9.3791132468034846
100
AcDbArc
50
29.638953252806786
51
58.181820862638297
0
ARC
5
122
100
AcDbEntity
8
0
100
AcDbCircle
10
7.3128587300570294
20
12.665168817626267
30
0
40
5.2500000000000089
100
AcDbArc
50
237.07203439189738
51
242.11228513784269
0
ARC
5
123
100
AcDbEntity
8
0
100
AcDbCircle
10
-0.087684891457463304
20
0.055201357404882488
30
0
40
9.3791132468034828
100
AcDbArc
50
61.002498667101754
51
89.654479585910451
0
ARC
5
124
100
AcDbEntity
8
0
100
AcDbCircle
10
0.00053702570306346509
20
14.684386878862552
30
0
40
5.2503382852237879
100
AcDbArc
50
179.2368374576312
51
269.65447958591039
0
LINE
5
125
100
AcDbEntity
8
0
100
AcDbLine
10
10.040705843329327
20
11.858561944122648
30
0
11
46.922874148416355
21
33.108588872213701
31
0
0
LWPOLYLINE
5
126
100
AcDbEntity
8
0
100
AcDbPolyline
90
6
70
1
43
0.0
10
34.325201061729196
20
50.899655761435369
42
-0.41421356237309637
10
34.691226465513616
20
49.533630357650949
10
33.191226465513623
20
46.93555414629764
10
24.097959725777017
20
52.185554146297648
10
25.597959725776992
20
54.783630357650928
42
-0.41421356237309598
10
26.963985129561429
20
55.149655761435369
0
ENDSEC
0
SECTION
2
OBJECTS
0
DICTIONARY
5
C
100
AcDbDictionary
3
ACAD_GROUP
350
D
3
ACAD_MLINESTYLE
350
17
0
DICTIONARY
5
D
100
AcDbDictionary
0
DICTIONARY
5
1A
330
C
100
AcDbDictionary
0
DICTIONARY
5
17
100
AcDbDictionary
0
ENDSEC
0
EOF
