  0
SECTION
  2
HEADER
  9
$ACADVER
  1
AC1014
  9
$ACADMAINTVER
 70
     9
  9
$DWGCODEPAGE
  3
UNDEFINED
  9
$INSBASE
 10
0.0
 20
0.0
 30
0.0
  9
$EXTMIN
 10
1.000000000000000E+20
 20
1.000000000000000E+20
 30
1.000000000000000E+20
  9
$EXTMAX
 10
-1.000000000000000E+20
 20
-1.000000000000000E+20
 30
-1.000000000000000E+20
  9
$LIMMIN
 10
0.0
 20
0.0
  9
$LIMMAX
 10
12.0
 20
9.0
  9
$ORTHOMODE
 70
     0
  9
$REGENMODE
 70
     1
  9
$FILLMODE
 70
     1
  9
$QTEXTMODE
 70
     0
  9
$MIRRTEXT
 70
     1
  9
$DRAGMODE
 70
     2
  9
$LTSCALE
 40
1.0
  9
$OSMODE
 70
    37
  9
$ATTMODE
 70
     1
  9
$TEXTSIZE
 40
0.2
  9
$TRACEWID
 40
0.05
  9
$TEXTSTYLE
  7
STANDARD
  9
$CLAYER
  8
0
  9
$CELTYPE
  6
BYLAYER
  9
$CECOLOR
 62
   256
  9
$CELTSCALE
 40
1.0
  9
$DELOBJ
 70
     1
  9
$DISPSILH
 70
     0
  9
$DIMSCALE
 40
1.0
  9
$DIMASZ
 40
0.18
  9
$DIMEXO
 40
0.0625
  9
$DIMDLI
 40
0.38
  9
$DIMRND
 40
0.0
  9
$DIMDLE
 40
0.0
  9
$DIMEXE
 40
0.18
  9
$DIMTP
 40
0.0
  9
$DIMTM
 40
0.0
  9
$DIMTXT
 40
0.18
  9
$DIMCEN
 40
0.09
  9
$DIMTSZ
 40
0.0
  9
$DIMTOL
 70
     0
  9
$DIMLIM
 70
     0
  9
$DIMTIH
 70
     1
  9
$DIMTOH
 70
     1
  9
$DIMSE1
 70
     0
  9
$DIMSE2
 70
     0
  9
$DIMTAD
 70
     0
  9
$DIMZIN
 70
     0
  9
$DIMBLK
  1

  9
$DIMASO
 70
     1
  9
$DIMSHO
 70
     1
  9
$DIMPOST
  1

  9
$DIMAPOST
  1

  9
$DIMALT
 70
     0
  9
$DIMALTD
 70
     2
  9
$DIMALTF
 40
25.4
  9
$DIMLFAC
 40
1.0
  9
$DIMTOFL
 70
     0
  9
$DIMTVP
 40
0.0
  9
$DIMTIX
 70
     0
  9
$DIMSOXD
 70
     0
  9
$DIMSAH
 70
     0
  9
$DIMBLK1
  1

  9
$DIMBLK2
  1

  9
$DIMSTYLE
  2
STANDARD
  9
$DIMCLRD
 70
     0
  9
$DIMCLRE
 70
     0
  9
$DIMCLRT
 70
     0
  9
$DIMTFAC
 40
1.0
  9
$DIMGAP
 40
0.09
  9
$DIMJUST
 70
     0
  9
$DIMSD1
 70
     0
  9
$DIMSD2
 70
     0
  9
$DIMTOLJ
 70
     1
  9
$DIMTZIN
 70
     0
  9
$DIMALTZ
 70
     0
  9
$DIMALTTZ
 70
     0
  9
$DIMFIT
 70
     3
  9
$DIMUPT
 70
     0
  9
$DIMUNIT
 70
     2
  9
$DIMDEC
 70
     4
  9
$DIMTDEC
 70
     4
  9
$DIMALTU
 70
     2
  9
$DIMALTTD
 70
     2
  9
$DIMTXSTY
  7
STANDARD
  9
$DIMAUNIT
 70
     0
  9
$LUNITS
 70
     2
  9
$LUPREC
 70
     4
  9
$SKETCHINC
 40
0.1
  9
$FILLETRAD
 40
0.5
  9
$AUNITS
 70
     0
  9
$AUPREC
 70
     0
  9
$MENU
  1
.
  9
$ELEVATION
 40
0.0
  9
$PELEVATION
 40
0.0
  9
$THICKNESS
 40
0.0
  9
$LIMCHECK
 70
     0
  9
$CHAMFERA
 40
0.5
  9
$CHAMFERB
 40
0.5
  9
$CHAMFERC
 40
1.0
  9
$CHAMFERD
 40
0.0
  9
$SKPOLY
 70
     0
  9
$TDCREATE
 40
2456908.009791655
  9
$TDUPDATE
 40
2456908.009791655
  9
$TDINDWG
 40
0.0000000116
  9
$TDUSRTIMER
 40
0.0000000116
  9
$USRTIMER
 70
     1
  9
$ANGBASE
 50
0.0
  9
$ANGDIR
 70
     0
  9
$PDMODE
 70
     0
  9
$PDSIZE
 40
0.0
  9
$PLINEWID
 40
0.0
  9
$COORDS
 70
     1
  9
$SPLFRAME
 70
     0
  9
$SPLINETYPE
 70
     6
  9
$SPLINESEGS
 70
     8
  9
$ATTDIA
 70
     0
  9
$ATTREQ
 70
     1
  9
$HANDLING
 70
     1
  9
$HANDSEED
  5
2A6
  9
$SURFTAB1
 70
     6
  9
$SURFTAB2
 70
     6
  9
$SURFTYPE
 70
     6
  9
$SURFU
 70
     6
  9
$SURFV
 70
     6
  9
$UCSNAME
  2

  9
$UCSORG
 10
0.0
 20
0.0
 30
0.0
  9
$UCSXDIR
 10
1.0
 20
0.0
 30
0.0
  9
$UCSYDIR
 10
0.0
 20
1.0
 30
0.0
  9
$PUCSNAME
  2

  9
$PUCSORG
 10
0.0
 20
0.0
 30
0.0
  9
$PUCSXDIR
 10
1.0
 20
0.0
 30
0.0
  9
$PUCSYDIR
 10
0.0
 20
1.0
 30
0.0
  9
$USERI1
 70
     0
  9
$USERI2
 70
     0
  9
$USERI3
 70
     0
  9
$USERI4
 70
     0
  9
$USERI5
 70
     0
  9
$USERR1
 40
0.0
  9
$USERR2
 40
0.0
  9
$USERR3
 40
0.0
  9
$USERR4
 40
0.0
  9
$USERR5
 40
0.0
  9
$WORLDVIEW
 70
     1
  9
$SHADEDGE
 70
     3
  9
$SHADEDIF
 70
    70
  9
$TILEMODE
 70
     1
  9
$MAXACTVP
 70
    64
  9
$PINSBASE
 10
0.0
 20
0.0
 30
0.0
  9
$PLIMCHECK
 70
     0
  9
$PEXTMIN
 10
1.000000000000000E+20
 20
1.000000000000000E+20
 30
1.000000000000000E+20
  9
$PEXTMAX
 10
-1.000000000000000E+20
 20
-1.000000000000000E+20
 30
-1.000000000000000E+20
  9
$PLIMMIN
 10
0.0
 20
0.0
  9
$PLIMMAX
 10
12.0
 20
9.0
  9
$UNITMODE
 70
     0
  9
$VISRETAIN
 70
     1
  9
$PLINEGEN
 70
     0
  9
$PSLTSCALE
 70
     1
  9
$TREEDEPTH
 70
  3020
  9
$PICKSTYLE
 70
     1
  9
$CMLSTYLE
  2
STANDARD
  9
$CMLJUST
 70
     0
  9
$CMLSCALE
 40
1.0
  9
$PROXYGRAPHICS
 70
     1
  9
$MEASUREMENT
 70
     0
  0
ENDSEC
  0
SECTION
  2
CLASSES
  0
CLASS
  1
ACDBDICTIONARYWDFLT
  2
AcDbDictionaryWithDefault
  3
ObjectDBX Classes
 90
        0
280
     0
281
     0
  0
CLASS
  1
VISUALSTYLE
  2
AcDbVisualStyle
  3
ObjectDBX Classes
 90
     4095
280
     0
281
     0
  0
CLASS
  1
MATERIAL
  2
AcDbMaterial
  3
ObjectDBX Classes
 90
     1153
280
     0
281
     0
  0
CLASS
  1
SUN
  2
AcDbSun
  3
SCENEOE
 90
     1024
280
     0
281
     0
  0
CLASS
  1
DICTIONARYVAR
  2
AcDbDictionaryVar
  3
ObjectDBX Classes
 90
        0
280
     0
281
     0
  0
CLASS
  1
XRECORD
  2
AcDbXrecord
  3
AutoCAD 2000
 90
        0
280
     0
281
     0
  0
CLASS
  1
LWPOLYLINE
  2
AcDbPolyline
  3
AutoCAD 2000
 90
        0
280
     0
281
     1
  0
CLASS
  1
HATCH
  2
AcDbHatch
  3
AutoCAD 2000
 90
        0
280
     0
281
     1
  0
CLASS
  1
ACDBPLACEHOLDER
  2
AcDbPlaceHolder
  3
ObjectDBX Classes
 90
        0
280
     0
281
     0
  0
CLASS
  1
LAYOUT
  2
AcDbLayout
  3
ObjectDBX Classes
 90
        0
280
     0
281
     0
  0
ENDSEC
  0
SECTION
  2
TABLES
  0
TABLE
  2
VPORT
  5
8
330
0
100
AcDbSymbolTable
 70
     1
  0
VPORT
  5
29
330
8
100
AcDbSymbolTableRecord
100
AcDbViewportTableRecord
  2
*ACTIVE
 70
     0
 10
0.0
 20
0.0
 11
1.0
 21
1.0
 12
0.0
 22
0.0
 13
0.0
 23
0.0
 14
0.5
 24
0.5
 15
0.5
 25
0.5
 16
0.0
 26
0.0
 36
1.0
 17
148.5000416295416
 27
-105.0007777515277
 37
0.0
 40
210.0015555030554
 41
1.414275634995294
 42
50.0
 43
0.0
 44
0.0
 50
0.0
 51
0.0
 71
     0
 72
   100
 73
     1
 74
     3
 75
     0
 76
     0
 77
     0
 78
     0
  0
ENDTAB
  0
TABLE
  2
LTYPE
  5
5
330
0
100
AcDbSymbolTable
 70
     1
  0
LTYPE
  5
14
330
5
100
AcDbSymbolTableRecord
100
AcDbLinetypeTableRecord
  2
BYBLOCK
 70
     0
  3

 72
    65
 73
     0
 40
0.0
  0
LTYPE
  5
15
330
5
100
AcDbSymbolTableRecord
100
AcDbLinetypeTableRecord
  2
BYLAYER
 70
     0
  3

 72
    65
 73
     0
 40
0.0
  0
LTYPE
  5
16
330
5
100
AcDbSymbolTableRecord
100
AcDbLinetypeTableRecord
  2
CONTINUOUS
 70
     0
  3
Solid line
 72
    65
 73
     0
 40
0.0
  0
ENDTAB
  0
TABLE
  2
LAYER
  5
2
330
0
100
AcDbSymbolTable
 70
     2
  0
LAYER
  5
10
330
2
100
AcDbSymbolTableRecord
100
AcDbLayerTableRecord
  2
0
 70
     0
 62
     7
  6
CONTINUOUS
  0
LAYER
  5
40
330
2
100
AcDbSymbolTableRecord
100
AcDbLayerTableRecord
  2
LAYER_1
 70
     0
 62
     7
  6
CONTINUOUS
  0
ENDTAB
  0
TABLE
  2
STYLE
  5
3
330
0
100
AcDbSymbolTable
 70
     1
  0
STYLE
  5
11
330
3
100
AcDbSymbolTableRecord
100
AcDbTextStyleTableRecord
  2
STANDARD
 70
     0
 40
0.0
 41
1.0
 50
0.0
 71
     0
 42
0.2
  3
txt
  4

  0
ENDTAB
  0
TABLE
  2
VIEW
  5
6
330
0
100
AcDbSymbolTable
 70
     0
  0
ENDTAB
  0
TABLE
  2
UCS
  5
7
330
0
100
AcDbSymbolTable
 70
     0
  0
ENDTAB
  0
TABLE
  2
APPID
  5
9
330
0
100
AcDbSymbolTable
 70
     1
  0
APPID
  5
12
330
9
100
AcDbSymbolTableRecord
100
AcDbRegAppTableRecord
  2
ACAD
 70
     0
  0
ENDTAB
  0
TABLE
  2
DIMSTYLE
  5
A
330
0
100
AcDbSymbolTable
 70
     1
  0
DIMSTYLE
105
27
330
A
100
AcDbSymbolTableRecord
100
AcDbDimStyleTableRecord
  2
STANDARD
 70
     0
  3

  4

  5

  6

  7

 40
1.0
 41
0.18
 42
0.0625
 43
0.38
 44
0.18
 45
0.0
 46
0.0
 47
0.0
 48
0.0
140
0.18
141
0.09
142
0.0
143
25.4
144
1.0
145
0.0
146
1.0
147
0.09
 71
     0
 72
     0
 73
     1
 74
     1
 75
     0
 76
     0
 77
     0
 78
     0
170
     0
171
     2
172
     0
173
     0
174
     0
175
     0
176
     0
177
     0
178
     0
270
     2
271
     4
272
     4
273
     2
274
     2
340
11
275
     0
280
     0
281
     0
282
     0
283
     1
284
     0
285
     0
286
     0
287
     3
288
     0
  0
ENDTAB
  0
TABLE
  2
BLOCK_RECORD
  5
1
330
0
100
AcDbSymbolTable
 70
    62
  0
BLOCK_RECORD
  5
1F
330
1
100
AcDbSymbolTableRecord
100
AcDbBlockTableRecord
  2
*MODEL_SPACE
  0
BLOCK_RECORD
  5
1B
330
1
100
AcDbSymbolTableRecord
100
AcDbBlockTableRecord
  2
*PAPER_SPACE
  0
BLOCK_RECORD
  5
41
330
1
100
AcDbSymbolTableRecord
100
AcDbBlockTableRecord
  2
BLOCK_2
  0
BLOCK_RECORD
  5
46
330
1
100
AcDbSymbolTableRecord
100
AcDbBlockTableRecord
  2
BLOCK_3
  0
BLOCK_RECORD
  5
4B
330
1
100
AcDbSymbolTableRecord
100
AcDbBlockTableRecord
  2
BLOCK_4
  0
BLOCK_RECORD
  5
50
330
1
100
AcDbSymbolTableRecord
100
AcDbBlockTableRecord
  2
BLOCK_5
  0
BLOCK_RECORD
  5
55
330
1
100
AcDbSymbolTableRecord
100
AcDbBlockTableRecord
  2
BLOCK_6
  0
BLOCK_RECORD
  5
5F
330
1
100
AcDbSymbolTableRecord
100
AcDbBlockTableRecord
  2
BLOCK_7
  0
BLOCK_RECORD
  5
67
330
1
100
AcDbSymbolTableRecord
100
AcDbBlockTableRecord
  2
BLOCK_8
  0
BLOCK_RECORD
  5
6F
330
1
100
AcDbSymbolTableRecord
100
AcDbBlockTableRecord
  2
BLOCK_9
  0
BLOCK_RECORD
  5
77
330
1
100
AcDbSymbolTableRecord
100
AcDbBlockTableRecord
  2
BLOCK_10
  0
BLOCK_RECORD
  5
7F
330
1
100
AcDbSymbolTableRecord
100
AcDbBlockTableRecord
  2
BLOCK_11
  0
BLOCK_RECORD
  5
87
330
1
100
AcDbSymbolTableRecord
100
AcDbBlockTableRecord
  2
BLOCK_12
  0
BLOCK_RECORD
  5
8F
330
1
100
AcDbSymbolTableRecord
100
AcDbBlockTableRecord
  2
BLOCK_13
  0
BLOCK_RECORD
  5
97
330
1
100
AcDbSymbolTableRecord
100
AcDbBlockTableRecord
  2
BLOCK_14
  0
BLOCK_RECORD
  5
9F
330
1
100
AcDbSymbolTableRecord
100
AcDbBlockTableRecord
  2
BLOCK_15
  0
BLOCK_RECORD
  5
A7
330
1
100
AcDbSymbolTableRecord
100
AcDbBlockTableRecord
  2
BLOCK_16
  0
BLOCK_RECORD
  5
AF
330
1
100
AcDbSymbolTableRecord
100
AcDbBlockTableRecord
  2
BLOCK_17
  0
BLOCK_RECORD
  5
B7
330
1
100
AcDbSymbolTableRecord
100
AcDbBlockTableRecord
  2
BLOCK_18
  0
BLOCK_RECORD
  5
C1
330
1
100
AcDbSymbolTableRecord
100
AcDbBlockTableRecord
  2
BLOCK_19
  0
BLOCK_RECORD
  5
C5
330
1
100
AcDbSymbolTableRecord
100
AcDbBlockTableRecord
  2
BLOCK_20
  0
BLOCK_RECORD
  5
CD
330
1
100
AcDbSymbolTableRecord
100
AcDbBlockTableRecord
  2
BLOCK_21
  0
BLOCK_RECORD
  5
D5
330
1
100
AcDbSymbolTableRecord
100
AcDbBlockTableRecord
  2
BLOCK_22
  0
BLOCK_RECORD
  5
DD
330
1
100
AcDbSymbolTableRecord
100
AcDbBlockTableRecord
  2
BLOCK_23
  0
BLOCK_RECORD
  5
E5
330
1
100
AcDbSymbolTableRecord
100
AcDbBlockTableRecord
  2
BLOCK_24
  0
BLOCK_RECORD
  5
ED
330
1
100
AcDbSymbolTableRecord
100
AcDbBlockTableRecord
  2
BLOCK_25
  0
BLOCK_RECORD
  5
F5
330
1
100
AcDbSymbolTableRecord
100
AcDbBlockTableRecord
  2
BLOCK_26
  0
BLOCK_RECORD
  5
FF
330
1
100
AcDbSymbolTableRecord
100
AcDbBlockTableRecord
  2
BLOCK_27
  0
BLOCK_RECORD
  5
109
330
1
100
AcDbSymbolTableRecord
100
AcDbBlockTableRecord
  2
BLOCK_28
  0
BLOCK_RECORD
  5
110
330
1
100
AcDbSymbolTableRecord
100
AcDbBlockTableRecord
  2
BLOCK_29
  0
BLOCK_RECORD
  5
115
330
1
100
AcDbSymbolTableRecord
100
AcDbBlockTableRecord
  2
BLOCK_30
  0
BLOCK_RECORD
  5
11D
330
1
100
AcDbSymbolTableRecord
100
AcDbBlockTableRecord
  2
BLOCK_31
  0
BLOCK_RECORD
  5
122
330
1
100
AcDbSymbolTableRecord
100
AcDbBlockTableRecord
  2
BLOCK_32
  0
BLOCK_RECORD
  5
15F
330
1
100
AcDbSymbolTableRecord
100
AcDbBlockTableRecord
  2
BLOCK_33
  0
BLOCK_RECORD
  5
164
330
1
100
AcDbSymbolTableRecord
100
AcDbBlockTableRecord
  2
BLOCK_34
  0
BLOCK_RECORD
  5
169
330
1
100
AcDbSymbolTableRecord
100
AcDbBlockTableRecord
  2
BLOCK_35
  0
BLOCK_RECORD
  5
16E
330
1
100
AcDbSymbolTableRecord
100
AcDbBlockTableRecord
  2
BLOCK_36
  0
BLOCK_RECORD
  5
173
330
1
100
AcDbSymbolTableRecord
100
AcDbBlockTableRecord
  2
BLOCK_37
  0
BLOCK_RECORD
  5
17D
330
1
100
AcDbSymbolTableRecord
100
AcDbBlockTableRecord
  2
BLOCK_38
  0
BLOCK_RECORD
  5
185
330
1
100
AcDbSymbolTableRecord
100
AcDbBlockTableRecord
  2
BLOCK_39
  0
BLOCK_RECORD
  5
18D
330
1
100
AcDbSymbolTableRecord
100
AcDbBlockTableRecord
  2
BLOCK_40
  0
BLOCK_RECORD
  5
195
330
1
100
AcDbSymbolTableRecord
100
AcDbBlockTableRecord
  2
BLOCK_41
  0
BLOCK_RECORD
  5
19D
330
1
100
AcDbSymbolTableRecord
100
AcDbBlockTableRecord
  2
BLOCK_42
  0
BLOCK_RECORD
  5
1A5
330
1
100
AcDbSymbolTableRecord
100
AcDbBlockTableRecord
  2
BLOCK_43
  0
BLOCK_RECORD
  5
1AD
330
1
100
AcDbSymbolTableRecord
100
AcDbBlockTableRecord
  2
BLOCK_44
  0
BLOCK_RECORD
  5
1B5
330
1
100
AcDbSymbolTableRecord
100
AcDbBlockTableRecord
  2
BLOCK_45
  0
BLOCK_RECORD
  5
1BD
330
1
100
AcDbSymbolTableRecord
100
AcDbBlockTableRecord
  2
BLOCK_46
  0
BLOCK_RECORD
  5
1C5
330
1
100
AcDbSymbolTableRecord
100
AcDbBlockTableRecord
  2
BLOCK_47
  0
BLOCK_RECORD
  5
1CD
330
1
100
AcDbSymbolTableRecord
100
AcDbBlockTableRecord
  2
BLOCK_48
  0
BLOCK_RECORD
  5
1D5
330
1
100
AcDbSymbolTableRecord
100
AcDbBlockTableRecord
  2
BLOCK_49
  0
BLOCK_RECORD
  5
1DF
330
1
100
AcDbSymbolTableRecord
100
AcDbBlockTableRecord
  2
BLOCK_50
  0
BLOCK_RECORD
  5
1E7
330
1
100
AcDbSymbolTableRecord
100
AcDbBlockTableRecord
  2
BLOCK_51
  0
BLOCK_RECORD
  5
1EF
330
1
100
AcDbSymbolTableRecord
100
AcDbBlockTableRecord
  2
BLOCK_52
  0
BLOCK_RECORD
  5
1F7
330
1
100
AcDbSymbolTableRecord
100
AcDbBlockTableRecord
  2
BLOCK_53
  0
BLOCK_RECORD
  5
1FF
330
1
100
AcDbSymbolTableRecord
100
AcDbBlockTableRecord
  2
BLOCK_54
  0
BLOCK_RECORD
  5
207
330
1
100
AcDbSymbolTableRecord
100
AcDbBlockTableRecord
  2
BLOCK_55
  0
BLOCK_RECORD
  5
20F
330
1
100
AcDbSymbolTableRecord
100
AcDbBlockTableRecord
  2
BLOCK_56
  0
BLOCK_RECORD
  5
219
330
1
100
AcDbSymbolTableRecord
100
AcDbBlockTableRecord
  2
BLOCK_57
  0
BLOCK_RECORD
  5
223
330
1
100
AcDbSymbolTableRecord
100
AcDbBlockTableRecord
  2
BLOCK_58
  0
BLOCK_RECORD
  5
22A
330
1
100
AcDbSymbolTableRecord
100
AcDbBlockTableRecord
  2
BLOCK_59
  0
BLOCK_RECORD
  5
22F
330
1
100
AcDbSymbolTableRecord
100
AcDbBlockTableRecord
  2
BLOCK_60
  0
BLOCK_RECORD
  5
237
330
1
100
AcDbSymbolTableRecord
100
AcDbBlockTableRecord
  2
BLOCK_61
  0
BLOCK_RECORD
  5
23C
330
1
100
AcDbSymbolTableRecord
100
AcDbBlockTableRecord
  2
BLOCK_62
  0
ENDTAB
  0
ENDSEC
  0
SECTION
  2
BLOCKS
  0
BLOCK
  5
20
330
1F
100
AcDbEntity
  8
0
100
AcDbBlockBegin
  2
*MODEL_SPACE
 70
     0
 10
0.0
 20
0.0
 30
0.0
  3
*MODEL_SPACE
  1

  0
ENDBLK
  5
21
330
1F
100
AcDbEntity
  8
0
100
AcDbBlockEnd
  0
BLOCK
  5
1C
330
1B
100
AcDbEntity
 67
     1
  8
0
100
AcDbBlockBegin
  2
*PAPER_SPACE
 70
     0
 10
0.0
 20
0.0
 30
0.0
  3
*PAPER_SPACE
  1

  0
ENDBLK
  5
1D
330
1B
100
AcDbEntity
 67
     1
  8
0
100
AcDbBlockEnd
  0
BLOCK
  5
43
330
41
100
AcDbEntity
  8
0
100
AcDbBlockBegin
  2
BLOCK_2
 70
     0
 10
0.0
 20
0.0
 30
0.0
  3
BLOCK_2
  1

  0
SPLINE
  5
45
330
41
100
AcDbEntity
  8
LAYER_1
 62
     7
100
AcDbSpline
210
0.0
220
0.0
230
1.0
 70
    11
 71
     3
 72
    23
 73
    19
 74
     0
 42
0.0000000001
 43
0.0000000001
 12
1.0
 22
0.0
 32
0.0
 13
1.0
 23
0.0
 33
0.0
 40
0.0
 40
0.0
 40
0.0
 40
0.0
 40
1.0
 40
1.0
 40
1.0
 40
2.0
 40
2.0
 40
2.0
 40
3.0
 40
3.0
 40
3.0
 40
4.0
 40
4.0
 40
4.0
 40
5.0
 40
5.0
 40
5.0
 40
6.0
 40
6.0
 40
6.0
 40
6.0
 10
103.7304312934117
 20
-129.525038549607
 30
0.0
 10
102.9244942681289
 20
-129.4901569578105
 30
0.0
 10
102.2552844699523
 20
-128.975976456508
 30
0.0
 10
101.9773083279169
 20
-128.2710237926629
 30
0.0
 10
101.9773083279169
 20
-128.2710237926629
 30
0.0
 10
99.99271800944845
 20
-128.1844657685748
 30
0.0
 10
99.99271800944845
 20
-128.1844657685748
 30
0.0
 10
100.2853358073
 20
-129.9543835745634
 30
0.0
 10
101.7835217068228
 20
-131.339742596916
 30
0.0
 10
103.6475336832766
 20
-131.4211329777756
 30
0.0
 10
105.5113303412627
 20
-131.5025233586351
 30
0.0
 10
107.1244963026339
 20
-130.2532456079832
 30
0.0
 10
107.5702055311498
 20
-128.5151949352409
 30
0.0
 10
107.5702055311498
 20
-128.5151949352409
 30
0.0
 10
105.585615212682
 20
-128.4286369111522
 30
0.0
 10
105.585615212682
 20
-128.4286369111522
 30
0.0
 10
105.247780536575
 20
-129.1064594480445
 30
0.0
 10
104.5361530002253
 20
-129.5603507783391
 30
0.0
 10
103.7304312934117
 20
-129.525038549607
 30
0.0
  0
ENDBLK
  5
44
330
41
100
AcDbEntity
  8
0
100
AcDbBlockEnd
  0
BLOCK
  5
48
330
46
100
AcDbEntity
  8
0
100
AcDbBlockBegin
  2
BLOCK_3
 70
     0
 10
0.0
 20
0.0
 30
0.0
  3
BLOCK_3
  1

  0
SPLINE
  5
4A
330
46
100
AcDbEntity
  8
LAYER_1
 62
     7
100
AcDbSpline
210
0.0
220
0.0
230
1.0
 70
    11
 71
     3
 72
    23
 73
    19
 74
     0
 42
0.0000000001
 43
0.0000000001
 12
1.0
 22
0.0
 32
0.0
 13
1.0
 23
0.0
 33
0.0
 40
0.0
 40
0.0
 40
0.0
 40
0.0
 40
1.0
 40
1.0
 40
1.0
 40
2.0
 40
2.0
 40
2.0
 40
3.0
 40
3.0
 40
3.0
 40
4.0
 40
4.0
 40
4.0
 40
5.0
 40
5.0
 40
5.0
 40
6.0
 40
6.0
 40
6.0
 40
6.0
 10
73.22192726026272
 20
-126.9964895981701
 30
0.0
 10
73.22192726026272
 20
-126.9964895981701
 30
0.0
 10
71.23733694179495
 20
-126.9099315740814
 30
0.0
 10
71.23733694179495
 20
-126.9099315740814
 30
0.0
 10
71.52995473964586
 20
-128.6798493800713
 30
0.0
 10
73.02814063916864
 20
-130.0652084024239
 30
0.0
 10
74.89172197868685
 20
-130.1465987832828
 30
0.0
 10
76.75594927360918
 20
-130.227989164143
 30
0.0
 10
78.36911523498041
 20
-128.9787114134912
 30
0.0
 10
78.81482446349627
 20
-127.2406607407482
 30
0.0
 10
78.81482446349627
 20
-127.2406607407482
 30
0.0
 10
76.83023414502848
 20
-127.1541027166595
 30
0.0
 10
76.83023414502848
 20
-127.1541027166595
 30
0.0
 10
76.49196883198582
 20
-127.8319252535524
 30
0.0
 10
75.78034129563615
 20
-128.285816583847
 30
0.0
 10
74.97461958882185
 20
-128.2505043551149
 30
0.0
 10
74.16868256353972
 20
-128.2156227633177
 30
0.0
 10
73.49947276536246
 20
-127.7014422620159
 30
0.0
 10
73.22192726026272
 20
-126.9964895981701
 30
0.0
  0
ENDBLK
  5
49
330
46
100
AcDbEntity
  8
0
100
AcDbBlockEnd
  0
BLOCK
  5
4D
330
4B
100
AcDbEntity
  8
0
100
AcDbBlockBegin
  2
BLOCK_4
 70
     0
 10
0.0
 20
0.0
 30
0.0
  3
BLOCK_4
  1

  0
SPLINE
  5
4F
330
4B
100
AcDbEntity
  8
LAYER_1
 62
     7
100
AcDbSpline
210
0.0
220
0.0
230
1.0
 70
    11
 71
     3
 72
    23
 73
    19
 74
     0
 42
0.0000000001
 43
0.0000000001
 12
1.0
 22
0.0
 32
0.0
 13
1.0
 23
0.0
 33
0.0
 40
0.0
 40
0.0
 40
0.0
 40
0.0
 40
1.0
 40
1.0
 40
1.0
 40
2.0
 40
2.0
 40
2.0
 40
3.0
 40
3.0
 40
3.0
 40
4.0
 40
4.0
 40
4.0
 40
5.0
 40
5.0
 40
5.0
 40
6.0
 40
6.0
 40
6.0
 40
6.0
 10
76.87157529086176
 20
-125.3772947196985
 30
0.0
 10
76.87157529086176
 20
-125.3772947196985
 30
0.0
 10
78.84346181972445
 20
-125.4634221068509
 30
0.0
 10
78.84346181972445
 20
-125.4634221068509
 30
0.0
 10
78.55321252501965
 20
-123.693504300861
 30
0.0
 10
77.06514659348736
 20
-122.308575915444
 30
0.0
 10
75.21340776970291
 20
-122.2276161715208
 30
0.0
 10
73.36123830898215
 20
-122.1466564275975
 30
0.0
 10
71.75819231560142
 20
-123.3967954521194
 30
0.0
 10
71.31485159023232
 20
-125.134846124863
 30
0.0
 10
71.31485159023232
 20
-125.134846124863
 30
0.0
 10
73.2865228006272
 20
-125.2209735120161
 30
0.0
 10
73.2865228006272
 20
-125.2209735120161
 30
0.0
 10
73.62285024745877
 20
-124.5427203381881
 30
0.0
 10
74.3299560959834
 20
-124.0888290078922
 30
0.0
 10
75.13072547803638
 20
-124.1237105996894
 30
0.0
 10
75.93127954162152
 20
-124.1585921914865
 30
0.0
 10
76.5961829704403
 20
-124.6727726927884
 30
0.0
 10
76.87157529086176
 20
-125.3772947196985
 30
0.0
  0
ENDBLK
  5
4E
330
4B
100
AcDbEntity
  8
0
100
AcDbBlockEnd
  0
BLOCK
  5
52
330
50
100
AcDbEntity
  8
0
100
AcDbBlockBegin
  2
BLOCK_5
 70
     0
 10
0.0
 20
0.0
 30
0.0
  3
BLOCK_5
  1

  0
SPLINE
  5
54
330
50
100
AcDbEntity
  8
LAYER_1
 62
     7
100
AcDbSpline
210
0.0
220
0.0
230
1.0
 70
    11
 71
     3
 72
    23
 73
    19
 74
     0
 42
0.0000000001
 43
0.0000000001
 12
1.0
 22
0.0
 32
0.0
 13
1.0
 23
0.0
 33
0.0
 40
0.0
 40
0.0
 40
0.0
 40
0.0
 40
1.0
 40
1.0
 40
1.0
 40
2.0
 40
2.0
 40
2.0
 40
3.0
 40
3.0
 40
3.0
 40
4.0
 40
4.0
 40
4.0
 40
5.0
 40
5.0
 40
5.0
 40
6.0
 40
6.0
 40
6.0
 40
6.0
 10
105.6273869954509
 20
-126.6518289141905
 30
0.0
 10
105.6273869954509
 20
-126.6518289141905
 30
0.0
 10
107.5992735243143
 20
-126.7379563013436
 30
0.0
 10
107.5992735243143
 20
-126.7379563013436
 30
0.0
 10
107.3090242296088
 20
-124.9680384953537
 30
0.0
 10
105.8209582980772
 20
-123.5831101099374
 30
0.0
 10
103.9692194742921
 20
-123.5021503660129
 30
0.0
 10
102.117050013572
 20
-123.4211906220896
 30
0.0
 10
100.5140040201912
 20
-124.6713296466128
 30
0.0
 10
100.0706632948215
 20
-126.4093803193551
 30
0.0
 10
100.0706632948215
 20
-126.4093803193551
 30
0.0
 10
102.0423345052163
 20
-126.4955077065082
 30
0.0
 10
102.0423345052163
 20
-126.4955077065082
 30
0.0
 10
102.3786619520486
 20
-125.8172545326802
 30
0.0
 10
103.0857678005726
 20
-125.363363202385
 30
0.0
 10
103.8865371826255
 20
-125.3982447941815
 30
0.0
 10
104.6870912462107
 20
-125.4331263859786
 30
0.0
 10
105.3519946750301
 20
-125.9473068872805
 30
0.0
 10
105.6273869954509
 20
-126.6518289141905
 30
0.0
  0
ENDBLK
  5
53
330
50
100
AcDbEntity
  8
0
100
AcDbBlockEnd
  0
BLOCK
  5
57
330
55
100
AcDbEntity
  8
0
100
AcDbBlockBegin
  2
BLOCK_6
 70
     0
 10
0.0
 20
0.0
 30
0.0
  3
BLOCK_6
  1

  0
POLYLINE
  5
59
330
55
100
AcDbEntity
  8
LAYER_1
 62
     7
100
AcDb2dPolyline
 66
     1
 10
0.0
 20
0.0
 30
0.0
  0
VERTEX
  5
5A
330
59
100
AcDbEntity
  8
LAYER_1
 62
     7
100
AcDbVertex
100
AcDb2dVertex
 10
68.79007930192465
 20
-110.6174596770317
 30
0.0
  0
VERTEX
  5
5B
330
59
100
AcDbEntity
  8
LAYER_1
 62
     7
100
AcDbVertex
100
AcDb2dVertex
 10
69.13458830192465
 20
-110.6939406770318
 30
0.0
  0
VERTEX
  5
5C
330
59
100
AcDbEntity
  8
LAYER_1
 62
     7
100
AcDbVertex
100
AcDb2dVertex
 10
63.60555530192438
 20
-134.4161796770318
 30
0.0
  0
VERTEX
  5
5D
330
59
100
AcDbEntity
  8
LAYER_1
 62
     7
100
AcDbVertex
100
AcDb2dVertex
 10
63.26121730192451
 20
-134.3400426770321
 30
0.0
  0
SEQEND
  5
5E
330
59
100
AcDbEntity
  8
LAYER_1
 62
     7
  0
ENDBLK
  5
58
330
55
100
AcDbEntity
  8
0
100
AcDbBlockEnd
  0
BLOCK
  5
61
330
5F
100
AcDbEntity
  8
0
100
AcDbBlockBegin
  2
BLOCK_7
 70
     0
 10
0.0
 20
0.0
 30
0.0
  3
BLOCK_7
  1

  0
POLYLINE
  5
63
330
5F
100
AcDbEntity
  8
LAYER_1
 62
     7
100
AcDb2dPolyline
 66
     1
 10
0.0
 20
0.0
 30
0.0
  0
VERTEX
  5
64
330
63
100
AcDbEntity
  8
LAYER_1
 62
     7
100
AcDbVertex
100
AcDb2dVertex
 10
110.6393763019244
 20
-109.8071736770317
 30
0.0
  0
VERTEX
  5
65
330
63
100
AcDbEntity
  8
LAYER_1
 62
     7
100
AcDbVertex
100
AcDb2dVertex
 10
111.1149723019245
 20
-113.1396146770321
 30
0.0
  0
SEQEND
  5
66
330
63
100
AcDbEntity
  8
LAYER_1
 62
     7
  0
ENDBLK
  5
62
330
5F
100
AcDbEntity
  8
0
100
AcDbBlockEnd
  0
BLOCK
  5
69
330
67
100
AcDbEntity
  8
0
100
AcDbBlockBegin
  2
BLOCK_8
 70
     0
 10
0.0
 20
0.0
 30
0.0
  3
BLOCK_8
  1

  0
POLYLINE
  5
6B
330
67
100
AcDbEntity
  8
LAYER_1
 62
     7
100
AcDb2dPolyline
 66
     1
 10
0.0
 20
0.0
 30
0.0
  0
VERTEX
  5
6C
330
6B
100
AcDbEntity
  8
LAYER_1
 62
     7
100
AcDbVertex
100
AcDb2dVertex
 10
120.6787293019245
 20
-180.175315677032
 30
0.0
  0
VERTEX
  5
6D
330
6B
100
AcDbEntity
  8
LAYER_1
 62
     7
100
AcDbVertex
100
AcDb2dVertex
 10
121.1543253019246
 20
-183.5077566770317
 30
0.0
  0
SEQEND
  5
6E
330
6B
100
AcDbEntity
  8
LAYER_1
 62
     7
  0
ENDBLK
  5
6A
330
67
100
AcDbEntity
  8
0
100
AcDbBlockEnd
  0
BLOCK
  5
71
330
6F
100
AcDbEntity
  8
0
100
AcDbBlockBegin
  2
BLOCK_9
 70
     0
 10
0.0
 20
0.0
 30
0.0
  3
BLOCK_9
  1

  0
POLYLINE
  5
73
330
6F
100
AcDbEntity
  8
LAYER_1
 62
     7
100
AcDb2dPolyline
 66
     1
 10
0.0
 20
0.0
 30
0.0
  0
VERTEX
  5
74
330
73
100
AcDbEntity
  8
LAYER_1
 62
     7
100
AcDbVertex
100
AcDb2dVertex
 10
118.4118563019244
 20
-164.2848126770321
 30
0.0
  0
VERTEX
  5
75
330
73
100
AcDbEntity
  8
LAYER_1
 62
     7
100
AcDbVertex
100
AcDb2dVertex
 10
118.8872793019246
 20
-167.6175986770316
 30
0.0
  0
SEQEND
  5
76
330
73
100
AcDbEntity
  8
LAYER_1
 62
     7
  0
ENDBLK
  5
72
330
6F
100
AcDbEntity
  8
0
100
AcDbBlockEnd
  0
BLOCK
  5
79
330
77
100
AcDbEntity
  8
0
100
AcDbBlockBegin
  2
BLOCK_10
 70
     0
 10
0.0
 20
0.0
 30
0.0
  3
BLOCK_10
  1

  0
POLYLINE
  5
7B
330
77
100
AcDbEntity
  8
LAYER_1
 62
     7
100
AcDb2dPolyline
 66
     1
 10
0.0
 20
0.0
 30
0.0
  0
VERTEX
  5
7C
330
7B
100
AcDbEntity
  8
LAYER_1
 62
     7
100
AcDbVertex
100
AcDb2dVertex
 10
115.6692163019246
 20
-145.0625586770319
 30
0.0
  0
VERTEX
  5
7D
330
7B
100
AcDbEntity
  8
LAYER_1
 62
     7
100
AcDbVertex
100
AcDb2dVertex
 10
116.1448113019244
 20
-148.3949986770317
 30
0.0
  0
SEQEND
  5
7E
330
7B
100
AcDbEntity
  8
LAYER_1
 62
     7
  0
ENDBLK
  5
7A
330
77
100
AcDbEntity
  8
0
100
AcDbBlockEnd
  0
BLOCK
  5
81
330
7F
100
AcDbEntity
  8
0
100
AcDbBlockBegin
  2
BLOCK_11
 70
     0
 10
0.0
 20
0.0
 30
0.0
  3
BLOCK_11
  1

  0
POLYLINE
  5
83
330
7F
100
AcDbEntity
  8
LAYER_1
 62
     7
100
AcDb2dPolyline
 66
     1
 10
0.0
 20
0.0
 30
0.0
  0
VERTEX
  5
84
330
83
100
AcDbEntity
  8
LAYER_1
 62
     7
100
AcDbVertex
100
AcDb2dVertex
 10
113.2063173019243
 20
-127.799529677032
 30
0.0
  0
VERTEX
  5
85
330
83
100
AcDbEntity
  8
LAYER_1
 62
     7
100
AcDbVertex
100
AcDb2dVertex
 10
113.6819123019244
 20
-131.1323146770321
 30
0.0
  0
SEQEND
  5
86
330
83
100
AcDbEntity
  8
LAYER_1
 62
     7
  0
ENDBLK
  5
82
330
7F
100
AcDbEntity
  8
0
100
AcDbBlockEnd
  0
BLOCK
  5
89
330
87
100
AcDbEntity
  8
0
100
AcDbBlockBegin
  2
BLOCK_12
 70
     0
 10
0.0
 20
0.0
 30
0.0
  3
BLOCK_12
  1

  0
POLYLINE
  5
8B
330
87
100
AcDbEntity
  8
LAYER_1
 62
     7
100
AcDb2dPolyline
 66
     1
 10
0.0
 20
0.0
 30
0.0
  0
VERTEX
  5
8C
330
8B
100
AcDbEntity
  8
LAYER_1
 62
     7
100
AcDbVertex
100
AcDb2dVertex
 10
234.4805683019244
 20
-163.1761816770321
 30
0.0
  0
VERTEX
  5
8D
330
8B
100
AcDbEntity
  8
LAYER_1
 62
     7
100
AcDbVertex
100
AcDb2dVertex
 10
234.0554443019245
 20
-166.124838677032
 30
0.0
  0
SEQEND
  5
8E
330
8B
100
AcDbEntity
  8
LAYER_1
 62
     7
  0
ENDBLK
  5
8A
330
87
100
AcDbEntity
  8
0
100
AcDbBlockEnd
  0
BLOCK
  5
91
330
8F
100
AcDbEntity
  8
0
100
AcDbBlockBegin
  2
BLOCK_13
 70
     0
 10
0.0
 20
0.0
 30
0.0
  3
BLOCK_13
  1

  0
POLYLINE
  5
93
330
8F
100
AcDbEntity
  8
LAYER_1
 62
     7
100
AcDb2dPolyline
 66
     1
 10
0.0
 20
0.0
 30
0.0
  0
VERTEX
  5
94
330
93
100
AcDbEntity
  8
LAYER_1
 62
     7
100
AcDbVertex
100
AcDb2dVertex
 10
232.8985803019248
 20
-174.1443316770319
 30
0.0
  0
VERTEX
  5
95
330
93
100
AcDbEntity
  8
LAYER_1
 62
     7
100
AcDbVertex
100
AcDb2dVertex
 10
232.4734563019242
 20
-177.0929886770318
 30
0.0
  0
SEQEND
  5
96
330
93
100
AcDbEntity
  8
LAYER_1
 62
     7
  0
ENDBLK
  5
92
330
8F
100
AcDbEntity
  8
0
100
AcDbBlockEnd
  0
BLOCK
  5
99
330
97
100
AcDbEntity
  8
0
100
AcDbBlockBegin
  2
BLOCK_14
 70
     0
 10
0.0
 20
0.0
 30
0.0
  3
BLOCK_14
  1

  0
POLYLINE
  5
9B
330
97
100
AcDbEntity
  8
LAYER_1
 62
     7
100
AcDb2dPolyline
 66
     1
 10
0.0
 20
0.0
 30
0.0
  0
VERTEX
  5
9C
330
9B
100
AcDbEntity
  8
LAYER_1
 62
     7
100
AcDbVertex
100
AcDb2dVertex
 10
240.7086125242347
 20
-116.141057301027
 30
0.0
  0
VERTEX
  5
9D
330
9B
100
AcDbEntity
  8
LAYER_1
 62
     7
100
AcDbVertex
100
AcDb2dVertex
 10
240.2834875242347
 20
-119.0897153010275
 30
0.0
  0
SEQEND
  5
9E
330
9B
100
AcDbEntity
  8
LAYER_1
 62
     7
  0
ENDBLK
  5
9A
330
97
100
AcDbEntity
  8
0
100
AcDbBlockEnd
  0
BLOCK
  5
A1
330
9F
100
AcDbEntity
  8
0
100
AcDbBlockBegin
  2
BLOCK_15
 70
     0
 10
0.0
 20
0.0
 30
0.0
  3
BLOCK_15
  1

  0
POLYLINE
  5
A3
330
9F
100
AcDbEntity
  8
LAYER_1
 62
     7
100
AcDb2dPolyline
 66
     1
 10
0.0
 20
0.0
 30
0.0
  0
VERTEX
  5
A4
330
A3
100
AcDbEntity
  8
LAYER_1
 62
     7
100
AcDbVertex
100
AcDb2dVertex
 10
239.0001895242347
 20
-128.3766583010273
 30
0.0
  0
VERTEX
  5
A5
330
A3
100
AcDbEntity
  8
LAYER_1
 62
     7
100
AcDbVertex
100
AcDb2dVertex
 10
238.5750645242348
 20
-131.3253163010272
 30
0.0
  0
SEQEND
  5
A6
330
A3
100
AcDbEntity
  8
LAYER_1
 62
     7
  0
ENDBLK
  5
A2
330
9F
100
AcDbEntity
  8
0
100
AcDbBlockEnd
  0
BLOCK
  5
A9
330
A7
100
AcDbEntity
  8
0
100
AcDbBlockBegin
  2
BLOCK_16
 70
     0
 10
0.0
 20
0.0
 30
0.0
  3
BLOCK_16
  1

  0
POLYLINE
  5
AB
330
A7
100
AcDbEntity
  8
LAYER_1
 62
     7
100
AcDb2dPolyline
 66
     1
 10
0.0
 20
0.0
 30
0.0
  0
VERTEX
  5
AC
330
AB
100
AcDbEntity
  8
LAYER_1
 62
     7
100
AcDbVertex
100
AcDb2dVertex
 10
62.40890130192464
 20
-139.5510946770316
 30
0.0
  0
VERTEX
  5
AD
330
AB
100
AcDbEntity
  8
LAYER_1
 62
     7
100
AcDbVertex
100
AcDb2dVertex
 10
61.57260430192438
 20
-143.1391616770317
 30
0.0
  0
SEQEND
  5
AE
330
AB
100
AcDbEntity
  8
LAYER_1
 62
     7
  0
ENDBLK
  5
AA
330
A7
100
AcDbEntity
  8
0
100
AcDbBlockEnd
  0
BLOCK
  5
B1
330
AF
100
AcDbEntity
  8
0
100
AcDbBlockBegin
  2
BLOCK_17
 70
     0
 10
0.0
 20
0.0
 30
0.0
  3
BLOCK_17
  1

  0
POLYLINE
  5
B3
330
AF
100
AcDbEntity
  8
LAYER_1
 62
     7
100
AcDb2dPolyline
 66
     1
 10
0.0
 20
0.0
 30
0.0
  0
VERTEX
  5
B4
330
B3
100
AcDbEntity
  8
LAYER_1
 62
     7
100
AcDbVertex
100
AcDb2dVertex
 10
60.66034330192461
 20
-147.053134677032
 30
0.0
  0
VERTEX
  5
B5
330
B3
100
AcDbEntity
  8
LAYER_1
 62
     7
100
AcDbVertex
100
AcDb2dVertex
 10
59.82404630192433
 20
-150.6412016770321
 30
0.0
  0
SEQEND
  5
B6
330
B3
100
AcDbEntity
  8
LAYER_1
 62
     7
  0
ENDBLK
  5
B2
330
AF
100
AcDbEntity
  8
0
100
AcDbBlockEnd
  0
BLOCK
  5
B9
330
B7
100
AcDbEntity
  8
0
100
AcDbBlockBegin
  2
BLOCK_18
 70
     0
 10
0.0
 20
0.0
 30
0.0
  3
BLOCK_18
  1

  0
POLYLINE
  5
BB
330
B7
100
AcDbEntity
  8
LAYER_1
 62
     7
100
AcDb2dPolyline
 66
     1
 10
0.0
 20
0.0
 30
0.0
  0
VERTEX
  5
BC
330
BB
100
AcDbEntity
  8
LAYER_1
 62
     7
100
AcDbVertex
100
AcDb2dVertex
 10
58.01433730192438
 20
-156.8516746770321
 30
0.0
  0
VERTEX
  5
BD
330
BB
100
AcDbEntity
  8
LAYER_1
 62
     7
100
AcDbVertex
100
AcDb2dVertex
 10
58.35884730192442
 20
-156.9281556770321
 30
0.0
  0
VERTEX
  5
BE
330
BB
100
AcDbEntity
  8
LAYER_1
 62
     7
100
AcDbVertex
100
AcDb2dVertex
 10
53.4790413019244
 20
-177.8646906770321
 30
0.0
  0
VERTEX
  5
BF
330
BB
100
AcDbEntity
  8
LAYER_1
 62
     7
100
AcDbVertex
100
AcDb2dVertex
 10
53.1345323019244
 20
-177.788209677032
 30
0.0
  0
SEQEND
  5
C0
330
BB
100
AcDbEntity
  8
LAYER_1
 62
     7
  0
ENDBLK
  5
BA
330
B7
100
AcDbEntity
  8
0
100
AcDbBlockEnd
  0
BLOCK
  5
C3
330
C1
100
AcDbEntity
  8
0
100
AcDbBlockBegin
  2
BLOCK_19
 70
     0
 10
0.0
 20
0.0
 30
0.0
  3
BLOCK_19
  1

  0
ENDBLK
  5
C4
330
C1
100
AcDbEntity
  8
0
100
AcDbBlockEnd
  0
BLOCK
  5
C7
330
C5
100
AcDbEntity
  8
0
100
AcDbBlockBegin
  2
BLOCK_20
 70
     0
 10
0.0
 20
0.0
 30
0.0
  3
BLOCK_20
  1

  0
POLYLINE
  5
C9
330
C5
100
AcDbEntity
  8
LAYER_1
 62
     7
100
AcDb2dPolyline
 66
     1
 10
0.0
 20
0.0
 30
0.0
  0
VERTEX
  5
CA
330
C9
100
AcDbEntity
  8
LAYER_1
 62
     7
100
AcDbVertex
100
AcDb2dVertex
 10
161.5923393019247
 20
-149.6903546770315
 30
0.0
  0
VERTEX
  5
CB
330
C9
100
AcDbEntity
  8
LAYER_1
 62
     7
100
AcDbVertex
100
AcDb2dVertex
 10
161.5782143019245
 20
-151.689199677032
 30
0.0
  0
SEQEND
  5
CC
330
C9
100
AcDbEntity
  8
LAYER_1
 62
     7
  0
ENDBLK
  5
C8
330
C5
100
AcDbEntity
  8
0
100
AcDbBlockEnd
  0
BLOCK
  5
CF
330
CD
100
AcDbEntity
  8
0
100
AcDbBlockBegin
  2
BLOCK_21
 70
     0
 10
0.0
 20
0.0
 30
0.0
  3
BLOCK_21
  1

  0
POLYLINE
  5
D1
330
CD
100
AcDbEntity
  8
LAYER_1
 62
     7
100
AcDb2dPolyline
 66
     1
 10
0.0
 20
0.0
 30
0.0
  0
VERTEX
  5
D2
330
D1
100
AcDbEntity
  8
LAYER_1
 62
     7
100
AcDbVertex
100
AcDb2dVertex
 10
161.4138833019246
 20
-173.7960326770317
 30
0.0
  0
VERTEX
  5
D3
330
D1
100
AcDbEntity
  8
LAYER_1
 62
     7
100
AcDbVertex
100
AcDb2dVertex
 10
161.3976913019247
 20
-177.205987677032
 30
0.0
  0
SEQEND
  5
D4
330
D1
100
AcDbEntity
  8
LAYER_1
 62
     7
  0
ENDBLK
  5
D0
330
CD
100
AcDbEntity
  8
0
100
AcDbBlockEnd
  0
BLOCK
  5
D7
330
D5
100
AcDbEntity
  8
0
100
AcDbBlockBegin
  2
BLOCK_22
 70
     0
 10
0.0
 20
0.0
 30
0.0
  3
BLOCK_22
  1

  0
POLYLINE
  5
D9
330
D5
100
AcDbEntity
  8
LAYER_1
 62
     7
100
AcDb2dPolyline
 66
     1
 10
0.0
 20
0.0
 30
0.0
  0
VERTEX
  5
DA
330
D9
100
AcDbEntity
  8
LAYER_1
 62
     7
100
AcDbVertex
100
AcDb2dVertex
 10
191.5915413019245
 20
-149.8998166770318
 30
0.0
  0
VERTEX
  5
DB
330
D9
100
AcDbEntity
  8
LAYER_1
 62
     7
100
AcDbVertex
100
AcDb2dVertex
 10
191.5774163019243
 20
-151.8986616770316
 30
0.0
  0
SEQEND
  5
DC
330
D9
100
AcDbEntity
  8
LAYER_1
 62
     7
  0
ENDBLK
  5
D8
330
D5
100
AcDbEntity
  8
0
100
AcDbBlockEnd
  0
BLOCK
  5
DF
330
DD
100
AcDbEntity
  8
0
100
AcDbBlockBegin
  2
BLOCK_23
 70
     0
 10
0.0
 20
0.0
 30
0.0
  3
BLOCK_23
  1

  0
POLYLINE
  5
E1
330
DD
100
AcDbEntity
  8
LAYER_1
 62
     7
100
AcDb2dPolyline
 66
     1
 10
0.0
 20
0.0
 30
0.0
  0
VERTEX
  5
E2
330
E1
100
AcDbEntity
  8
LAYER_1
 62
     7
100
AcDbVertex
100
AcDb2dVertex
 10
191.4134303019247
 20
-174.3582726770318
 30
0.0
  0
VERTEX
  5
E3
330
E1
100
AcDbEntity
  8
LAYER_1
 62
     7
100
AcDbVertex
100
AcDb2dVertex
 10
191.3965493019248
 20
-177.768227677032
 30
0.0
  0
SEQEND
  5
E4
330
E1
100
AcDbEntity
  8
LAYER_1
 62
     7
  0
ENDBLK
  5
E0
330
DD
100
AcDbEntity
  8
0
100
AcDbBlockEnd
  0
BLOCK
  5
E7
330
E5
100
AcDbEntity
  8
0
100
AcDbBlockBegin
  2
BLOCK_24
 70
     0
 10
0.0
 20
0.0
 30
0.0
  3
BLOCK_24
  1

  0
POLYLINE
  5
E9
330
E5
100
AcDbEntity
  8
LAYER_1
 62
     7
100
AcDb2dPolyline
 66
     1
 10
0.0
 20
0.0
 30
0.0
  0
VERTEX
  5
EA
330
E9
100
AcDbEntity
  8
LAYER_1
 62
     7
100
AcDbVertex
100
AcDb2dVertex
 10
186.5747933019246
 20
-147.3325316770318
 30
0.0
  0
VERTEX
  5
EB
330
E9
100
AcDbEntity
  8
LAYER_1
 62
     7
100
AcDbVertex
100
AcDb2dVertex
 10
188.2212043019244
 20
-147.3538916770319
 30
0.0
  0
SEQEND
  5
EC
330
E9
100
AcDbEntity
  8
LAYER_1
 62
     7
  0
ENDBLK
  5
E8
330
E5
100
AcDbEntity
  8
0
100
AcDbBlockEnd
  0
BLOCK
  5
EF
330
ED
100
AcDbEntity
  8
0
100
AcDbBlockBegin
  2
BLOCK_25
 70
     0
 10
0.0
 20
0.0
 30
0.0
  3
BLOCK_25
  1

  0
POLYLINE
  5
F1
330
ED
100
AcDbEntity
  8
LAYER_1
 62
     7
100
AcDb2dPolyline
 66
     1
 10
0.0
 20
0.0
 30
0.0
  0
VERTEX
  5
F2
330
F1
100
AcDbEntity
  8
LAYER_1
 62
     7
100
AcDbVertex
100
AcDb2dVertex
 10
165.2909933019243
 20
-147.1843926770316
 30
0.0
  0
VERTEX
  5
F3
330
F1
100
AcDbEntity
  8
LAYER_1
 62
     7
100
AcDbVertex
100
AcDb2dVertex
 10
166.9374043019248
 20
-147.2057516770317
 30
0.0
  0
SEQEND
  5
F4
330
F1
100
AcDbEntity
  8
LAYER_1
 62
     7
  0
ENDBLK
  5
F0
330
ED
100
AcDbEntity
  8
0
100
AcDbBlockEnd
  0
BLOCK
  5
F7
330
F5
100
AcDbEntity
  8
0
100
AcDbBlockBegin
  2
BLOCK_26
 70
     0
 10
0.0
 20
0.0
 30
0.0
  3
BLOCK_26
  1

  0
POLYLINE
  5
F9
330
F5
100
AcDbEntity
  8
LAYER_1
 62
     7
100
AcDb2dPolyline
 66
     1
 10
0.0
 20
0.0
 30
0.0
  0
VERTEX
  5
FA
330
F9
100
AcDbEntity
  8
LAYER_1
 62
     7
100
AcDbVertex
100
AcDb2dVertex
 10
161.8458983019248
 20
-154.5417386770316
 30
0.0
  0
VERTEX
  5
FB
330
F9
100
AcDbEntity
  8
LAYER_1
 62
     7
100
AcDbVertex
100
AcDb2dVertex
 10
161.2560973019244
 20
-154.5376046770318
 30
0.0
  0
VERTEX
  5
FC
330
F9
100
AcDbEntity
  8
LAYER_1
 62
     7
100
AcDbVertex
100
AcDb2dVertex
 10
161.1548113019244
 20
-169.0011486770318
 30
0.0
  0
VERTEX
  5
FD
330
F9
100
AcDbEntity
  8
LAYER_1
 62
     7
100
AcDbVertex
100
AcDb2dVertex
 10
161.7446123019247
 20
-169.0052826770316
 30
0.0
  0
SEQEND
  5
FE
330
F9
100
AcDbEntity
  8
LAYER_1
 62
     7
  0
ENDBLK
  5
F8
330
F5
100
AcDbEntity
  8
0
100
AcDbBlockEnd
  0
BLOCK
  5
101
330
FF
100
AcDbEntity
  8
0
100
AcDbBlockBegin
  2
BLOCK_27
 70
     0
 10
0.0
 20
0.0
 30
0.0
  3
BLOCK_27
  1

  0
POLYLINE
  5
103
330
FF
100
AcDbEntity
  8
LAYER_1
 62
     7
100
AcDb2dPolyline
 66
     1
 10
0.0
 20
0.0
 30
0.0
  0
VERTEX
  5
104
330
103
100
AcDbEntity
  8
LAYER_1
 62
     7
100
AcDbVertex
100
AcDb2dVertex
 10
191.4489143019244
 20
-169.2126776770316
 30
0.0
  0
VERTEX
  5
105
330
103
100
AcDbEntity
  8
LAYER_1
 62
     7
100
AcDbVertex
100
AcDb2dVertex
 10
192.0383703019243
 20
-169.2168116770321
 30
0.0
  0
VERTEX
  5
106
330
103
100
AcDbEntity
  8
LAYER_1
 62
     7
100
AcDbVertex
100
AcDb2dVertex
 10
192.1389673019243
 20
-154.7532676770321
 30
0.0
  0
VERTEX
  5
107
330
103
100
AcDbEntity
  8
LAYER_1
 62
     7
100
AcDbVertex
100
AcDb2dVertex
 10
191.5502003019244
 20
-154.7491336770316
 30
0.0
  0
SEQEND
  5
108
330
103
100
AcDbEntity
  8
LAYER_1
 62
     7
  0
ENDBLK
  5
102
330
FF
100
AcDbEntity
  8
0
100
AcDbBlockEnd
  0
BLOCK
  5
10B
330
109
100
AcDbEntity
  8
0
100
AcDbBlockBegin
  2
BLOCK_28
 70
     0
 10
0.0
 20
0.0
 30
0.0
  3
BLOCK_28
  1

  0
POLYLINE
  5
10D
330
109
100
AcDbEntity
  8
LAYER_1
 62
     7
100
AcDb2dPolyline
 66
     1
 10
0.0
 20
0.0
 30
0.0
  0
VERTEX
  5
10E
330
10D
100
AcDbEntity
  8
LAYER_1
 62
     7
100
AcDbVertex
100
AcDb2dVertex
 10
184.4305658991466
 20
-182.3240219869276
 30
0.0
  0
VERTEX
  5
279
330
10D
100
AcDbEntity
  8
0
100
AcDbVertex
100
AcDb2dVertex
 10
184.4305658991466
 20
-182.3240219869276
 30
0.0
  0
SEQEND
  5
10F
330
10D
100
AcDbEntity
  8
LAYER_1
 62
     7
  0
ENDBLK
  5
10C
330
109
100
AcDbEntity
  8
0
100
AcDbBlockEnd
  0
BLOCK
  5
112
330
110
100
AcDbEntity
  8
0
100
AcDbBlockBegin
  2
BLOCK_29
 70
     0
 10
0.0
 20
0.0
 30
0.0
  3
BLOCK_29
  1

  0
SPLINE
  5
114
330
110
100
AcDbEntity
  8
LAYER_1
 62
     7
100
AcDbSpline
210
0.0
220
0.0
230
1.0
 70
    11
 71
     3
 72
    41
 73
    37
 74
     0
 42
0.0000000001
 43
0.0000000001
 12
1.0
 22
0.0
 32
0.0
 13
1.0
 23
0.0
 33
0.0
 40
0.0
 40
0.0
 40
0.0
 40
0.0
 40
1.0
 40
1.0
 40
1.0
 40
2.0
 40
2.0
 40
2.0
 40
3.0
 40
3.0
 40
3.0
 40
4.0
 40
4.0
 40
4.0
 40
5.0
 40
5.0
 40
5.0
 40
6.0
 40
6.0
 40
6.0
 40
7.0
 40
7.0
 40
7.0
 40
8.0
 40
8.0
 40
8.0
 40
9.0
 40
9.0
 40
9.0
 40
10.0
 40
10.0
 40
10.0
 40
11.0
 40
11.0
 40
11.0
 40
12.0
 40
12.0
 40
12.0
 40
12.0
 10
179.9784690024455
 20
-131.6180730936988
 30
0.0
 10
179.9863927220635
 20
-130.5135754808511
 30
0.0
 10
179.0965245580008
 20
-129.6116494825875
 30
0.0
 10
177.9920269451538
 20
-129.604070272518
 30
0.0
 10
177.9920269451538
 20
-129.604070272518
 30
0.0
 10
175.2600662246672
 20
-129.5827106805043
 30
0.0
 10
175.2600662246672
 20
-129.5827106805043
 30
0.0
 10
174.1552241022717
 20
-129.5751314704348
 30
0.0
 10
173.253298104008
 20
-130.4646551249484
 30
0.0
 10
173.2457188939385
 20
-131.569152737796
 30
0.0
 10
173.2457188939385
 20
-131.569152737796
 30
0.0
 10
173.1251405519247
 20
-143.8798569478654
 30
0.0
 10
173.1251405519247
 20
-143.8798569478654
 30
0.0
 10
173.1251405519247
 20
-143.8798569478654
 30
0.0
 10
173.1251405519247
 20
-144.6246865919625
 30
0.0
 10
173.1251405519247
 20
-144.6246865919625
 30
0.0
 10
173.1251405519247
 20
-144.6246865919625
 30
0.0
 10
173.1192838895984
 20
-147.2484713141846
 30
0.0
 10
173.1192838895984
 20
-147.2484713141846
 30
0.0
 10
173.1192838895984
 20
-148.0766722690459
 30
0.0
 10
173.7907329998411
 20
-148.7484658888371
 30
0.0
 10
174.619278464251
 20
-148.7484658888371
 30
0.0
 10
174.619278464251
 20
-148.7484658888371
 30
0.0
 10
178.6045649225839
 20
-148.7484658888371
 30
0.0
 10
178.6045649225839
 20
-148.7484658888371
 30
0.0
 10
179.4331103869937
 20
-148.7484658888371
 30
0.0
 10
180.1045594972371
 20
-148.0766722690459
 30
0.0
 10
180.1045594972371
 20
-147.2484713141846
 30
0.0
 10
180.1045594972371
 20
-147.2484713141846
 30
0.0
 10
180.0990473444594
 20
-144.6736069478652
 30
0.0
 10
180.0990473444594
 20
-144.6736069478652
 30
0.0
 10
180.0990473444594
 20
-144.6736069478652
 30
0.0
 10
180.0990473444594
 20
-143.9287773037681
 30
0.0
 10
180.0990473444594
 20
-143.9287773037681
 30
0.0
 10
180.0990473444594
 20
-143.9287773037681
 30
0.0
 10
179.9784690024455
 20
-131.6180730936988
 30
0.0
 10
179.9784690024455
 20
-131.6180730936988
 30
0.0
  0
ENDBLK
  5
113
330
110
100
AcDbEntity
  8
0
100
AcDbBlockEnd
  0
BLOCK
  5
117
330
115
100
AcDbEntity
  8
0
100
AcDbBlockBegin
  2
BLOCK_30
 70
     0
 10
0.0
 20
0.0
 30
0.0
  3
BLOCK_30
  1

  0
POLYLINE
  5
119
330
115
100
AcDbEntity
  8
LAYER_1
 62
     7
100
AcDb2dPolyline
 66
     1
 10
0.0
 20
0.0
 30
0.0
  0
VERTEX
  5
11A
330
119
100
AcDbEntity
  8
LAYER_1
 62
     7
100
AcDbVertex
100
AcDb2dVertex
 10
176.5898733019243
 20
-150.7721146770319
 30
0.0
  0
VERTEX
  5
11B
330
119
100
AcDbEntity
  8
LAYER_1
 62
     7
100
AcDbVertex
100
AcDb2dVertex
 10
176.5898733019243
 20
-148.7484656770315
 30
0.0
  0
SEQEND
  5
11C
330
119
100
AcDbEntity
  8
LAYER_1
 62
     7
  0
ENDBLK
  5
118
330
115
100
AcDbEntity
  8
0
100
AcDbBlockEnd
  0
BLOCK
  5
11F
330
11D
100
AcDbEntity
  8
0
100
AcDbBlockBegin
  2
BLOCK_31
 70
     0
 10
0.0
 20
0.0
 30
0.0
  3
BLOCK_31
  1

  0
SPLINE
  5
121
330
11D
100
AcDbEntity
  8
LAYER_1
 62
     7
100
AcDbSpline
210
0.0
220
0.0
230
1.0
 70
    11
 71
     3
 72
    20
 73
    16
 74
     0
 42
0.0000000001
 43
0.0000000001
 12
1.0
 22
0.0
 32
0.0
 13
1.0
 23
0.0
 33
0.0
 40
0.0
 40
0.0
 40
0.0
 40
0.0
 40
1.0
 40
1.0
 40
1.0
 40
2.0
 40
2.0
 40
2.0
 40
3.0
 40
3.0
 40
3.0
 40
4.0
 40
4.0
 40
4.0
 40
5.0
 40
5.0
 40
5.0
 40
5.0
 10
172.0947124920285
 20
-153.593648180504
 30
0.0
 10
172.0947124920285
 20
-153.593648180504
 30
0.0
 10
175.4054492541813
 20
-156.7793279765109
 30
0.0
 10
175.4054492541813
 20
-156.7793279765109
 30
0.0
 10
176.021432327098
 20
-157.4022012404
 30
0.0
 10
177.0311898140776
 20
-157.4090914313724
 30
0.0
 10
177.654063077966
 20
-156.7951754157469
 30
0.0
 10
177.654063077966
 20
-156.7951754157469
 30
0.0
 10
181.0664301569595
 20
-153.5543740919626
 30
0.0
 10
181.0664301569595
 20
-153.5543740919626
 30
0.0
 10
180.2485644885564
 20
-151.9069294305041
 30
0.0
 10
178.5539220189385
 20
-150.7721149773792
 30
0.0
 10
176.5898730823067
 20
-150.7721149773792
 30
0.0
 10
174.6106657255353
 20
-150.7721149773792
 30
0.0
 10
172.904998950362
 20
-151.9248439270319
 30
0.0
 10
172.0947124920285
 20
-153.593648180504
 30
0.0
  0
ENDBLK
  5
120
330
11D
100
AcDbEntity
  8
0
100
AcDbBlockEnd
  0
BLOCK
  5
124
330
122
100
AcDbEntity
  8
0
100
AcDbBlockBegin
  2
BLOCK_32
 70
     0
 10
0.0
 20
0.0
 30
0.0
  3
BLOCK_32
  1

  0
SPLINE
  5
126
330
122
100
AcDbEntity
  8
LAYER_1
 62
     7
100
AcDbSpline
210
0.0
220
0.0
230
1.0
 70
     8
 71
     3
 72
    32
 73
    28
 74
     0
 42
0.0000000001
 43
0.0000000001
 12
1.0
 22
0.0
 32
0.0
 13
1.0
 23
0.0
 33
0.0
 40
0.0
 40
0.0
 40
0.0
 40
0.0
 40
1.0
 40
1.0
 40
1.0
 40
2.0
 40
2.0
 40
2.0
 40
3.0
 40
3.0
 40
3.0
 40
4.0
 40
4.0
 40
4.0
 40
5.0
 40
5.0
 40
5.0
 40
6.0
 40
6.0
 40
6.0
 40
7.0
 40
7.0
 40
7.0
 40
8.0
 40
8.0
 40
8.0
 40
9.0
 40
9.0
 40
9.0
 40
9.0
 10
182.5898513809175
 20
-147.1168686666153
 30
0.0
 10
182.5898513809175
 20
-147.1168686666153
 30
0.0
 10
182.5898513809175
 20
-148.2882011318929
 30
0.0
 10
182.5898513809175
 20
-148.2882011318929
 30
0.0
 10
182.5898513809175
 20
-148.2882011318929
 30
0.0
 10
183.976502314077
 20
-149.346534465226
 30
0.0
 10
183.976502314077
 20
-149.346534465226
 30
0.0
 10
183.976502314077
 20
-149.346534465226
 30
0.0
 10
183.9964838678966
 20
-150.7721149773792
 30
0.0
 10
183.9964838678966
 20
-150.7721149773792
 30
0.0
 10
183.9964838678966
 20
-150.7721149773792
 30
0.0
 10
177.654063077966
 20
-156.7951754157469
 30
0.0
 10
177.654063077966
 20
-156.7951754157469
 30
0.0
 10
177.0311898140776
 20
-157.4090914313724
 30
0.0
 10
176.021432327098
 20
-157.4022012404
 30
0.0
 10
175.4054492541813
 20
-156.7793279765109
 30
0.0
 10
175.4054492541813
 20
-156.7793279765109
 30
0.0
 10
169.1625917237995
 20
-150.7721149773792
 30
0.0
 10
169.1625917237995
 20
-150.7721149773792
 30
0.0
 10
169.1625917237995
 20
-150.7721149773792
 30
0.0
 10
169.1825732776191
 20
-149.346534465226
 30
0.0
 10
169.1825732776191
 20
-149.346534465226
 30
0.0
 10
169.1825732776191
 20
-149.346534465226
 30
0.0
 10
170.5898947836953
 20
-148.2882011318929
 30
0.0
 10
170.5898947836953
 20
-148.2882011318929
 30
0.0
 10
170.5898947836953
 20
-148.2882011318929
 30
0.0
 10
170.5898947836953
 20
-147.1168686666153
 30
0.0
 10
170.5898947836953
 20
-147.1168686666153
 30
0.0
  0
ENDBLK
  5
125
330
122
100
AcDbEntity
  8
0
100
AcDbBlockEnd
  0
BLOCK
  5
161
330
15F
100
AcDbEntity
  8
0
100
AcDbBlockBegin
  2
BLOCK_33
 70
     0
 10
0.0
 20
0.0
 30
0.0
  3
BLOCK_33
  1

  0
SPLINE
  5
163
330
15F
100
AcDbEntity
  8
LAYER_1
 62
     7
100
AcDbSpline
210
0.0
220
0.0
230
1.0
 70
    11
 71
     3
 72
    23
 73
    19
 74
     0
 42
0.0000000001
 43
0.0000000001
 12
1.0
 22
0.0
 32
0.0
 13
1.0
 23
0.0
 33
0.0
 40
0.0
 40
0.0
 40
0.0
 40
0.0
 40
1.0
 40
1.0
 40
1.0
 40
2.0
 40
2.0
 40
2.0
 40
3.0
 40
3.0
 40
3.0
 40
4.0
 40
4.0
 40
4.0
 40
5.0
 40
5.0
 40
5.0
 40
6.0
 40
6.0
 40
6.0
 40
6.0
 10
182.9796471300608
 20
-80.8518413890005
 30
0.0
 10
183.7855841553442
 20
-80.88672298079699
 30
0.0
 10
184.4547939535208
 20
-81.40090348209951
 30
0.0
 10
184.7327700955562
 20
-82.10585614594459
 30
0.0
 10
184.7327700955562
 20
-82.10585614594459
 30
0.0
 10
186.7173604140246
 20
-82.19241417003266
 30
0.0
 10
186.7173604140246
 20
-82.19241417003266
 30
0.0
 10
186.424742616173
 20
-80.42249636404406
 30
0.0
 10
184.9265567166503
 20
-79.03713734169146
 30
0.0
 10
183.0625447401964
 20
-78.9557469608319
 30
0.0
 10
181.1987480822104
 20
-78.87435657997234
 30
0.0
 10
179.5855821208391
 20
-80.12363433062421
 30
0.0
 10
179.1398728923233
 20
-81.86168500336655
 30
0.0
 10
179.1398728923233
 20
-81.86168500336655
 30
0.0
 10
181.1244632107904
 20
-81.94824302745526
 30
0.0
 10
181.1244632107904
 20
-81.94824302745526
 30
0.0
 10
181.4622978868974
 20
-81.27042049056294
 30
0.0
 10
182.1739254232477
 20
-80.81652916026835
 30
0.0
 10
182.9796471300608
 20
-80.8518413890005
 30
0.0
  0
ENDBLK
  5
162
330
15F
100
AcDbEntity
  8
0
100
AcDbBlockEnd
  0
BLOCK
  5
166
330
164
100
AcDbEntity
  8
0
100
AcDbBlockBegin
  2
BLOCK_34
 70
     0
 10
0.0
 20
0.0
 30
0.0
  3
BLOCK_34
  1

  0
SPLINE
  5
168
330
164
100
AcDbEntity
  8
LAYER_1
 62
     7
100
AcDbSpline
210
0.0
220
0.0
230
1.0
 70
    11
 71
     3
 72
    23
 73
    19
 74
     0
 42
0.0000000001
 43
0.0000000001
 12
1.0
 22
0.0
 32
0.0
 13
1.0
 23
0.0
 33
0.0
 40
0.0
 40
0.0
 40
0.0
 40
0.0
 40
1.0
 40
1.0
 40
1.0
 40
2.0
 40
2.0
 40
2.0
 40
3.0
 40
3.0
 40
3.0
 40
4.0
 40
4.0
 40
4.0
 40
5.0
 40
5.0
 40
5.0
 40
6.0
 40
6.0
 40
6.0
 40
6.0
 10
213.48815116321
 20
-83.38039034043732
 30
0.0
 10
213.48815116321
 20
-83.38039034043732
 30
0.0
 10
215.4727414816778
 20
-83.46694836452605
 30
0.0
 10
215.4727414816778
 20
-83.46694836452605
 30
0.0
 10
215.1801236838268
 20
-81.69703055853617
 30
0.0
 10
213.6819377843041
 20
-80.31167153618355
 30
0.0
 10
211.8183564447859
 20
-80.23028115532463
 30
0.0
 10
209.9541291498635
 20
-80.14889077446443
 30
0.0
 10
208.3409631884923
 20
-81.3981685251163
 30
0.0
 10
207.8952539599765
 20
-83.13621919785928
 30
0.0
 10
207.8952539599765
 20
-83.13621919785928
 30
0.0
 10
209.8798442784442
 20
-83.222777221948
 30
0.0
 10
209.8798442784442
 20
-83.222777221948
 30
0.0
 10
210.2181095914869
 20
-82.54495468505505
 30
0.0
 10
210.9297371278366
 20
-82.09106335476044
 30
0.0
 10
211.7354588346509
 20
-82.12637558349259
 30
0.0
 10
212.541395859933
 20
-82.16125717528973
 30
0.0
 10
213.2106056581103
 20
-82.6754376765916
 30
0.0
 10
213.48815116321
 20
-83.38039034043732
 30
0.0
  0
ENDBLK
  5
167
330
164
100
AcDbEntity
  8
0
100
AcDbBlockEnd
  0
BLOCK
  5
16B
330
169
100
AcDbEntity
  8
0
100
AcDbBlockBegin
  2
BLOCK_35
 70
     0
 10
0.0
 20
0.0
 30
0.0
  3
BLOCK_35
  1

  0
SPLINE
  5
16D
330
169
100
AcDbEntity
  8
LAYER_1
 62
     7
100
AcDbSpline
210
0.0
220
0.0
230
1.0
 70
    11
 71
     3
 72
    23
 73
    19
 74
     0
 42
0.0000000001
 43
0.0000000001
 12
1.0
 22
0.0
 32
0.0
 13
1.0
 23
0.0
 33
0.0
 40
0.0
 40
0.0
 40
0.0
 40
0.0
 40
1.0
 40
1.0
 40
1.0
 40
2.0
 40
2.0
 40
2.0
 40
3.0
 40
3.0
 40
3.0
 40
4.0
 40
4.0
 40
4.0
 40
5.0
 40
5.0
 40
5.0
 40
6.0
 40
6.0
 40
6.0
 40
6.0
 10
209.838503132611
 20
-84.99958521890902
 30
0.0
 10
209.838503132611
 20
-84.99958521890902
 30
0.0
 10
207.8666166037483
 20
-84.91345783175659
 30
0.0
 10
207.8666166037483
 20
-84.91345783175659
 30
0.0
 10
208.1568658984531
 20
-86.68337563774647
 30
0.0
 10
209.6449318299854
 20
-88.06830402316342
 30
0.0
 10
211.4966706537698
 20
-88.14926376708668
 30
0.0
 10
213.3488401144906
 20
-88.23022351100995
 30
0.0
 10
214.9518861078713
 20
-86.98008448648805
 30
0.0
 10
215.3952268332404
 20
-85.24203381374443
 30
0.0
 10
215.3952268332404
 20
-85.24203381374443
 30
0.0
 10
213.4235556228455
 20
-85.15590642659137
 30
0.0
 10
213.4235556228455
 20
-85.15590642659137
 30
0.0
 10
213.087228176014
 20
-85.83415960041934
 30
0.0
 10
212.3801223274893
 20
-86.28805093071523
 30
0.0
 10
211.5793529454363
 20
-86.25316933891808
 30
0.0
 10
210.7787988818512
 20
-86.21828774712095
 30
0.0
 10
210.1138954530324
 20
-85.70410724581907
 30
0.0
 10
209.838503132611
 20
-84.99958521890902
 30
0.0
  0
ENDBLK
  5
16C
330
169
100
AcDbEntity
  8
0
100
AcDbBlockEnd
  0
BLOCK
  5
170
330
16E
100
AcDbEntity
  8
0
100
AcDbBlockBegin
  2
BLOCK_36
 70
     0
 10
0.0
 20
0.0
 30
0.0
  3
BLOCK_36
  1

  0
SPLINE
  5
172
330
16E
100
AcDbEntity
  8
LAYER_1
 62
     7
100
AcDbSpline
210
0.0
220
0.0
230
1.0
 70
    11
 71
     3
 72
    23
 73
    19
 74
     0
 42
0.0000000001
 43
0.0000000001
 12
1.0
 22
0.0
 32
0.0
 13
1.0
 23
0.0
 33
0.0
 40
0.0
 40
0.0
 40
0.0
 40
0.0
 40
1.0
 40
1.0
 40
1.0
 40
2.0
 40
2.0
 40
2.0
 40
3.0
 40
3.0
 40
3.0
 40
4.0
 40
4.0
 40
4.0
 40
5.0
 40
5.0
 40
5.0
 40
6.0
 40
6.0
 40
6.0
 40
6.0
 10
181.0826914280215
 20
-83.72505102441691
 30
0.0
 10
181.0826914280215
 20
-83.72505102441691
 30
0.0
 10
179.1108048991588
 20
-83.63892363726386
 30
0.0
 10
179.1108048991588
 20
-83.63892363726386
 30
0.0
 10
179.4010541938642
 20
-85.40884144325373
 30
0.0
 10
180.8891201253952
 20
-86.79376982867004
 30
0.0
 10
182.7408589491803
 20
-86.87472957259459
 30
0.0
 10
184.5930284099011
 20
-86.95568931651785
 30
0.0
 10
186.1960744032818
 20
-85.70555029199467
 30
0.0
 10
186.6394151286516
 20
-83.96749961925234
 30
0.0
 10
186.6394151286516
 20
-83.96749961925234
 30
0.0
 10
184.6677439182567
 20
-83.88137223209928
 30
0.0
 10
184.6677439182567
 20
-83.88137223209928
 30
0.0
 10
184.3314164714245
 20
-84.55962540592725
 30
0.0
 10
183.6243106228999
 20
-85.0135167362225
 30
0.0
 10
182.8235412408469
 20
-84.978635144426
 30
0.0
 10
182.0229871772617
 20
-84.94375355262886
 30
0.0
 10
181.358083748443
 20
-84.42957305132698
 30
0.0
 10
181.0826914280215
 20
-83.72505102441691
 30
0.0
  0
ENDBLK
  5
171
330
16E
100
AcDbEntity
  8
0
100
AcDbBlockEnd
  0
BLOCK
  5
175
330
173
100
AcDbEntity
  8
0
100
AcDbBlockBegin
  2
BLOCK_37
 70
     0
 10
0.0
 20
0.0
 30
0.0
  3
BLOCK_37
  1

  0
POLYLINE
  5
177
330
173
100
AcDbEntity
  8
LAYER_1
 62
     7
100
AcDb2dPolyline
 66
     1
 10
0.0
 20
0.0
 30
0.0
  0
VERTEX
  5
178
330
177
100
AcDbEntity
  8
LAYER_1
 62
     7
100
AcDbVertex
100
AcDb2dVertex
 10
217.9199991215484
 20
-99.75942026157577
 30
0.0
  0
VERTEX
  5
179
330
177
100
AcDbEntity
  8
LAYER_1
 62
     7
100
AcDbVertex
100
AcDb2dVertex
 10
217.5754901215477
 20
-99.6829392615757
 30
0.0
  0
VERTEX
  5
17A
330
177
100
AcDbEntity
  8
LAYER_1
 62
     7
100
AcDbVertex
100
AcDb2dVertex
 10
223.104523121548
 20
-75.96070026157565
 30
0.0
  0
VERTEX
  5
17B
330
177
100
AcDbEntity
  8
LAYER_1
 62
     7
100
AcDbVertex
100
AcDb2dVertex
 10
223.4488611215482
 20
-76.03683726157537
 30
0.0
  0
SEQEND
  5
17C
330
177
100
AcDbEntity
  8
LAYER_1
 62
     7
  0
ENDBLK
  5
176
330
173
100
AcDbEntity
  8
0
100
AcDbBlockEnd
  0
BLOCK
  5
17F
330
17D
100
AcDbEntity
  8
0
100
AcDbBlockBegin
  2
BLOCK_38
 70
     0
 10
0.0
 20
0.0
 30
0.0
  3
BLOCK_38
  1

  0
POLYLINE
  5
181
330
17D
100
AcDbEntity
  8
LAYER_1
 62
     7
100
AcDb2dPolyline
 66
     1
 10
0.0
 20
0.0
 30
0.0
  0
VERTEX
  5
182
330
181
100
AcDbEntity
  8
LAYER_1
 62
     7
100
AcDbVertex
100
AcDb2dVertex
 10
176.0707021215481
 20
-100.5697062615758
 30
0.0
  0
VERTEX
  5
183
330
181
100
AcDbEntity
  8
LAYER_1
 62
     7
100
AcDbVertex
100
AcDb2dVertex
 10
175.5951061215482
 20
-97.23726526157535
 30
0.0
  0
SEQEND
  5
184
330
181
100
AcDbEntity
  8
LAYER_1
 62
     7
  0
ENDBLK
  5
180
330
17D
100
AcDbEntity
  8
0
100
AcDbBlockEnd
  0
BLOCK
  5
187
330
185
100
AcDbEntity
  8
0
100
AcDbBlockBegin
  2
BLOCK_39
 70
     0
 10
0.0
 20
0.0
 30
0.0
  3
BLOCK_39
  1

  0
POLYLINE
  5
189
330
185
100
AcDbEntity
  8
LAYER_1
 62
     7
100
AcDb2dPolyline
 66
     1
 10
0.0
 20
0.0
 30
0.0
  0
VERTEX
  5
18A
330
189
100
AcDbEntity
  8
LAYER_1
 62
     7
100
AcDbVertex
100
AcDb2dVertex
 10
166.0313491215485
 20
-30.20156426157551
 30
0.0
  0
VERTEX
  5
18B
330
189
100
AcDbEntity
  8
LAYER_1
 62
     7
100
AcDbVertex
100
AcDb2dVertex
 10
165.5557531215481
 20
-26.86912326157573
 30
0.0
  0
SEQEND
  5
18C
330
189
100
AcDbEntity
  8
LAYER_1
 62
     7
  0
ENDBLK
  5
188
330
185
100
AcDbEntity
  8
0
100
AcDbBlockEnd
  0
BLOCK
  5
18F
330
18D
100
AcDbEntity
  8
0
100
AcDbBlockBegin
  2
BLOCK_40
 70
     0
 10
0.0
 20
0.0
 30
0.0
  3
BLOCK_40
  1

  0
POLYLINE
  5
191
330
18D
100
AcDbEntity
  8
LAYER_1
 62
     7
100
AcDb2dPolyline
 66
     1
 10
0.0
 20
0.0
 30
0.0
  0
VERTEX
  5
192
330
191
100
AcDbEntity
  8
LAYER_1
 62
     7
100
AcDbVertex
100
AcDb2dVertex
 10
168.2982221215483
 20
-46.09206726157539
 30
0.0
  0
VERTEX
  5
193
330
191
100
AcDbEntity
  8
LAYER_1
 62
     7
100
AcDbVertex
100
AcDb2dVertex
 10
167.8227991215484
 20
-42.75928126157587
 30
0.0
  0
SEQEND
  5
194
330
191
100
AcDbEntity
  8
LAYER_1
 62
     7
  0
ENDBLK
  5
190
330
18D
100
AcDbEntity
  8
0
100
AcDbBlockEnd
  0
BLOCK
  5
197
330
195
100
AcDbEntity
  8
0
100
AcDbBlockBegin
  2
BLOCK_41
 70
     0
 10
0.0
 20
0.0
 30
0.0
  3
BLOCK_41
  1

  0
POLYLINE
  5
199
330
195
100
AcDbEntity
  8
LAYER_1
 62
     7
100
AcDb2dPolyline
 66
     1
 10
0.0
 20
0.0
 30
0.0
  0
VERTEX
  5
19A
330
199
100
AcDbEntity
  8
LAYER_1
 62
     7
100
AcDbVertex
100
AcDb2dVertex
 10
171.0408621215484
 20
-65.31432126157556
 30
0.0
  0
VERTEX
  5
19B
330
199
100
AcDbEntity
  8
LAYER_1
 62
     7
100
AcDbVertex
100
AcDb2dVertex
 10
170.5652671215487
 20
-61.98188126157582
 30
0.0
  0
SEQEND
  5
19C
330
199
100
AcDbEntity
  8
LAYER_1
 62
     7
  0
ENDBLK
  5
198
330
195
100
AcDbEntity
  8
0
100
AcDbBlockEnd
  0
BLOCK
  5
19F
330
19D
100
AcDbEntity
  8
0
100
AcDbBlockBegin
  2
BLOCK_42
 70
     0
 10
0.0
 20
0.0
 30
0.0
  3
BLOCK_42
  1

  0
POLYLINE
  5
1A1
330
19D
100
AcDbEntity
  8
LAYER_1
 62
     7
100
AcDb2dPolyline
 66
     1
 10
0.0
 20
0.0
 30
0.0
  0
VERTEX
  5
1A2
330
1A1
100
AcDbEntity
  8
LAYER_1
 62
     7
100
AcDbVertex
100
AcDb2dVertex
 10
173.5037611215484
 20
-82.57735026157549
 30
0.0
  0
VERTEX
  5
1A3
330
1A1
100
AcDbEntity
  8
LAYER_1
 62
     7
100
AcDbVertex
100
AcDb2dVertex
 10
173.028166121548
 20
-79.24456526157536
 30
0.0
  0
SEQEND
  5
1A4
330
1A1
100
AcDbEntity
  8
LAYER_1
 62
     7
  0
ENDBLK
  5
1A0
330
19D
100
AcDbEntity
  8
0
100
AcDbBlockEnd
  0
BLOCK
  5
1A7
330
1A5
100
AcDbEntity
  8
0
100
AcDbBlockBegin
  2
BLOCK_43
 70
     0
 10
0.0
 20
0.0
 30
0.0
  3
BLOCK_43
  1

  0
POLYLINE
  5
1A9
330
1A5
100
AcDbEntity
  8
LAYER_1
 62
     7
100
AcDb2dPolyline
 66
     1
 10
0.0
 20
0.0
 30
0.0
  0
VERTEX
  5
1AA
330
1A9
100
AcDbEntity
  8
LAYER_1
 62
     7
100
AcDbVertex
100
AcDb2dVertex
 10
52.22951012154829
 20
-47.20069826157533
 30
0.0
  0
VERTEX
  5
1AB
330
1A9
100
AcDbEntity
  8
LAYER_1
 62
     7
100
AcDbVertex
100
AcDb2dVertex
 10
52.65463412154823
 20
-44.25204126157544
 30
0.0
  0
SEQEND
  5
1AC
330
1A9
100
AcDbEntity
  8
LAYER_1
 62
     7
  0
ENDBLK
  5
1A8
330
1A5
100
AcDbEntity
  8
0
100
AcDbBlockEnd
  0
BLOCK
  5
1AF
330
1AD
100
AcDbEntity
  8
0
100
AcDbBlockBegin
  2
BLOCK_44
 70
     0
 10
0.0
 20
0.0
 30
0.0
  3
BLOCK_44
  1

  0
POLYLINE
  5
1B1
330
1AD
100
AcDbEntity
  8
LAYER_1
 62
     7
100
AcDb2dPolyline
 66
     1
 10
0.0
 20
0.0
 30
0.0
  0
VERTEX
  5
1B2
330
1B1
100
AcDbEntity
  8
LAYER_1
 62
     7
100
AcDbVertex
100
AcDb2dVertex
 10
53.81149812154793
 20
-36.23254826157556
 30
0.0
  0
VERTEX
  5
1B3
330
1B1
100
AcDbEntity
  8
LAYER_1
 62
     7
100
AcDbVertex
100
AcDb2dVertex
 10
54.23662212154851
 20
-33.28389126157567
 30
0.0
  0
SEQEND
  5
1B4
330
1B1
100
AcDbEntity
  8
LAYER_1
 62
     7
  0
ENDBLK
  5
1B0
330
1AD
100
AcDbEntity
  8
0
100
AcDbBlockEnd
  0
BLOCK
  5
1B7
330
1B5
100
AcDbEntity
  8
0
100
AcDbBlockBegin
  2
BLOCK_45
 70
     0
 10
0.0
 20
0.0
 30
0.0
  3
BLOCK_45
  1

  0
POLYLINE
  5
1B9
330
1B5
100
AcDbEntity
  8
LAYER_1
 62
     7
100
AcDb2dPolyline
 66
     1
 10
0.0
 20
0.0
 30
0.0
  0
VERTEX
  5
1BA
330
1B9
100
AcDbEntity
  8
LAYER_1
 62
     7
100
AcDbVertex
100
AcDb2dVertex
 10
46.00146589923805
 20
-94.2358226375805
 30
0.0
  0
VERTEX
  5
1BB
330
1B9
100
AcDbEntity
  8
LAYER_1
 62
     7
100
AcDbVertex
100
AcDb2dVertex
 10
46.42659089923803
 20
-91.28716463757992
 30
0.0
  0
SEQEND
  5
1BC
330
1B9
100
AcDbEntity
  8
LAYER_1
 62
     7
  0
ENDBLK
  5
1B8
330
1B5
100
AcDbEntity
  8
0
100
AcDbBlockEnd
  0
BLOCK
  5
1BF
330
1BD
100
AcDbEntity
  8
0
100
AcDbBlockBegin
  2
BLOCK_46
 70
     0
 10
0.0
 20
0.0
 30
0.0
  3
BLOCK_46
  1

  0
POLYLINE
  5
1C1
330
1BD
100
AcDbEntity
  8
LAYER_1
 62
     7
100
AcDb2dPolyline
 66
     1
 10
0.0
 20
0.0
 30
0.0
  0
VERTEX
  5
1C2
330
1C1
100
AcDbEntity
  8
LAYER_1
 62
     7
100
AcDbVertex
100
AcDb2dVertex
 10
47.709888899238
 20
-82.0002216375802
 30
0.0
  0
VERTEX
  5
1C3
330
1C1
100
AcDbEntity
  8
LAYER_1
 62
     7
100
AcDbVertex
100
AcDb2dVertex
 10
48.13501389923798
 20
-79.05156363758026
 30
0.0
  0
SEQEND
  5
1C4
330
1C1
100
AcDbEntity
  8
LAYER_1
 62
     7
  0
ENDBLK
  5
1C0
330
1BD
100
AcDbEntity
  8
0
100
AcDbBlockEnd
  0
BLOCK
  5
1C7
330
1C5
100
AcDbEntity
  8
0
100
AcDbBlockBegin
  2
BLOCK_47
 70
     0
 10
0.0
 20
0.0
 30
0.0
  3
BLOCK_47
  1

  0
POLYLINE
  5
1C9
330
1C5
100
AcDbEntity
  8
LAYER_1
 62
     7
100
AcDb2dPolyline
 66
     1
 10
0.0
 20
0.0
 30
0.0
  0
VERTEX
  5
1CA
330
1C9
100
AcDbEntity
  8
LAYER_1
 62
     7
100
AcDbVertex
100
AcDb2dVertex
 10
224.3011771215484
 20
-70.82578526157589
 30
0.0
  0
VERTEX
  5
1CB
330
1C9
100
AcDbEntity
  8
LAYER_1
 62
     7
100
AcDbVertex
100
AcDb2dVertex
 10
225.137474121548
 20
-67.23771826157581
 30
0.0
  0
SEQEND
  5
1CC
330
1C9
100
AcDbEntity
  8
LAYER_1
 62
     7
  0
ENDBLK
  5
1C8
330
1C5
100
AcDbEntity
  8
0
100
AcDbBlockEnd
  0
BLOCK
  5
1CF
330
1CD
100
AcDbEntity
  8
0
100
AcDbBlockBegin
  2
BLOCK_48
 70
     0
 10
0.0
 20
0.0
 30
0.0
  3
BLOCK_48
  1

  0
POLYLINE
  5
1D1
330
1CD
100
AcDbEntity
  8
LAYER_1
 62
     7
100
AcDb2dPolyline
 66
     1
 10
0.0
 20
0.0
 30
0.0
  0
VERTEX
  5
1D2
330
1D1
100
AcDbEntity
  8
LAYER_1
 62
     7
100
AcDbVertex
100
AcDb2dVertex
 10
226.0497351215481
 20
-63.32374526157548
 30
0.0
  0
VERTEX
  5
1D3
330
1D1
100
AcDbEntity
  8
LAYER_1
 62
     7
100
AcDbVertex
100
AcDb2dVertex
 10
226.8860321215484
 20
-59.7356782615754
 30
0.0
  0
SEQEND
  5
1D4
330
1D1
100
AcDbEntity
  8
LAYER_1
 62
     7
  0
ENDBLK
  5
1D0
330
1CD
100
AcDbEntity
  8
0
100
AcDbBlockEnd
  0
BLOCK
  5
1D7
330
1D5
100
AcDbEntity
  8
0
100
AcDbBlockBegin
  2
BLOCK_49
 70
     0
 10
0.0
 20
0.0
 30
0.0
  3
BLOCK_49
  1

  0
POLYLINE
  5
1D9
330
1D5
100
AcDbEntity
  8
LAYER_1
 62
     7
100
AcDb2dPolyline
 66
     1
 10
0.0
 20
0.0
 30
0.0
  0
VERTEX
  5
1DA
330
1D9
100
AcDbEntity
  8
LAYER_1
 62
     7
100
AcDbVertex
100
AcDb2dVertex
 10
228.6957411215483
 20
-53.52520526157539
 30
0.0
  0
VERTEX
  5
1DB
330
1D9
100
AcDbEntity
  8
LAYER_1
 62
     7
100
AcDbVertex
100
AcDb2dVertex
 10
228.3512311215483
 20
-53.44872426157534
 30
0.0
  0
VERTEX
  5
1DC
330
1D9
100
AcDbEntity
  8
LAYER_1
 62
     7
100
AcDbVertex
100
AcDb2dVertex
 10
233.2310371215486
 20
-32.51218926157538
 30
0.0
  0
VERTEX
  5
1DD
330
1D9
100
AcDbEntity
  8
LAYER_1
 62
     7
100
AcDbVertex
100
AcDb2dVertex
 10
233.575546121548
 20
-32.58867026157544
 30
0.0
  0
SEQEND
  5
1DE
330
1D9
100
AcDbEntity
  8
LAYER_1
 62
     7
  0
ENDBLK
  5
1D8
330
1D5
100
AcDbEntity
  8
0
100
AcDbBlockEnd
  0
BLOCK
  5
1E1
330
1DF
100
AcDbEntity
  8
0
100
AcDbBlockBegin
  2
BLOCK_50
 70
     0
 10
0.0
 20
0.0
 30
0.0
  3
BLOCK_50
  1

  0
POLYLINE
  5
1E3
330
1DF
100
AcDbEntity
  8
LAYER_1
 62
     7
100
AcDb2dPolyline
 66
     1
 10
0.0
 20
0.0
 30
0.0
  0
VERTEX
  5
1E4
330
1E3
100
AcDbEntity
  8
LAYER_1
 62
     7
100
AcDbVertex
100
AcDb2dVertex
 10
125.117739121548
 20
-60.68652526157593
 30
0.0
  0
VERTEX
  5
1E5
330
1E3
100
AcDbEntity
  8
LAYER_1
 62
     7
100
AcDbVertex
100
AcDb2dVertex
 10
125.1318641215482
 20
-58.68768026157542
 30
0.0
  0
SEQEND
  5
1E6
330
1E3
100
AcDbEntity
  8
LAYER_1
 62
     7
  0
ENDBLK
  5
1E2
330
1DF
100
AcDbEntity
  8
0
100
AcDbBlockEnd
  0
BLOCK
  5
1E9
330
1E7
100
AcDbEntity
  8
0
100
AcDbBlockBegin
  2
BLOCK_51
 70
     0
 10
0.0
 20
0.0
 30
0.0
  3
BLOCK_51
  1

  0
POLYLINE
  5
1EB
330
1E7
100
AcDbEntity
  8
LAYER_1
 62
     7
100
AcDb2dPolyline
 66
     1
 10
0.0
 20
0.0
 30
0.0
  0
VERTEX
  5
1EC
330
1EB
100
AcDbEntity
  8
LAYER_1
 62
     7
100
AcDbVertex
100
AcDb2dVertex
 10
125.2961951215482
 20
-36.58084726157574
 30
0.0
  0
VERTEX
  5
1ED
330
1EB
100
AcDbEntity
  8
LAYER_1
 62
     7
100
AcDbVertex
100
AcDb2dVertex
 10
125.312387121548
 20
-33.17089226157547
 30
0.0
  0
SEQEND
  5
1EE
330
1EB
100
AcDbEntity
  8
LAYER_1
 62
     7
  0
ENDBLK
  5
1EA
330
1E7
100
AcDbEntity
  8
0
100
AcDbBlockEnd
  0
BLOCK
  5
1F1
330
1EF
100
AcDbEntity
  8
0
100
AcDbBlockBegin
  2
BLOCK_52
 70
     0
 10
0.0
 20
0.0
 30
0.0
  3
BLOCK_52
  1

  0
POLYLINE
  5
1F3
330
1EF
100
AcDbEntity
  8
LAYER_1
 62
     7
100
AcDb2dPolyline
 66
     1
 10
0.0
 20
0.0
 30
0.0
  0
VERTEX
  5
1F4
330
1F3
100
AcDbEntity
  8
LAYER_1
 62
     7
100
AcDbVertex
100
AcDb2dVertex
 10
95.11853712154821
 20
-60.47706326157569
 30
0.0
  0
VERTEX
  5
1F5
330
1F3
100
AcDbEntity
  8
LAYER_1
 62
     7
100
AcDbVertex
100
AcDb2dVertex
 10
95.1326621215484
 20
-58.47821826157581
 30
0.0
  0
SEQEND
  5
1F6
330
1F3
100
AcDbEntity
  8
LAYER_1
 62
     7
  0
ENDBLK
  5
1F2
330
1EF
100
AcDbEntity
  8
0
100
AcDbBlockEnd
  0
BLOCK
  5
1F9
330
1F7
100
AcDbEntity
  8
0
100
AcDbBlockBegin
  2
BLOCK_53
 70
     0
 10
0.0
 20
0.0
 30
0.0
  3
BLOCK_53
  1

  0
POLYLINE
  5
1FB
330
1F7
100
AcDbEntity
  8
LAYER_1
 62
     7
100
AcDb2dPolyline
 66
     1
 10
0.0
 20
0.0
 30
0.0
  0
VERTEX
  5
1FC
330
1FB
100
AcDbEntity
  8
LAYER_1
 62
     7
100
AcDbVertex
100
AcDb2dVertex
 10
95.29664812154799
 20
-36.0186072615757
 30
0.0
  0
VERTEX
  5
1FD
330
1FB
100
AcDbEntity
  8
LAYER_1
 62
     7
100
AcDbVertex
100
AcDb2dVertex
 10
95.31352912154789
 20
-32.60865226157543
 30
0.0
  0
SEQEND
  5
1FE
330
1FB
100
AcDbEntity
  8
LAYER_1
 62
     7
  0
ENDBLK
  5
1FA
330
1F7
100
AcDbEntity
  8
0
100
AcDbBlockEnd
  0
BLOCK
  5
201
330
1FF
100
AcDbEntity
  8
0
100
AcDbBlockBegin
  2
BLOCK_54
 70
     0
 10
0.0
 20
0.0
 30
0.0
  3
BLOCK_54
  1

  0
POLYLINE
  5
203
330
1FF
100
AcDbEntity
  8
LAYER_1
 62
     7
100
AcDb2dPolyline
 66
     1
 10
0.0
 20
0.0
 30
0.0
  0
VERTEX
  5
204
330
203
100
AcDbEntity
  8
LAYER_1
 62
     7
100
AcDbVertex
100
AcDb2dVertex
 10
100.1352851215481
 20
-63.0443482615757
 30
0.0
  0
VERTEX
  5
205
330
203
100
AcDbEntity
  8
LAYER_1
 62
     7
100
AcDbVertex
100
AcDb2dVertex
 10
98.4888741215483
 20
-63.02298826157554
 30
0.0
  0
SEQEND
  5
206
330
203
100
AcDbEntity
  8
LAYER_1
 62
     7
  0
ENDBLK
  5
202
330
1FF
100
AcDbEntity
  8
0
100
AcDbBlockEnd
  0
BLOCK
  5
209
330
207
100
AcDbEntity
  8
0
100
AcDbBlockBegin
  2
BLOCK_55
 70
     0
 10
0.0
 20
0.0
 30
0.0
  3
BLOCK_55
  1

  0
POLYLINE
  5
20B
330
207
100
AcDbEntity
  8
LAYER_1
 62
     7
100
AcDb2dPolyline
 66
     1
 10
0.0
 20
0.0
 30
0.0
  0
VERTEX
  5
20C
330
20B
100
AcDbEntity
  8
LAYER_1
 62
     7
100
AcDbVertex
100
AcDb2dVertex
 10
121.4190851215484
 20
-63.19248726157586
 30
0.0
  0
VERTEX
  5
20D
330
20B
100
AcDbEntity
  8
LAYER_1
 62
     7
100
AcDbVertex
100
AcDb2dVertex
 10
119.772674121548
 20
-63.17112826157575
 30
0.0
  0
SEQEND
  5
20E
330
20B
100
AcDbEntity
  8
LAYER_1
 62
     7
  0
ENDBLK
  5
20A
330
207
100
AcDbEntity
  8
0
100
AcDbBlockEnd
  0
BLOCK
  5
211
330
20F
100
AcDbEntity
  8
0
100
AcDbBlockBegin
  2
BLOCK_56
 70
     0
 10
0.0
 20
0.0
 30
0.0
  3
BLOCK_56
  1

  0
POLYLINE
  5
213
330
20F
100
AcDbEntity
  8
LAYER_1
 62
     7
100
AcDb2dPolyline
 66
     1
 10
0.0
 20
0.0
 30
0.0
  0
VERTEX
  5
214
330
213
100
AcDbEntity
  8
LAYER_1
 62
     7
100
AcDbVertex
100
AcDb2dVertex
 10
124.864180121548
 20
-55.83514126157583
 30
0.0
  0
VERTEX
  5
215
330
213
100
AcDbEntity
  8
LAYER_1
 62
     7
100
AcDbVertex
100
AcDb2dVertex
 10
125.4539811215483
 20
-55.83927526157571
 30
0.0
  0
VERTEX
  5
216
330
213
100
AcDbEntity
  8
LAYER_1
 62
     7
100
AcDbVertex
100
AcDb2dVertex
 10
125.5552671215483
 20
-41.37573126157572
 30
0.0
  0
VERTEX
  5
217
330
213
100
AcDbEntity
  8
LAYER_1
 62
     7
100
AcDbVertex
100
AcDb2dVertex
 10
124.965466121548
 20
-41.37159726157585
 30
0.0
  0
SEQEND
  5
218
330
213
100
AcDbEntity
  8
LAYER_1
 62
     7
  0
ENDBLK
  5
212
330
20F
100
AcDbEntity
  8
0
100
AcDbBlockEnd
  0
BLOCK
  5
21B
330
219
100
AcDbEntity
  8
0
100
AcDbBlockBegin
  2
BLOCK_57
 70
     0
 10
0.0
 20
0.0
 30
0.0
  3
BLOCK_57
  1

  0
POLYLINE
  5
21D
330
219
100
AcDbEntity
  8
LAYER_1
 62
     7
100
AcDb2dPolyline
 66
     1
 10
0.0
 20
0.0
 30
0.0
  0
VERTEX
  5
21E
330
21D
100
AcDbEntity
  8
LAYER_1
 62
     7
100
AcDbVertex
100
AcDb2dVertex
 10
95.26116412154833
 20
-41.16420226157587
 30
0.0
  0
VERTEX
  5
21F
330
21D
100
AcDbEntity
  8
LAYER_1
 62
     7
100
AcDbVertex
100
AcDb2dVertex
 10
94.67170812154838
 20
-41.16006826157535
 30
0.0
  0
VERTEX
  5
220
330
21D
100
AcDbEntity
  8
LAYER_1
 62
     7
100
AcDbVertex
100
AcDb2dVertex
 10
94.57111112154846
 20
-55.62361226157532
 30
0.0
  0
VERTEX
  5
221
330
21D
100
AcDbEntity
  8
LAYER_1
 62
     7
100
AcDbVertex
100
AcDb2dVertex
 10
95.15987812154832
 20
-55.62774626157584
 30
0.0
  0
SEQEND
  5
222
330
21D
100
AcDbEntity
  8
LAYER_1
 62
     7
  0
ENDBLK
  5
21C
330
219
100
AcDbEntity
  8
0
100
AcDbBlockEnd
  0
BLOCK
  5
225
330
223
100
AcDbEntity
  8
0
100
AcDbBlockBegin
  2
BLOCK_58
 70
     0
 10
0.0
 20
0.0
 30
0.0
  3
BLOCK_58
  1

  0
POLYLINE
  5
227
330
223
100
AcDbEntity
  8
LAYER_1
 62
     7
100
AcDb2dPolyline
 66
     1
 10
0.0
 20
0.0
 30
0.0
  0
VERTEX
  5
228
330
227
100
AcDbEntity
  8
LAYER_1
 62
     7
100
AcDbVertex
100
AcDb2dVertex
 10
102.2795125243262
 20
-28.05285795167988
 30
0.0
  0
VERTEX
  5
27A
330
227
100
AcDbEntity
  8
0
100
AcDbVertex
100
AcDb2dVertex
 10
102.2795125243262
 20
-28.05285795167988
 30
0.0
  0
SEQEND
  5
229
330
227
100
AcDbEntity
  8
LAYER_1
 62
     7
  0
ENDBLK
  5
226
330
223
100
AcDbEntity
  8
0
100
AcDbBlockEnd
  0
BLOCK
  5
22C
330
22A
100
AcDbEntity
  8
0
100
AcDbBlockBegin
  2
BLOCK_59
 70
     0
 10
0.0
 20
0.0
 30
0.0
  3
BLOCK_59
  1

  0
SPLINE
  5
22E
330
22A
100
AcDbEntity
  8
LAYER_1
 62
     7
100
AcDbSpline
210
0.0
220
0.0
230
1.0
 70
    11
 71
     3
 72
    41
 73
    37
 74
     0
 42
0.0000000001
 43
0.0000000001
 12
1.0
 22
0.0
 32
0.0
 13
1.0
 23
0.0
 33
0.0
 40
0.0
 40
0.0
 40
0.0
 40
0.0
 40
1.0
 40
1.0
 40
1.0
 40
2.0
 40
2.0
 40
2.0
 40
3.0
 40
3.0
 40
3.0
 40
4.0
 40
4.0
 40
4.0
 40
5.0
 40
5.0
 40
5.0
 40
6.0
 40
6.0
 40
6.0
 40
7.0
 40
7.0
 40
7.0
 40
8.0
 40
8.0
 40
8.0
 40
9.0
 40
9.0
 40
9.0
 40
10.0
 40
10.0
 40
10.0
 40
11.0
 40
11.0
 40
11.0
 40
12.0
 40
12.0
 40
12.0
 40
12.0
 10
106.7316094210272
 20
-78.75880684490869
 30
0.0
 10
106.7236857014092
 20
-79.86330445775636
 30
0.0
 10
107.6135538654719
 20
-80.76523045602
 30
0.0
 10
108.718051478319
 20
-80.77280966608947
 30
0.0
 10
108.718051478319
 20
-80.77280966608947
 30
0.0
 10
111.4500121988055
 20
-80.79416925810315
 30
0.0
 10
111.4500121988055
 20
-80.79416925810315
 30
0.0
 10
112.5548543212011
 20
-80.80174846817263
 30
0.0
 10
113.4567803194647
 20
-79.9122248136591
 30
0.0
 10
113.4643595295342
 20
-78.80772720081143
 30
0.0
 10
113.4643595295342
 20
-78.80772720081143
 30
0.0
 10
113.5849378715481
 20
-66.49702299074207
 30
0.0
 10
113.5849378715481
 20
-66.49702299074207
 30
0.0
 10
113.5849378715481
 20
-66.49702299074207
 30
0.0
 10
113.5849378715481
 20
-65.75219334664496
 30
0.0
 10
113.5849378715481
 20
-65.75219334664496
 30
0.0
 10
113.5849378715481
 20
-65.75219334664496
 30
0.0
 10
113.5907945338743
 20
-63.12840862442287
 30
0.0
 10
113.5907945338743
 20
-63.12840862442287
 30
0.0
 10
113.5907945338743
 20
-62.30020766956154
 30
0.0
 10
112.9193454236316
 20
-61.62841404977033
 30
0.0
 10
112.0907999592218
 20
-61.62841404977033
 30
0.0
 10
112.0907999592218
 20
-61.62841404977033
 30
0.0
 10
108.1055135008888
 20
-61.62841404977033
 30
0.0
 10
108.1055135008888
 20
-61.62841404977033
 30
0.0
 10
107.276968036479
 20
-61.62841404977033
 30
0.0
 10
106.6055189262357
 20
-62.30020766956154
 30
0.0
 10
106.6055189262357
 20
-63.12840862442287
 30
0.0
 10
106.6055189262357
 20
-63.12840862442287
 30
0.0
 10
106.6110310790133
 20
-65.70327299074222
 30
0.0
 10
106.6110310790133
 20
-65.70327299074222
 30
0.0
 10
106.6110310790133
 20
-65.70327299074222
 30
0.0
 10
106.6110310790133
 20
-66.44810263483933
 30
0.0
 10
106.6110310790133
 20
-66.44810263483933
 30
0.0
 10
106.6110310790133
 20
-66.44810263483933
 30
0.0
 10
106.7316094210272
 20
-78.75880684490869
 30
0.0
 10
106.7316094210272
 20
-78.75880684490869
 30
0.0
  0
ENDBLK
  5
22D
330
22A
100
AcDbEntity
  8
0
100
AcDbBlockEnd
  0
BLOCK
  5
231
330
22F
100
AcDbEntity
  8
0
100
AcDbBlockBegin
  2
BLOCK_60
 70
     0
 10
0.0
 20
0.0
 30
0.0
  3
BLOCK_60
  1

  0
POLYLINE
  5
233
330
22F
100
AcDbEntity
  8
LAYER_1
 62
     7
100
AcDb2dPolyline
 66
     1
 10
0.0
 20
0.0
 30
0.0
  0
VERTEX
  5
234
330
233
100
AcDbEntity
  8
LAYER_1
 62
     7
100
AcDbVertex
100
AcDb2dVertex
 10
110.1202051215484
 20
-59.60476526157552
 30
0.0
  0
VERTEX
  5
235
330
233
100
AcDbEntity
  8
LAYER_1
 62
     7
100
AcDbVertex
100
AcDb2dVertex
 10
110.1202051215484
 20
-61.62841426157594
 30
0.0
  0
SEQEND
  5
236
330
233
100
AcDbEntity
  8
LAYER_1
 62
     7
  0
ENDBLK
  5
232
330
22F
100
AcDbEntity
  8
0
100
AcDbBlockEnd
  0
BLOCK
  5
239
330
237
100
AcDbEntity
  8
0
100
AcDbBlockBegin
  2
BLOCK_61
 70
     0
 10
0.0
 20
0.0
 30
0.0
  3
BLOCK_61
  1

  0
SPLINE
  5
23B
330
237
100
AcDbEntity
  8
LAYER_1
 62
     7
100
AcDbSpline
210
0.0
220
0.0
230
1.0
 70
    11
 71
     3
 72
    20
 73
    16
 74
     0
 42
0.0000000001
 43
0.0000000001
 12
1.0
 22
0.0
 32
0.0
 13
1.0
 23
0.0
 33
0.0
 40
0.0
 40
0.0
 40
0.0
 40
0.0
 40
1.0
 40
1.0
 40
1.0
 40
2.0
 40
2.0
 40
2.0
 40
3.0
 40
3.0
 40
3.0
 40
4.0
 40
4.0
 40
4.0
 40
5.0
 40
5.0
 40
5.0
 40
5.0
 10
114.6153659314443
 20
-56.78323175810344
 30
0.0
 10
114.6153659314443
 20
-56.78323175810344
 30
0.0
 10
111.3046291692914
 20
-53.59755196209657
 30
0.0
 10
111.3046291692914
 20
-53.59755196209657
 30
0.0
 10
110.6886460963747
 20
-52.97467869820746
 30
0.0
 10
109.6788886093951
 20
-52.96778850723503
 30
0.0
 10
109.0560153455067
 20
-53.58170452286056
 30
0.0
 10
109.0560153455067
 20
-53.58170452286056
 30
0.0
 10
105.6436482665133
 20
-56.82250584664491
 30
0.0
 10
105.6436482665133
 20
-56.82250584664491
 30
0.0
 10
106.4615139349163
 20
-58.46995050810335
 30
0.0
 10
108.1561564045342
 20
-59.60476496122828
 30
0.0
 10
110.120205341166
 20
-59.60476496122828
 30
0.0
 10
112.0994126979375
 20
-59.60476496122828
 30
0.0
 10
113.8050794731107
 20
-58.45203601157557
 30
0.0
 10
114.6153659314443
 20
-56.78323175810344
 30
0.0
  0
ENDBLK
  5
23A
330
237
100
AcDbEntity
  8
0
100
AcDbBlockEnd
  0
BLOCK
  5
23E
330
23C
100
AcDbEntity
  8
0
100
AcDbBlockBegin
  2
BLOCK_62
 70
     0
 10
0.0
 20
0.0
 30
0.0
  3
BLOCK_62
  1

  0
SPLINE
  5
240
330
23C
100
AcDbEntity
  8
LAYER_1
 62
     7
100
AcDbSpline
210
0.0
220
0.0
230
1.0
 70
     8
 71
     3
 72
    32
 73
    28
 74
     0
 42
0.0000000001
 43
0.0000000001
 12
1.0
 22
0.0
 32
0.0
 13
1.0
 23
0.0
 33
0.0
 40
0.0
 40
0.0
 40
0.0
 40
0.0
 40
1.0
 40
1.0
 40
1.0
 40
2.0
 40
2.0
 40
2.0
 40
3.0
 40
3.0
 40
3.0
 40
4.0
 40
4.0
 40
4.0
 40
5.0
 40
5.0
 40
5.0
 40
6.0
 40
6.0
 40
6.0
 40
7.0
 40
7.0
 40
7.0
 40
8.0
 40
8.0
 40
8.0
 40
9.0
 40
9.0
 40
9.0
 40
9.0
 10
104.1202270425553
 20
-63.26001127199214
 30
0.0
 10
104.1202270425553
 20
-63.26001127199214
 30
0.0
 10
104.1202270425553
 20
-62.08867880671458
 30
0.0
 10
104.1202270425553
 20
-62.08867880671458
 30
0.0
 10
104.1202270425553
 20
-62.08867880671458
 30
0.0
 10
102.7335761093957
 20
-61.03034547338145
 30
0.0
 10
102.7335761093957
 20
-61.03034547338145
 30
0.0
 10
102.7335761093957
 20
-61.03034547338145
 30
0.0
 10
102.7135945555761
 20
-59.60476496122828
 30
0.0
 10
102.7135945555761
 20
-59.60476496122828
 30
0.0
 10
102.7135945555761
 20
-59.60476496122828
 30
0.0
 10
109.0560153455067
 20
-53.58170452286056
 30
0.0
 10
109.0560153455067
 20
-53.58170452286056
 30
0.0
 10
109.6788886093951
 20
-52.96778850723503
 30
0.0
 10
110.6886460963747
 20
-52.97467869820746
 30
0.0
 10
111.3046291692914
 20
-53.59755196209657
 30
0.0
 10
111.3046291692914
 20
-53.59755196209657
 30
0.0
 10
117.5474866996732
 20
-59.60476496122828
 30
0.0
 10
117.5474866996732
 20
-59.60476496122828
 30
0.0
 10
117.5474866996732
 20
-59.60476496122828
 30
0.0
 10
117.5275051458537
 20
-61.03034547338145
 30
0.0
 10
117.5275051458537
 20
-61.03034547338145
 30
0.0
 10
117.5275051458537
 20
-61.03034547338145
 30
0.0
 10
116.1201836397774
 20
-62.08867880671458
 30
0.0
 10
116.1201836397774
 20
-62.08867880671458
 30
0.0
 10
116.1201836397774
 20
-62.08867880671458
 30
0.0
 10
116.1201836397774
 20
-63.26001127199214
 30
0.0
 10
116.1201836397774
 20
-63.26001127199214
 30
0.0
  0
ENDBLK
  5
23F
330
23C
100
AcDbEntity
  8
0
100
AcDbBlockEnd
  0
ENDSEC
  0
SECTION
  2
ENTITIES
  0
INSERT
  5
42
330
1F
100
AcDbEntity
  8
LAYER_1
100
AcDbBlockReference
  2
BLOCK_2
 10
0.0
 20
0.0
 30
0.0
  0
INSERT
  5
47
330
1F
100
AcDbEntity
  8
LAYER_1
100
AcDbBlockReference
  2
BLOCK_3
 10
0.0
 20
0.0
 30
0.0
  0
INSERT
  5
4C
330
1F
100
AcDbEntity
  8
LAYER_1
100
AcDbBlockReference
  2
BLOCK_4
 10
0.0
 20
0.0
 30
0.0
  0
INSERT
  5
51
330
1F
100
AcDbEntity
  8
LAYER_1
100
AcDbBlockReference
  2
BLOCK_5
 10
0.0
 20
0.0
 30
0.0
  0
INSERT
  5
56
330
1F
100
AcDbEntity
  8
LAYER_1
100
AcDbBlockReference
  2
BLOCK_6
 10
0.0
 20
0.0
 30
0.0
  0
INSERT
  5
60
330
1F
100
AcDbEntity
  8
LAYER_1
100
AcDbBlockReference
  2
BLOCK_7
 10
0.0
 20
0.0
 30
0.0
  0
INSERT
  5
68
330
1F
100
AcDbEntity
  8
LAYER_1
100
AcDbBlockReference
  2
BLOCK_8
 10
0.0
 20
0.0
 30
0.0
  0
INSERT
  5
70
330
1F
100
AcDbEntity
  8
LAYER_1
100
AcDbBlockReference
  2
BLOCK_9
 10
0.0
 20
0.0
 30
0.0
  0
INSERT
  5
78
330
1F
100
AcDbEntity
  8
LAYER_1
100
AcDbBlockReference
  2
BLOCK_10
 10
0.0
 20
0.0
 30
0.0
  0
INSERT
  5
80
330
1F
100
AcDbEntity
  8
LAYER_1
100
AcDbBlockReference
  2
BLOCK_11
 10
0.0
 20
0.0
 30
0.0
  0
INSERT
  5
88
330
1F
100
AcDbEntity
  8
LAYER_1
100
AcDbBlockReference
  2
BLOCK_12
 10
0.0
 20
0.0
 30
0.0
  0
INSERT
  5
90
330
1F
100
AcDbEntity
  8
LAYER_1
100
AcDbBlockReference
  2
BLOCK_13
 10
0.0
 20
0.0
 30
0.0
  0
INSERT
  5
98
330
1F
100
AcDbEntity
  8
LAYER_1
100
AcDbBlockReference
  2
BLOCK_14
 10
0.0
 20
0.0
 30
0.0
  0
INSERT
  5
A0
330
1F
100
AcDbEntity
  8
LAYER_1
100
AcDbBlockReference
  2
BLOCK_15
 10
0.0
 20
0.0
 30
0.0
  0
INSERT
  5
A8
330
1F
100
AcDbEntity
  8
LAYER_1
100
AcDbBlockReference
  2
BLOCK_16
 10
0.0
 20
0.0
 30
0.0
  0
INSERT
  5
B0
330
1F
100
AcDbEntity
  8
LAYER_1
100
AcDbBlockReference
  2
BLOCK_17
 10
0.0
 20
0.0
 30
0.0
  0
INSERT
  5
B8
330
1F
100
AcDbEntity
  8
LAYER_1
100
AcDbBlockReference
  2
BLOCK_18
 10
0.0
 20
0.0
 30
0.0
  0
INSERT
  5
C2
330
1F
100
AcDbEntity
  8
LAYER_1
100
AcDbBlockReference
  2
BLOCK_19
 10
0.0
 20
0.0
 30
0.0
  0
INSERT
  5
C6
330
1F
100
AcDbEntity
  8
LAYER_1
100
AcDbBlockReference
  2
BLOCK_20
 10
0.0
 20
0.0
 30
0.0
  0
INSERT
  5
CE
330
1F
100
AcDbEntity
  8
LAYER_1
100
AcDbBlockReference
  2
BLOCK_21
 10
0.0
 20
0.0
 30
0.0
  0
INSERT
  5
D6
330
1F
100
AcDbEntity
  8
LAYER_1
100
AcDbBlockReference
  2
BLOCK_22
 10
0.0
 20
0.0
 30
0.0
  0
INSERT
  5
DE
330
1F
100
AcDbEntity
  8
LAYER_1
100
AcDbBlockReference
  2
BLOCK_23
 10
0.0
 20
0.0
 30
0.0
  0
INSERT
  5
E6
330
1F
100
AcDbEntity
  8
LAYER_1
100
AcDbBlockReference
  2
BLOCK_24
 10
0.0
 20
0.0
 30
0.0
  0
INSERT
  5
EE
330
1F
100
AcDbEntity
  8
LAYER_1
100
AcDbBlockReference
  2
BLOCK_25
 10
0.0
 20
0.0
 30
0.0
  0
INSERT
  5
F6
330
1F
100
AcDbEntity
  8
LAYER_1
100
AcDbBlockReference
  2
BLOCK_26
 10
0.0
 20
0.0
 30
0.0
  0
INSERT
  5
100
330
1F
100
AcDbEntity
  8
LAYER_1
100
AcDbBlockReference
  2
BLOCK_27
 10
0.0
 20
0.0
 30
0.0
  0
INSERT
  5
10A
330
1F
100
AcDbEntity
  8
LAYER_1
100
AcDbBlockReference
  2
BLOCK_28
 10
0.0
 20
0.0
 30
0.0
  0
INSERT
  5
111
330
1F
100
AcDbEntity
  8
LAYER_1
100
AcDbBlockReference
  2
BLOCK_29
 10
0.0
 20
0.0
 30
0.0
  0
INSERT
  5
116
330
1F
100
AcDbEntity
  8
LAYER_1
100
AcDbBlockReference
  2
BLOCK_30
 10
0.0
 20
0.0
 30
0.0
  0
INSERT
  5
11E
330
1F
100
AcDbEntity
  8
LAYER_1
100
AcDbBlockReference
  2
BLOCK_31
 10
0.0
 20
0.0
 30
0.0
  0
INSERT
  5
123
330
1F
100
AcDbEntity
  8
LAYER_1
100
AcDbBlockReference
  2
BLOCK_32
 10
0.0
 20
0.0
 30
0.0
  0
SPLINE
  5
127
330
1F
100
AcDbEntity
  8
LAYER_1
 62
     7
100
AcDbSpline
210
0.0
220
0.0
230
1.0
 70
    11
 71
     3
 72
    23
 73
    19
 74
     0
 42
0.0000000001
 43
0.0000000001
 12
1.0
 22
0.0
 32
0.0
 13
1.0
 23
0.0
 33
0.0
 40
0.0
 40
0.0
 40
0.0
 40
0.0
 40
1.0
 40
1.0
 40
1.0
 40
2.0
 40
2.0
 40
2.0
 40
3.0
 40
3.0
 40
3.0
 40
4.0
 40
4.0
 40
4.0
 40
5.0
 40
5.0
 40
5.0
 40
6.0
 40
6.0
 40
6.0
 40
6.0
 10
80.32735953508313
 20
-102.4120399325031
 30
0.0
 10
80.39195507543157
 20
-100.7265700300382
 30
0.0
 10
81.82382288648853
 20
-99.40040205483808
 30
0.0
 10
83.50929278895345
 20
-99.46499759518652
 30
0.0
 10
83.50929278895345
 20
-99.46499759518652
 30
0.0
 10
98.0826280514234
 20
-100.0235552325794
 30
0.0
 10
98.0826280514234
 20
-100.0235552325794
 30
0.0
 10
99.76809795388832
 20
-100.0881507729279
 30
0.0
 10
101.0942659290885
 20
-101.5200185839848
 30
0.0
 10
101.0296488568932
 20
-103.2054884864497
 30
0.0
 10
101.0296488568932
 20
-103.2054884864497
 30
0.0
 10
100.8871941585782
 20
-106.9224881328729
 30
0.0
 10
100.8871941585782
 20
-106.9224881328729
 30
0.0
 10
100.8871941585782
 20
-106.9224881328729
 30
0.0
 10
80.18912507873749
 20
-106.0187103960112
 30
0.0
 10
80.18912507873749
 20
-106.0187103960112
 30
0.0
 10
80.18912507873749
 20
-106.0187103960112
 30
0.0
 10
80.32735953508313
 20
-102.4120399325031
 30
0.0
 10
80.32735953508313
 20
-102.4120399325031
 30
0.0
  0
POLYLINE
  5
128
330
1F
100
AcDbEntity
  8
LAYER_1
 62
     7
100
AcDb2dPolyline
 66
     1
 10
0.0
 20
0.0
 30
0.0
  0
VERTEX
  5
129
330
128
100
AcDbEntity
  8
LAYER_1
 62
     7
100
AcDbVertex
100
AcDb2dVertex
 10
94.56217655513302
 20
-133.8277104747034
 30
0.0
  0
VERTEX
  5
12A
330
128
100
AcDbEntity
  8
LAYER_1
 62
     7
100
AcDbVertex
100
AcDb2dVertex
 10
83.69976872494992
 20
-133.2584358026735
 30
0.0
  0
VERTEX
  5
12B
330
128
100
AcDbEntity
  8
LAYER_1
 62
     7
100
AcDbVertex
100
AcDb2dVertex
 10
83.83824094247052
 20
-130.6162284926299
 30
0.0
  0
VERTEX
  5
12C
330
128
100
AcDbEntity
  8
LAYER_1
 62
     7
100
AcDbVertex
100
AcDb2dVertex
 10
94.70064877265362
 20
-131.1855031646591
 30
0.0
  0
VERTEX
  5
12D
330
128
100
AcDbEntity
  8
LAYER_1
 62
     7
100
AcDbVertex
100
AcDb2dVertex
 10
94.56217655513302
 20
-133.8277104747034
 30
0.0
  0
SEQEND
  5
12E
330
128
100
AcDbEntity
  8
LAYER_1
 62
     7
  0
SPLINE
  5
12F
330
1F
100
AcDbEntity
  8
LAYER_1
 62
     7
100
AcDbSpline
210
0.0
220
0.0
230
1.0
 70
    11
 71
     3
 72
    17
 73
    13
 74
     0
 42
0.0000000001
 43
0.0000000001
 12
1.0
 22
0.0
 32
0.0
 13
1.0
 23
0.0
 33
0.0
 40
0.0
 40
0.0
 40
0.0
 40
0.0
 40
1.0
 40
1.0
 40
1.0
 40
2.0
 40
2.0
 40
2.0
 40
3.0
 40
3.0
 40
3.0
 40
4.0
 40
4.0
 40
4.0
 40
4.0
 10
108.1126161656843
 20
-153.1953250236394
 30
0.0
 10
108.0521256999565
 20
-154.3495518685307
 30
0.0
 10
107.0674027561432
 20
-155.236200389655
 30
0.0
 10
105.9131759112519
 20
-155.1757099239271
 30
0.0
 10
104.7589490663612
 20
-155.1152194581993
 30
0.0
 10
103.8723005452357
 20
-154.1304965143867
 30
0.0
 10
103.9327910109635
 20
-152.9762696694953
 30
0.0
 10
103.9932814766916
 20
-151.822042824604
 30
0.0
 10
104.9780044205049
 20
-150.9353943034791
 30
0.0
 10
106.1322312653959
 20
-150.995884769207
 30
0.0
 10
107.286458110287
 20
-151.0563752349348
 30
0.0
 10
108.1731066314124
 20
-152.041098178748
 30
0.0
 10
108.1126161656843
 20
-153.1953250236394
 30
0.0
  0
SPLINE
  5
130
330
1F
100
AcDbEntity
  8
LAYER_1
 62
     7
100
AcDbSpline
210
0.0
220
0.0
230
1.0
 70
    11
 71
     3
 72
    17
 73
    13
 74
     0
 42
0.0000000001
 43
0.0000000001
 12
1.0
 22
0.0
 32
0.0
 13
1.0
 23
0.0
 33
0.0
 40
0.0
 40
0.0
 40
0.0
 40
0.0
 40
1.0
 40
1.0
 40
1.0
 40
2.0
 40
2.0
 40
2.0
 40
3.0
 40
3.0
 40
3.0
 40
4.0
 40
4.0
 40
4.0
 40
4.0
 10
107.7942081729349
 20
-159.2709114559298
 30
0.0
 10
107.7337177072071
 20
-160.4251383008212
 30
0.0
 10
106.7489947633938
 20
-161.3117868219454
 30
0.0
 10
105.5947679185028
 20
-161.2512963562176
 30
0.0
 10
104.4405410736117
 20
-161.1908058904897
 30
0.0
 10
103.5538925524863
 20
-160.2060829466772
 30
0.0
 10
103.6143830182141
 20
-159.0518561017858
 30
0.0
 10
103.6748734839422
 20
-157.8976292568938
 30
0.0
 10
104.6595964277555
 20
-157.0109807357696
 30
0.0
 10
105.8138232726465
 20
-157.0714712014974
 30
0.0
 10
106.9680501175375
 20
-157.1319616672252
 30
0.0
 10
107.854698638663
 20
-158.1166846110378
 30
0.0
 10
107.7942081729349
 20
-159.2709114559298
 30
0.0
  0
POLYLINE
  5
131
330
1F
100
AcDbEntity
  8
LAYER_1
 62
     7
100
AcDb2dPolyline
 66
     1
 10
0.0
 20
0.0
 30
0.0
  0
VERTEX
  5
132
330
131
100
AcDbEntity
  8
LAYER_1
 62
     7
100
AcDbVertex
100
AcDb2dVertex
 10
101.2841028100846
 20
-153.6285024020089
 30
0.0
  0
VERTEX
  5
133
330
131
100
AcDbEntity
  8
LAYER_1
 62
     7
100
AcDbVertex
100
AcDb2dVertex
 10
91.8895879299266
 20
-153.1361567397124
 30
0.0
  0
VERTEX
  5
134
330
131
100
AcDbEntity
  8
LAYER_1
 62
     7
100
AcDbVertex
100
AcDb2dVertex
 10
91.98558093934813
 20
-151.3045010058225
 30
0.0
  0
VERTEX
  5
135
330
131
100
AcDbEntity
  8
LAYER_1
 62
     7
100
AcDbVertex
100
AcDb2dVertex
 10
101.3800958195061
 20
-151.796846668119
 30
0.0
  0
VERTEX
  5
136
330
131
100
AcDbEntity
  8
LAYER_1
 62
     7
100
AcDbVertex
100
AcDb2dVertex
 10
101.2841028100846
 20
-153.6285024020089
 30
0.0
  0
SEQEND
  5
137
330
131
100
AcDbEntity
  8
LAYER_1
 62
     7
  0
POLYLINE
  5
138
330
1F
100
AcDbEntity
  8
LAYER_1
 62
     7
100
AcDb2dPolyline
 66
     1
 10
0.0
 20
0.0
 30
0.0
  0
VERTEX
  5
139
330
138
100
AcDbEntity
  8
LAYER_1
 62
     7
100
AcDbVertex
100
AcDb2dVertex
 10
100.9656948173352
 20
-159.7040888342994
 30
0.0
  0
VERTEX
  5
13A
330
138
100
AcDbEntity
  8
LAYER_1
 62
     7
100
AcDbVertex
100
AcDb2dVertex
 10
91.5711799371775
 20
-159.2117431720029
 30
0.0
  0
VERTEX
  5
13B
330
138
100
AcDbEntity
  8
LAYER_1
 62
     7
100
AcDbVertex
100
AcDb2dVertex
 10
91.66717294659871
 20
-157.380087438113
 30
0.0
  0
VERTEX
  5
13C
330
138
100
AcDbEntity
  8
LAYER_1
 62
     7
100
AcDbVertex
100
AcDb2dVertex
 10
101.0616878267567
 20
-157.8724331004094
 30
0.0
  0
VERTEX
  5
13D
330
138
100
AcDbEntity
  8
LAYER_1
 62
     7
100
AcDbVertex
100
AcDb2dVertex
 10
100.9656948173352
 20
-159.7040888342994
 30
0.0
  0
SEQEND
  5
13E
330
138
100
AcDbEntity
  8
LAYER_1
 62
     7
  0
SPLINE
  5
13F
330
1F
100
AcDbEntity
  8
LAYER_1
 62
     7
100
AcDbSpline
210
0.0
220
0.0
230
1.0
 70
    11
 71
     3
 72
    17
 73
    13
 74
     0
 42
0.0000000001
 43
0.0000000001
 12
1.0
 22
0.0
 32
0.0
 13
1.0
 23
0.0
 33
0.0
 40
0.0
 40
0.0
 40
0.0
 40
0.0
 40
1.0
 40
1.0
 40
1.0
 40
2.0
 40
2.0
 40
2.0
 40
3.0
 40
3.0
 40
3.0
 40
4.0
 40
4.0
 40
4.0
 40
4.0
 10
107.4758001801855
 20
-165.3464978882203
 30
0.0
 10
107.4153097144576
 20
-166.500724733111
 30
0.0
 10
106.4305867706444
 20
-167.3873732542358
 30
0.0
 10
105.2763599257534
 20
-167.326882788508
 30
0.0
 10
104.1221330808623
 20
-167.2663923227802
 30
0.0
 10
103.2354845597368
 20
-166.2816693789669
 30
0.0
 10
103.2959750254647
 20
-165.1274425340762
 30
0.0
 10
103.3564654911928
 20
-163.9732156891842
 30
0.0
 10
104.3411884350064
 20
-163.08656716806
 30
0.0
 10
105.4954152798971
 20
-163.1470576337879
 30
0.0
 10
106.6496421247885
 20
-163.2075480995157
 30
0.0
 10
107.5362906459136
 20
-164.1922710433283
 30
0.0
 10
107.4758001801855
 20
-165.3464978882203
 30
0.0
  0
POLYLINE
  5
140
330
1F
100
AcDbEntity
  8
LAYER_1
 62
     7
100
AcDb2dPolyline
 66
     1
 10
0.0
 20
0.0
 30
0.0
  0
VERTEX
  5
141
330
140
100
AcDbEntity
  8
LAYER_1
 62
     7
100
AcDbVertex
100
AcDb2dVertex
 10
100.9656948173352
 20
-159.7040888342994
 30
0.0
  0
VERTEX
  5
142
330
140
100
AcDbEntity
  8
LAYER_1
 62
     7
100
AcDbVertex
100
AcDb2dVertex
 10
91.5711799371775
 20
-159.2117431720029
 30
0.0
  0
VERTEX
  5
143
330
140
100
AcDbEntity
  8
LAYER_1
 62
     7
100
AcDbVertex
100
AcDb2dVertex
 10
91.66717294659871
 20
-157.380087438113
 30
0.0
  0
VERTEX
  5
144
330
140
100
AcDbEntity
  8
LAYER_1
 62
     7
100
AcDbVertex
100
AcDb2dVertex
 10
101.0616878267567
 20
-157.8724331004094
 30
0.0
  0
VERTEX
  5
145
330
140
100
AcDbEntity
  8
LAYER_1
 62
     7
100
AcDbVertex
100
AcDb2dVertex
 10
100.9656948173352
 20
-159.7040888342994
 30
0.0
  0
SEQEND
  5
146
330
140
100
AcDbEntity
  8
LAYER_1
 62
     7
  0
POLYLINE
  5
147
330
1F
100
AcDbEntity
  8
LAYER_1
 62
     7
100
AcDb2dPolyline
 66
     1
 10
0.0
 20
0.0
 30
0.0
  0
VERTEX
  5
148
330
147
100
AcDbEntity
  8
LAYER_1
 62
     7
100
AcDbVertex
100
AcDb2dVertex
 10
100.6472868245861
 20
-165.7796752665892
 30
0.0
  0
VERTEX
  5
149
330
147
100
AcDbEntity
  8
LAYER_1
 62
     7
100
AcDbVertex
100
AcDb2dVertex
 10
91.2527719444281
 20
-165.2873296042927
 30
0.0
  0
VERTEX
  5
14A
330
147
100
AcDbEntity
  8
LAYER_1
 62
     7
100
AcDbVertex
100
AcDb2dVertex
 10
91.3487649538493
 20
-163.4556738704028
 30
0.0
  0
VERTEX
  5
14B
330
147
100
AcDbEntity
  8
LAYER_1
 62
     7
100
AcDbVertex
100
AcDb2dVertex
 10
100.7432798340073
 20
-163.9480195326992
 30
0.0
  0
VERTEX
  5
14C
330
147
100
AcDbEntity
  8
LAYER_1
 62
     7
100
AcDbVertex
100
AcDb2dVertex
 10
100.6472868245861
 20
-165.7796752665892
 30
0.0
  0
SEQEND
  5
14D
330
147
100
AcDbEntity
  8
LAYER_1
 62
     7
  0
POLYLINE
  5
14E
330
1F
100
AcDbEntity
  8
LAYER_1
 62
     7
100
AcDb2dPolyline
 66
     1
 10
0.0
 20
0.0
 30
0.0
  0
VERTEX
  5
14F
330
14E
100
AcDbEntity
  8
LAYER_1
 62
     7
100
AcDbVertex
100
AcDb2dVertex
 10
70.6181598356556
 20
-164.6777058705994
 30
0.0
  0
VERTEX
  5
150
330
14E
100
AcDbEntity
  8
LAYER_1
 62
     7
100
AcDbVertex
100
AcDb2dVertex
 10
68.152099919572
 20
-164.5484650894251
 30
0.0
  0
VERTEX
  5
151
330
14E
100
AcDbEntity
  8
LAYER_1
 62
     7
100
AcDbVertex
100
AcDb2dVertex
 10
68.97927610835721
 20
-148.76500316593
 30
0.0
  0
VERTEX
  5
152
330
14E
100
AcDbEntity
  8
LAYER_1
 62
     7
100
AcDbVertex
100
AcDb2dVertex
 10
71.44533602444083
 20
-148.8942439471043
 30
0.0
  0
VERTEX
  5
153
330
14E
100
AcDbEntity
  8
LAYER_1
 62
     7
100
AcDbVertex
100
AcDb2dVertex
 10
70.6181598356556
 20
-164.6777058705994
 30
0.0
  0
SEQEND
  5
154
330
14E
100
AcDbEntity
  8
LAYER_1
 62
     7
  0
POLYLINE
  5
155
330
1F
100
AcDbEntity
  8
LAYER_1
 62
     7
100
AcDb2dPolyline
 66
     1
 10
0.0
 20
0.0
 30
0.0
  0
VERTEX
  5
156
330
155
100
AcDbEntity
  8
LAYER_1
 62
     7
100
AcDbVertex
100
AcDb2dVertex
 10
75.55027964897742
 20
-164.9361874275397
 30
0.0
  0
VERTEX
  5
157
330
155
100
AcDbEntity
  8
LAYER_1
 62
     7
100
AcDbVertex
100
AcDb2dVertex
 10
73.08421973289381
 20
-164.8069466463654
 30
0.0
  0
VERTEX
  5
158
330
155
100
AcDbEntity
  8
LAYER_1
 62
     7
100
AcDbVertex
100
AcDb2dVertex
 10
73.91139592167903
 20
-149.0234847228704
 30
0.0
  0
VERTEX
  5
159
330
155
100
AcDbEntity
  8
LAYER_1
 62
     7
100
AcDbVertex
100
AcDb2dVertex
 10
76.37745583776265
 20
-149.1527255040447
 30
0.0
  0
VERTEX
  5
15A
330
155
100
AcDbEntity
  8
LAYER_1
 62
     7
100
AcDbVertex
100
AcDb2dVertex
 10
75.55027964897742
 20
-164.9361874275397
 30
0.0
  0
SEQEND
  5
15B
330
155
100
AcDbEntity
  8
LAYER_1
 62
     7
  0
SPLINE
  5
15C
330
1F
100
AcDbEntity
  8
LAYER_1
 62
     7
100
AcDbSpline
210
0.0
220
0.0
230
1.0
 70
     8
 71
     3
 72
    35
 73
    31
 74
     0
 42
0.0000000001
 43
0.0000000001
 12
1.0
 22
0.0
 32
0.0
 13
1.0
 23
0.0
 33
0.0
 40
0.0
 40
0.0
 40
0.0
 40
0.0
 40
1.0
 40
1.0
 40
1.0
 40
2.0
 40
2.0
 40
2.0
 40
3.0
 40
3.0
 40
3.0
 40
4.0
 40
4.0
 40
4.0
 40
5.0
 40
5.0
 40
5.0
 40
6.0
 40
6.0
 40
6.0
 40
7.0
 40
7.0
 40
7.0
 40
8.0
 40
8.0
 40
8.0
 40
9.0
 40
9.0
 40
9.0
 40
10.0
 40
10.0
 40
10.0
 40
10.0
 10
126.8977296677548
 20
-142.0727901915952
 30
0.0
 10
126.8977296677548
 20
-142.0727901915952
 30
0.0
 10
126.8977296677548
 20
-153.8339873141246
 30
0.0
 10
126.8977296677548
 20
-153.8339873141246
 30
0.0
 10
124.6884545286044
 20
-154.9625790632457
 30
0.0
 10
123.1726986424816
 20
-157.2550317265181
 30
0.0
 10
123.1726986424816
 20
-159.9061618934985
 30
0.0
 10
123.1726986424816
 20
-162.1690943948317
 30
0.0
 10
124.2793925034246
 20
-164.1687785373982
 30
0.0
 10
125.9761020299101
 20
-165.4094435490238
 30
0.0
 10
125.9761020299101
 20
-165.4094435490238
 30
0.0
 10
125.9761020299101
 20
-161.1364700868216
 30
0.0
 10
125.9761020299101
 20
-161.1364700868216
 30
0.0
 10
125.9761020299101
 20
-161.1364700868216
 30
0.0
 10
129.9930618338646
 20
-158.817274869845
 30
0.0
 10
129.9930618338646
 20
-158.817274869845
 30
0.0
 10
129.9930618338646
 20
-158.817274869845
 30
0.0
 10
134.0100431696659
 20
-161.1364700868216
 30
0.0
 10
134.0100431696659
 20
-161.1364700868216
 30
0.0
 10
134.0100431696659
 20
-161.1364700868216
 30
0.0
 10
134.0100431696659
 20
-165.4094435490238
 30
0.0
 10
134.0100431696659
 20
-165.4094435490238
 30
0.0
 10
135.7067526961515
 20
-164.1687785373982
 30
0.0
 10
136.8134465570944
 20
-162.1690943948317
 30
0.0
 10
136.8134465570944
 20
-159.9061618934985
 30
0.0
 10
136.8134465570944
 20
-157.2550317265181
 30
0.0
 10
135.2976906709716
 20
-154.9625790632457
 30
0.0
 10
133.0883939999745
 20
-153.8339873141246
 30
0.0
 10
133.0883939999745
 20
-153.8339873141246
 30
0.0
 10
133.0883939999745
 20
-142.0727901915952
 30
0.0
 10
133.0883939999745
 20
-142.0727901915952
 30
0.0
  0
SPLINE
  5
15D
330
1F
100
AcDbEntity
  8
LAYER_1
 62
     7
100
AcDbSpline
210
0.0
220
0.0
230
1.0
 70
     8
 71
     3
 72
    35
 73
    31
 74
     0
 42
0.0000000001
 43
0.0000000001
 12
1.0
 22
0.0
 32
0.0
 13
1.0
 23
0.0
 33
0.0
 40
0.0
 40
0.0
 40
0.0
 40
0.0
 40
1.0
 40
1.0
 40
1.0
 40
2.0
 40
2.0
 40
2.0
 40
3.0
 40
3.0
 40
3.0
 40
4.0
 40
4.0
 40
4.0
 40
5.0
 40
5.0
 40
5.0
 40
6.0
 40
6.0
 40
6.0
 40
7.0
 40
7.0
 40
7.0
 40
8.0
 40
8.0
 40
8.0
 40
9.0
 40
9.0
 40
9.0
 40
10.0
 40
10.0
 40
10.0
 40
10.0
 10
226.2820164972488
 20
-142.0727901938257
 30
0.0
 10
226.2820164972488
 20
-142.0727901938257
 30
0.0
 10
226.2820164967206
 20
-153.8339873163552
 30
0.0
 10
226.2820164967206
 20
-153.8339873163552
 30
0.0
 10
228.4912916358203
 20
-154.9625790655757
 30
0.0
 10
230.0070475218405
 20
-157.2550317289161
 30
0.0
 10
230.0070475217211
 20
-159.9061618958966
 30
0.0
 10
230.0070475216197
 20
-162.1690943972297
 30
0.0
 10
228.9003536605869
 20
-164.1687785397468
 30
0.0
 10
227.2036441340456
 20
-165.409443551296
 30
0.0
 10
227.2036441340456
 20
-165.409443551296
 30
0.0
 10
227.2036441342374
 20
-161.1364700890938
 30
0.0
 10
227.2036441342374
 20
-161.1364700890938
 30
0.0
 10
227.2036441342374
 20
-161.1364700890938
 30
0.0
 10
223.1866843303869
 20
-158.8172748719369
 30
0.0
 10
223.1866843303869
 20
-158.8172748719369
 30
0.0
 10
223.1866843303869
 20
-158.8172748719369
 30
0.0
 10
219.1697029944816
 20
-161.1364700887332
 30
0.0
 10
219.1697029944816
 20
-161.1364700887332
 30
0.0
 10
219.1697029944816
 20
-161.1364700887332
 30
0.0
 10
219.1697029942897
 20
-165.4094435509354
 30
0.0
 10
219.1697029942897
 20
-165.4094435509354
 30
0.0
 10
217.47299346786
 20
-164.1687785392334
 30
0.0
 10
216.3662996070069
 20
-162.1690943966175
 30
0.0
 10
216.3662996071083
 20
-159.9061618952844
 30
0.0
 10
216.3662996072276
 20
-157.2550317283039
 30
0.0
 10
217.8820554934531
 20
-154.9625790650996
 30
0.0
 10
220.091352164501
 20
-153.8339873160774
 30
0.0
 10
220.091352164501
 20
-153.8339873160774
 30
0.0
 10
220.0913521650291
 20
-142.0727901935479
 30
0.0
 10
220.0913521650291
 20
-142.0727901935479
 30
0.0
  0
SPLINE
  5
15E
330
1F
100
AcDbEntity
  8
LAYER_1
 62
     7
100
AcDbSpline
210
0.0
220
0.0
230
1.0
 70
    11
 71
     3
 72
   215
 73
   211
 74
     0
 42
0.0000000001
 43
0.0000000001
 12
1.0
 22
0.0
 32
0.0
 13
1.0
 23
0.0
 33
0.0
 40
0.0
 40
0.0
 40
0.0
 40
0.0
 40
1.0
 40
1.0
 40
1.0
 40
2.0
 40
2.0
 40
2.0
 40
3.0
 40
3.0
 40
3.0
 40
4.0
 40
4.0
 40
4.0
 40
5.0
 40
5.0
 40
5.0
 40
6.0
 40
6.0
 40
6.0
 40
7.0
 40
7.0
 40
7.0
 40
8.0
 40
8.0
 40
8.0
 40
9.0
 40
9.0
 40
9.0
 40
10.0
 40
10.0
 40
10.0
 40
11.0
 40
11.0
 40
11.0
 40
12.0
 40
12.0
 40
12.0
 40
13.0
 40
13.0
 40
13.0
 40
14.0
 40
14.0
 40
14.0
 40
15.0
 40
15.0
 40
15.0
 40
16.0
 40
16.0
 40
16.0
 40
17.0
 40
17.0
 40
17.0
 40
18.0
 40
18.0
 40
18.0
 40
19.0
 40
19.0
 40
19.0
 40
20.0
 40
20.0
 40
20.0
 40
21.0
 40
21.0
 40
21.0
 40
22.0
 40
22.0
 40
22.0
 40
23.0
 40
23.0
 40
23.0
 40
24.0
 40
24.0
 40
24.0
 40
25.0
 40
25.0
 40
25.0
 40
26.0
 40
26.0
 40
26.0
 40
27.0
 40
27.0
 40
27.0
 40
28.0
 40
28.0
 40
28.0
 40
29.0
 40
29.0
 40
29.0
 40
30.0
 40
30.0
 40
30.0
 40
31.0
 40
31.0
 40
31.0
 40
32.0
 40
32.0
 40
32.0
 40
33.0
 40
33.0
 40
33.0
 40
34.0
 40
34.0
 40
34.0
 40
35.0
 40
35.0
 40
35.0
 40
36.0
 40
36.0
 40
36.0
 40
37.0
 40
37.0
 40
37.0
 40
38.0
 40
38.0
 40
38.0
 40
39.0
 40
39.0
 40
39.0
 40
40.0
 40
40.0
 40
40.0
 40
41.0
 40
41.0
 40
41.0
 40
42.0
 40
42.0
 40
42.0
 40
43.0
 40
43.0
 40
43.0
 40
44.0
 40
44.0
 40
44.0
 40
45.0
 40
45.0
 40
45.0
 40
46.0
 40
46.0
 40
46.0
 40
47.0
 40
47.0
 40
47.0
 40
48.0
 40
48.0
 40
48.0
 40
49.0
 40
49.0
 40
49.0
 40
50.0
 40
50.0
 40
50.0
 40
51.0
 40
51.0
 40
51.0
 40
52.0
 40
52.0
 40
52.0
 40
53.0
 40
53.0
 40
53.0
 40
54.0
 40
54.0
 40
54.0
 40
55.0
 40
55.0
 40
55.0
 40
56.0
 40
56.0
 40
56.0
 40
57.0
 40
57.0
 40
57.0
 40
58.0
 40
58.0
 40
58.0
 40
59.0
 40
59.0
 40
59.0
 40
60.0
 40
60.0
 40
60.0
 40
61.0
 40
61.0
 40
61.0
 40
62.0
 40
62.0
 40
62.0
 40
63.0
 40
63.0
 40
63.0
 40
64.0
 40
64.0
 40
64.0
 40
65.0
 40
65.0
 40
65.0
 40
66.0
 40
66.0
 40
66.0
 40
67.0
 40
67.0
 40
67.0
 40
68.0
 40
68.0
 40
68.0
 40
69.0
 40
69.0
 40
69.0
 40
70.0
 40
70.0
 40
70.0
 40
70.0
 10
184.4305658991466
 20
-182.3240219869276
 30
0.0
 10
184.4305658991466
 20
-182.3240219869276
 30
0.0
 10
191.3696772272719
 20
-182.3240219869276
 30
0.0
 10
191.3696772272719
 20
-182.3240219869276
 30
0.0
 10
191.3696772272719
 20
-182.3240219869276
 30
0.0
 10
193.3836800484521
 20
-182.6082423645319
 30
0.0
 10
193.3836802606921
 20
-182.6082430167272
 30
0.0
 10
193.3836802606921
 20
-182.6082430167272
 30
0.0
 10
200.0828191549632
 20
-176.4752840341858
 30
0.0
 10
200.0828191549632
 20
-176.4752840341858
 30
0.0
 10
200.0828191549632
 20
-176.4752840341858
 30
0.0
 10
221.2945089078667
 20
-178.570591109267
 30
0.0
 10
221.2945089078667
 20
-178.570591109267
 30
0.0
 10
221.2945089078667
 20
-178.570591109267
 30
0.0
 10
224.9514347014226
 20
-186.22008112488
 30
0.0
 10
224.9514347014226
 20
-186.22008112488
 30
0.0
 10
224.9514347014226
 20
-186.22008112488
 30
0.0
 10
224.9624588027925
 20
-186.2559094652263
 30
0.0
 10
224.9624588027925
 20
-186.2559094652263
 30
0.0
 10
224.9624588027925
 20
-186.2559094652263
 30
0.0
 10
227.4336257949801
 20
-188.0949014357121
 30
0.0
 10
227.4336257949801
 20
-188.0949014357121
 30
0.0
 10
227.4336257949801
 20
-188.0949014357121
 30
0.0
 10
230.9569249486256
 20
-187.9112778463027
 30
0.0
 10
230.9569249486256
 20
-187.9112778463027
 30
0.0
 10
230.9569249486256
 20
-187.9112778463027
 30
0.0
 10
232.0014779000145
 20
-180.3675522603652
 30
0.0
 10
232.0014779000145
 20
-180.3675522603652
 30
0.0
 10
232.0014779000145
 20
-180.3675522603652
 30
0.0
 10
239.1827794408132
 20
-181.3769652377956
 30
0.0
 10
239.1827794408132
 20
-181.3769652377956
 30
0.0
 10
239.1827794408132
 20
-181.3769652377956
 30
0.0
 10
241.6122607776191
 20
-179.6296128072399
 30
0.0
 10
241.6122607776191
 20
-179.6296128072399
 30
0.0
 10
241.6122607776191
 20
-179.6296128072399
 30
0.0
 10
243.9656055041811
 20
-163.3067503940456
 30
0.0
 10
243.9656055041811
 20
-163.3067503940456
 30
0.0
 10
243.9656055041811
 20
-163.3067503940456
 30
0.0
 10
242.0708029868201
 20
-160.7883855936985
 30
0.0
 10
242.0708029868201
 20
-160.7883855936985
 30
0.0
 10
242.0708029868201
 20
-160.7883855936985
 30
0.0
 10
234.9683941326535
 20
-159.7906859409205
 30
0.0
 10
234.9683941326535
 20
-159.7906859409205
 30
0.0
 10
234.9683941326535
 20
-159.7906859409205
 30
0.0
 10
238.3828282689387
 20
-136.2124524339766
 30
0.0
 10
238.3828282689387
 20
-136.2124524339766
 30
0.0
 10
238.3828282689387
 20
-136.2124524339766
 30
0.0
 10
240.7592551352576
 20
-136.5452486579345
 30
0.0
 10
240.7592551352576
 20
-136.5452486579345
 30
0.0
 10
240.7592551352576
 20
-136.5452486579345
 30
0.0
 10
243.3778722142512
 20
-134.5980806891849
 30
0.0
 10
243.3778722142512
 20
-134.5980806891849
 30
0.0
 10
243.3778722142512
 20
-134.5980806891849
 30
0.0
 10
245.859029983348
 20
-116.9436888706085
 30
0.0
 10
245.859029983348
 20
-116.9436888706085
 30
0.0
 10
245.859029983348
 20
-116.9436888706085
 30
0.0
 10
244.0844612984524
 20
-113.4417493089761
 30
0.0
 10
244.0844612984524
 20
-113.4417493089761
 30
0.0
 10
244.0844612984524
 20
-113.4417493089761
 30
0.0
 10
241.6301752741469
 20
-113.0982732890107
 30
0.0
 10
241.6301752741469
 20
-113.0982732890107
 30
0.0
 10
241.6301752741469
 20
-113.0982732890107
 30
0.0
 10
242.4528640762299
 20
-107.3332505025524
 30
0.0
 10
242.4528640762299
 20
-107.3332505025524
 30
0.0
 10
242.4528649498544
 20
-107.3332508380936
 30
0.0
 10
231.584794032466
 20
-103.5027640040724
 30
0.0
 10
231.584794032466
 20
-103.5027640040724
 30
0.0
 10
231.584794032466
 20
-103.5027640040724
 30
0.0
 10
225.2501251525328
 20
-135.728136931839
 30
0.0
 10
208.7371365359393
 20
-144.3599313286259
 30
0.0
 10
198.8608317503312
 20
-149.5225413883921
 30
0.0
 10
191.5400176468861
 20
-147.0797528464601
 30
0.0
 10
191.5915422611189
 20
-147.3735286035615
 30
0.0
 10
191.5915422611189
 20
-147.3735286035615
 30
0.0
 10
189.8500455971122
 20
-147.3731844321678
 30
0.0
 10
189.8500455971122
 20
-147.3731844321678
 30
0.0
 10
189.8500455971122
 20
-147.3731844321678
 30
0.0
 10
189.9220480927539
 20
-138.9382126460821
 30
0.0
 10
189.9220480927539
 20
-138.9382126460821
 30
0.0
 10
189.9220480927539
 20
-138.9382126460821
 30
0.0
 10
194.508503712267
 20
-138.9581941998966
 30
0.0
 10
194.508503712267
 20
-138.9581941998966
 30
0.0
 10
194.508503712267
 20
-138.9581941998966
 30
0.0
 10
196.1652501311237
 20
-137.5587964137881
 30
0.0
 10
196.1652501311237
 20
-137.5587964137881
 30
0.0
 10
196.1652501311237
 20
-137.5587964137881
 30
0.0
 10
196.231740473989
 20
-128.0337964161693
 30
0.0
 10
196.231740473989
 20
-128.0337964161693
 30
0.0
 10
196.231740473989
 20
-128.0337964161693
 30
0.0
 10
194.3600200968528
 20
-126.6102829616641
 30
0.0
 10
194.3600200968528
 20
-126.6102829616641
 30
0.0
 10
194.3600200968528
 20
-126.6102829616641
 30
0.0
 10
190.0081754798852
 20
-126.5916794460437
 30
0.0
 10
190.0081754798852
 20
-126.5916794460437
 30
0.0
 10
190.0081754798852
 20
-126.5916794460437
 30
0.0
 10
190.0436599633832
 20
-119.7710794043461
 30
0.0
 10
190.0436599633832
 20
-119.7710794043461
 30
0.0
 10
190.0436599633832
 20
-119.7710794043461
 30
0.0
 10
182.1774734419123
 20
-122.2129630842912
 30
0.0
 10
176.7903776316271
 20
-122.1757560530505
 30
0.0
 10
171.4029373117934
 20
-122.1385490218098
 30
0.0
 10
163.5746468406602
 20
-119.2088398211533
 30
0.0
 10
163.5746468406602
 20
-119.2088398211533
 30
0.0
 10
163.5746468406602
 20
-119.2088398211533
 30
0.0
 10
163.5367507903225
 20
-126.3822176405405
 30
0.0
 10
163.5367507903225
 20
-126.3822176405405
 30
0.0
 10
163.5367507903225
 20
-126.3822176405405
 30
0.0
 10
159.1849061733549
 20
-126.3643031440172
 30
0.0
 10
159.1849061733549
 20
-126.3643031440172
 30
0.0
 10
159.1849061733549
 20
-126.3643031440172
 30
0.0
 10
157.2928597328556
 20
-127.7623228919316
 30
0.0
 10
157.2928597328556
 20
-127.7623228919316
 30
0.0
 10
157.2928597328556
 20
-127.7623228919316
 30
0.0
 10
157.2263693899903
 20
-137.2866338704533
 30
0.0
 10
157.2263693899903
 20
-137.2866338704533
 30
0.0
 10
157.2263693899903
 20
-137.2866338704533
 30
0.0
 10
158.8631342550325
 20
-138.7094583058615
 30
0.0
 10
158.8631342550325
 20
-138.7094583058615
 30
0.0
 10
158.8631342550325
 20
-138.7094583058615
 30
0.0
 10
163.4502788936427
 20
-138.7294398596759
 30
0.0
 10
163.4502788936427
 20
-138.7294398596759
 30
0.0
 10
163.4502788936427
 20
-138.7294398596759
 30
0.0
 10
163.3786209075495
 20
-147.1630336075676
 30
0.0
 10
163.3786209075495
 20
-147.1630336075676
 30
0.0
 10
163.3786209075495
 20
-147.1630336075676
 30
0.0
 10
161.5003548489913
 20
-147.3731844321678
 30
0.0
 10
161.5003548489913
 20
-147.3731844321678
 30
0.0
 10
161.5518794632376
 20
-147.0794086750677
 30
0.0
 10
153.8782875819932
 20
-149.5221972166551
 30
0.0
 10
144.0019827966167
 20
-144.3595871564455
 30
0.0
 10
127.4889941804108
 20
-135.7277927589181
 30
0.0
 10
121.1543253019246
 20
-103.5024198308672
 30
0.0
 10
121.1543253019246
 20
-103.5024198308672
 30
0.0
 10
121.1543253019246
 20
-103.5024198308672
 30
0.0
 10
110.2862543843642
 20
-107.3329066644001
 30
0.0
 10
110.2862543843642
 20
-107.3329066644001
 30
0.0
 10
110.2862543843642
 20
-107.3329066644001
 30
0.0
 10
103.7821940222207
 20
-107.0489016053348
 30
0.0
 10
103.7821940222207
 20
-107.0489016053348
 30
0.0
 10
103.7821940222207
 20
-107.0489016053348
 30
0.0
 10
103.9252516122457
 20
-103.3165066884619
 30
0.0
 10
103.9252516122457
 20
-103.3165066884619
 30
0.0
 10
104.0512129159252
 20
-100.0301655095417
 30
0.0
 10
101.4800520278961
 20
-97.25395684459995
 30
0.0
 10
98.193603189742
 20
-97.12799554092051
 30
0.0
 10
98.193603189742
 20
-97.12799554092051
 30
0.0
 10
83.62024639542528
 20
-96.5694379035276
 30
0.0
 10
83.62024639542528
 20
-96.5694379035276
 30
0.0
 10
80.33390521650512
 20
-96.44347659984815
 30
0.0
 10
77.55767501971653
 20
-99.01474514711114
 30
0.0
 10
77.43173524788386
 20
-102.3010863260313
 30
0.0
 10
77.43173524788386
 20
-102.3010863260313
 30
0.0
 10
77.29408215140135
 20
-105.8922969235493
 30
0.0
 10
77.29408215140135
 20
-105.8922969235493
 30
0.0
 10
77.29408215140135
 20
-105.8922969235493
 30
0.0
 10
70.32435253888598
 20
-105.5879658011211
 30
0.0
 10
70.32435253888598
 20
-105.5879658011211
 30
0.0
 10
70.32435253888598
 20
-105.5879658011211
 30
0.0
 10
67.73054014804137
 20
-105.4749666692049
 30
0.0
 10
67.73054014804137
 20
-105.4749666692049
 30
0.0
 10
67.73054014804137
 20
-105.4749666692049
 30
0.0
 10
58.27668137219302
 20
-115.8347133028996
 30
0.0
 10
58.27668137219302
 20
-115.8347133028996
 30
0.0
 10
58.27668137219302
 20
-115.8347133028996
 30
0.0
 10
44.93623812466008
 20
-173.071874204389
 30
0.0
 10
44.93623812466008
 20
-173.071874204389
 30
0.0
 10
44.93623812466008
 20
-173.071874204389
 30
0.0
 10
49.86737554747243
 20
-184.4000371789875
 30
0.0
 10
49.86737554747243
 20
-184.4000371789875
 30
0.0
 10
49.86737554747243
 20
-184.4000371789875
 30
0.0
 10
51.84916672536241
 20
-184.8575458594287
 30
0.0
 10
51.84916672536241
 20
-184.8575458594287
 30
0.0
 10
51.84916672536241
 20
-184.8575458594287
 30
0.0
 10
54.1995831201741
 20
-184.9602097048891
 30
0.0
 10
54.1995831201741
 20
-184.9602097048891
 30
0.0
 10
59.22856125476756
 20
-178.1578686692633
 30
0.0
 10
115.0151647021924
 20
-180.5935511773349
 30
0.0
 10
119.431949369057
 20
-187.8082701425452
 30
0.0
 10
119.431949369057
 20
-187.8082701425452
 30
0.0
 10
121.7823657638687
 20
-187.9109339880056
 30
0.0
 10
121.7823657638687
 20
-187.9109339880056
 30
0.0
 10
121.7823657638687
 20
-187.9109339880056
 30
0.0
 10
125.3054926618594
 20
-188.0945575773694
 30
0.0
 10
125.3054926618594
 20
-188.0945575773694
 30
0.0
 10
125.3054926618594
 20
-188.0945575773694
 30
0.0
 10
127.7876839589819
 20
-186.2197366142964
 30
0.0
 10
127.7876839589819
 20
-186.2197366142964
 30
0.0
 10
127.7876839589819
 20
-186.2197366142964
 30
0.0
 10
131.4446097528811
 20
-178.5702465988477
 30
0.0
 10
131.4446097528811
 20
-178.5702465988477
 30
0.0
 10
131.4446097528811
 20
-178.5702465988477
 30
0.0
 10
152.6562995058789
 20
-176.4749395247188
 30
0.0
 10
152.6562995058789
 20
-176.4749395247188
 30
0.0
 10
152.6562995058789
 20
-176.4749395247188
 30
0.0
 10
159.3554383998747
 20
-182.6078985075605
 30
0.0
 10
159.3554383998747
 20
-182.6078985075605
 30
0.0
 10
159.3554383998747
 20
-182.6078985075605
 30
0.0
 10
161.3697857301003
 20
-182.3236781300274
 30
0.0
 10
161.3697857301003
 20
-182.3240226395759
 30
0.0
 10
161.3697857301003
 20
-182.3240226395759
 30
0.0
 10
167.9554302597039
 20
-182.3236781300274
 30
0.0
 10
167.9554302597039
 20
-182.3236781300274
 30
0.0
 10
167.9554302597039
 20
-182.3236781300274
 30
0.0
 10
167.9554302597039
 20
-176.0632506142314
 30
0.0
 10
167.9554302597039
 20
-176.0632506142314
 30
0.0
 10
167.9554302597039
 20
-176.0632506142314
 30
0.0
 10
184.4305658892657
 20
-176.0632506142314
 30
0.0
 10
184.4305658892657
 20
-176.0632506142314
 30
0.0
 10
184.4305658892657
 20
-176.0632506142314
 30
0.0
 10
184.4305658892657
 20
-182.3240226395759
 30
0.0
 10
184.4305658892657
 20
-182.3240226395759
 30
0.0
  0
INSERT
  5
160
330
1F
100
AcDbEntity
  8
LAYER_1
100
AcDbBlockReference
  2
BLOCK_33
 10
0.0
 20
0.0
 30
0.0
  0
INSERT
  5
165
330
1F
100
AcDbEntity
  8
LAYER_1
100
AcDbBlockReference
  2
BLOCK_34
 10
0.0
 20
0.0
 30
0.0
  0
INSERT
  5
16A
330
1F
100
AcDbEntity
  8
LAYER_1
100
AcDbBlockReference
  2
BLOCK_35
 10
0.0
 20
0.0
 30
0.0
  0
INSERT
  5
16F
330
1F
100
AcDbEntity
  8
LAYER_1
100
AcDbBlockReference
  2
BLOCK_36
 10
0.0
 20
0.0
 30
0.0
  0
INSERT
  5
174
330
1F
100
AcDbEntity
  8
LAYER_1
100
AcDbBlockReference
  2
BLOCK_37
 10
0.0
 20
0.0
 30
0.0
  0
INSERT
  5
17E
330
1F
100
AcDbEntity
  8
LAYER_1
100
AcDbBlockReference
  2
BLOCK_38
 10
0.0
 20
0.0
 30
0.0
  0
INSERT
  5
186
330
1F
100
AcDbEntity
  8
LAYER_1
100
AcDbBlockReference
  2
BLOCK_39
 10
0.0
 20
0.0
 30
0.0
  0
INSERT
  5
18E
330
1F
100
AcDbEntity
  8
LAYER_1
100
AcDbBlockReference
  2
BLOCK_40
 10
0.0
 20
0.0
 30
0.0
  0
INSERT
  5
196
330
1F
100
AcDbEntity
  8
LAYER_1
100
AcDbBlockReference
  2
BLOCK_41
 10
0.0
 20
0.0
 30
0.0
  0
INSERT
  5
19E
330
1F
100
AcDbEntity
  8
LAYER_1
100
AcDbBlockReference
  2
BLOCK_42
 10
0.0
 20
0.0
 30
0.0
  0
INSERT
  5
1A6
330
1F
100
AcDbEntity
  8
LAYER_1
100
AcDbBlockReference
  2
BLOCK_43
 10
0.0
 20
0.0
 30
0.0
  0
INSERT
  5
1AE
330
1F
100
AcDbEntity
  8
LAYER_1
100
AcDbBlockReference
  2
BLOCK_44
 10
0.0
 20
0.0
 30
0.0
  0
INSERT
  5
1B6
330
1F
100
AcDbEntity
  8
LAYER_1
100
AcDbBlockReference
  2
BLOCK_45
 10
0.0
 20
0.0
 30
0.0
  0
INSERT
  5
1BE
330
1F
100
AcDbEntity
  8
LAYER_1
100
AcDbBlockReference
  2
BLOCK_46
 10
0.0
 20
0.0
 30
0.0
  0
INSERT
  5
1C6
330
1F
100
AcDbEntity
  8
LAYER_1
100
AcDbBlockReference
  2
BLOCK_47
 10
0.0
 20
0.0
 30
0.0
  0
INSERT
  5
1CE
330
1F
100
AcDbEntity
  8
LAYER_1
100
AcDbBlockReference
  2
BLOCK_48
 10
0.0
 20
0.0
 30
0.0
  0
INSERT
  5
1D6
330
1F
100
AcDbEntity
  8
LAYER_1
100
AcDbBlockReference
  2
BLOCK_49
 10
0.0
 20
0.0
 30
0.0
  0
INSERT
  5
1E0
330
1F
100
AcDbEntity
  8
LAYER_1
100
AcDbBlockReference
  2
BLOCK_50
 10
0.0
 20
0.0
 30
0.0
  0
INSERT
  5
1E8
330
1F
100
AcDbEntity
  8
LAYER_1
100
AcDbBlockReference
  2
BLOCK_51
 10
0.0
 20
0.0
 30
0.0
  0
INSERT
  5
1F0
330
1F
100
AcDbEntity
  8
LAYER_1
100
AcDbBlockReference
  2
BLOCK_52
 10
0.0
 20
0.0
 30
0.0
  0
INSERT
  5
1F8
330
1F
100
AcDbEntity
  8
LAYER_1
100
AcDbBlockReference
  2
BLOCK_53
 10
0.0
 20
0.0
 30
0.0
  0
INSERT
  5
200
330
1F
100
AcDbEntity
  8
LAYER_1
100
AcDbBlockReference
  2
BLOCK_54
 10
0.0
 20
0.0
 30
0.0
  0
INSERT
  5
208
330
1F
100
AcDbEntity
  8
LAYER_1
100
AcDbBlockReference
  2
BLOCK_55
 10
0.0
 20
0.0
 30
0.0
  0
INSERT
  5
210
330
1F
100
AcDbEntity
  8
LAYER_1
100
AcDbBlockReference
  2
BLOCK_56
 10
0.0
 20
0.0
 30
0.0
  0
INSERT
  5
21A
330
1F
100
AcDbEntity
  8
LAYER_1
100
AcDbBlockReference
  2
BLOCK_57
 10
0.0
 20
0.0
 30
0.0
  0
INSERT
  5
224
330
1F
100
AcDbEntity
  8
LAYER_1
100
AcDbBlockReference
  2
BLOCK_58
 10
0.0
 20
0.0
 30
0.0
  0
INSERT
  5
22B
330
1F
100
AcDbEntity
  8
LAYER_1
100
AcDbBlockReference
  2
BLOCK_59
 10
0.0
 20
0.0
 30
0.0
  0
INSERT
  5
230
330
1F
100
AcDbEntity
  8
LAYER_1
100
AcDbBlockReference
  2
BLOCK_60
 10
0.0
 20
0.0
 30
0.0
  0
INSERT
  5
238
330
1F
100
AcDbEntity
  8
LAYER_1
100
AcDbBlockReference
  2
BLOCK_61
 10
0.0
 20
0.0
 30
0.0
  0
INSERT
  5
23D
330
1F
100
AcDbEntity
  8
LAYER_1
100
AcDbBlockReference
  2
BLOCK_62
 10
0.0
 20
0.0
 30
0.0
  0
SPLINE
  5
241
330
1F
100
AcDbEntity
  8
LAYER_1
 62
     7
100
AcDbSpline
210
0.0
220
0.0
230
1.0
 70
    11
 71
     3
 72
    23
 73
    19
 74
     0
 42
0.0000000001
 43
0.0000000001
 12
1.0
 22
0.0
 32
0.0
 13
1.0
 23
0.0
 33
0.0
 40
0.0
 40
0.0
 40
0.0
 40
0.0
 40
1.0
 40
1.0
 40
1.0
 40
2.0
 40
2.0
 40
2.0
 40
3.0
 40
3.0
 40
3.0
 40
4.0
 40
4.0
 40
4.0
 40
5.0
 40
5.0
 40
5.0
 40
6.0
 40
6.0
 40
6.0
 40
6.0
 10
206.3827188883896
 20
-107.9648400061043
 30
0.0
 10
206.3181233480412
 20
-109.6503099085692
 30
0.0
 10
204.8862555369842
 20
-110.9764778837694
 30
0.0
 10
203.2007856345193
 20
-110.9118823434209
 30
0.0
 10
203.2007856345193
 20
-110.9118823434209
 30
0.0
 10
188.6274503720493
 20
-110.353324706028
 30
0.0
 10
188.6274503720493
 20
-110.353324706028
 30
0.0
 10
186.9419804695844
 20
-110.2887291656796
 30
0.0
 10
185.6158124943843
 20
-108.8568613546226
 30
0.0
 10
185.6804295665795
 20
-107.1713914521577
 30
0.0
 10
185.6804295665795
 20
-107.1713914521577
 30
0.0
 10
185.8228842648946
 20
-103.4543918057345
 30
0.0
 10
185.8228842648946
 20
-103.4543918057345
 30
0.0
 10
185.8228842648946
 20
-103.4543918057345
 30
0.0
 10
206.5209533447352
 20
-104.3581695425963
 30
0.0
 10
206.5209533447352
 20
-104.3581695425963
 30
0.0
 10
206.5209533447352
 20
-104.3581695425963
 30
0.0
 10
206.3827188883896
 20
-107.9648400061043
 30
0.0
 10
206.3827188883896
 20
-107.9648400061043
 30
0.0
  0
POLYLINE
  5
242
330
1F
100
AcDbEntity
  8
LAYER_1
 62
     7
100
AcDb2dPolyline
 66
     1
 10
0.0
 20
0.0
 30
0.0
  0
VERTEX
  5
243
330
242
100
AcDbEntity
  8
LAYER_1
 62
     7
100
AcDbVertex
100
AcDb2dVertex
 10
192.14790186834
 20
-76.5491694639041
 30
0.0
  0
VERTEX
  5
244
330
242
100
AcDbEntity
  8
LAYER_1
 62
     7
100
AcDbVertex
100
AcDb2dVertex
 10
203.0103096985231
 20
-77.11844413593396
 30
0.0
  0
VERTEX
  5
245
330
242
100
AcDbEntity
  8
LAYER_1
 62
     7
100
AcDbVertex
100
AcDb2dVertex
 10
202.8718374810019
 20
-79.76065144597759
 30
0.0
  0
VERTEX
  5
246
330
242
100
AcDbEntity
  8
LAYER_1
 62
     7
100
AcDbVertex
100
AcDb2dVertex
 10
192.0094296508188
 20
-79.19137677394836
 30
0.0
  0
VERTEX
  5
247
330
242
100
AcDbEntity
  8
LAYER_1
 62
     7
100
AcDbVertex
100
AcDb2dVertex
 10
192.14790186834
 20
-76.5491694639041
 30
0.0
  0
SEQEND
  5
248
330
242
100
AcDbEntity
  8
LAYER_1
 62
     7
  0
SPLINE
  5
249
330
1F
100
AcDbEntity
  8
LAYER_1
 62
     7
100
AcDbSpline
210
0.0
220
0.0
230
1.0
 70
    11
 71
     3
 72
    17
 73
    13
 74
     0
 42
0.0000000001
 43
0.0000000001
 12
1.0
 22
0.0
 32
0.0
 13
1.0
 23
0.0
 33
0.0
 40
0.0
 40
0.0
 40
0.0
 40
0.0
 40
1.0
 40
1.0
 40
1.0
 40
2.0
 40
2.0
 40
2.0
 40
3.0
 40
3.0
 40
3.0
 40
4.0
 40
4.0
 40
4.0
 40
4.0
 10
178.5974622577884
 20
-57.18155491496807
 30
0.0
 10
178.6579527235162
 20
-56.02732807007671
 30
0.0
 10
179.6426756673295
 20
-55.14067954895251
 30
0.0
 10
180.7969025122209
 20
-55.20117001468033
 30
0.0
 10
181.9511293571116
 20
-55.26166048040815
 30
0.0
 10
182.8377778782371
 20
-56.24638342422075
 30
0.0
 10
182.7772874125092
 20
-57.40061026911211
 30
0.0
 10
182.7167969467814
 20
-58.55483711400348
 30
0.0
 10
181.7320740029675
 20
-59.44148563512832
 30
0.0
 10
180.5778471580768
 20
-59.3809951694005
 30
0.0
 10
179.4236203131861
 20
-59.32050470367268
 30
0.0
 10
178.5369717920606
 20
-58.33578175985944
 30
0.0
 10
178.5974622577884
 20
-57.18155491496807
 30
0.0
  0
SPLINE
  5
24A
330
1F
100
AcDbEntity
  8
LAYER_1
 62
     7
100
AcDbSpline
210
0.0
220
0.0
230
1.0
 70
    11
 71
     3
 72
    17
 73
    13
 74
     0
 42
0.0000000001
 43
0.0000000001
 12
1.0
 22
0.0
 32
0.0
 13
1.0
 23
0.0
 33
0.0
 40
0.0
 40
0.0
 40
0.0
 40
0.0
 40
1.0
 40
1.0
 40
1.0
 40
2.0
 40
2.0
 40
2.0
 40
3.0
 40
3.0
 40
3.0
 40
4.0
 40
4.0
 40
4.0
 40
4.0
 10
178.9158702505378
 20
-51.10596848267763
 30
0.0
 10
178.9763607162657
 20
-49.95174163778628
 30
0.0
 10
179.9610836600789
 20
-49.06509311666207
 30
0.0
 10
181.1153105049696
 20
-49.12558358238989
 30
0.0
 10
182.269537349861
 20
-49.18607404811772
 30
0.0
 10
183.1561858709865
 20
-50.17079699193032
 30
0.0
 10
183.0956954052587
 20
-51.32502383682168
 30
0.0
 10
183.0352049395302
 20
-52.47925068171368
 30
0.0
 10
182.0504819957176
 20
-53.36589920283789
 30
0.0
 10
180.8962551508262
 20
-53.30540873711006
 30
0.0
 10
179.7420283059349
 20
-53.24491827138224
 30
0.0
 10
178.8553797848094
 20
-52.26019532756964
 30
0.0
 10
178.9158702505378
 20
-51.10596848267763
 30
0.0
  0
POLYLINE
  5
24B
330
1F
100
AcDbEntity
  8
LAYER_1
 62
     7
100
AcDb2dPolyline
 66
     1
 10
0.0
 20
0.0
 30
0.0
  0
VERTEX
  5
24C
330
24B
100
AcDbEntity
  8
LAYER_1
 62
     7
100
AcDbVertex
100
AcDb2dVertex
 10
185.4259756133881
 20
-56.74837753659853
 30
0.0
  0
VERTEX
  5
24D
330
24B
100
AcDbEntity
  8
LAYER_1
 62
     7
100
AcDbVertex
100
AcDb2dVertex
 10
194.8204904935458
 20
-57.24072319889501
 30
0.0
  0
VERTEX
  5
24E
330
24B
100
AcDbEntity
  8
LAYER_1
 62
     7
100
AcDbVertex
100
AcDb2dVertex
 10
194.7244974841246
 20
-59.07237893278494
 30
0.0
  0
VERTEX
  5
24F
330
24B
100
AcDbEntity
  8
LAYER_1
 62
     7
100
AcDbVertex
100
AcDb2dVertex
 10
185.329982603967
 20
-58.58003327048846
 30
0.0
  0
VERTEX
  5
250
330
24B
100
AcDbEntity
  8
LAYER_1
 62
     7
100
AcDbVertex
100
AcDb2dVertex
 10
185.4259756133881
 20
-56.74837753659853
 30
0.0
  0
SEQEND
  5
251
330
24B
100
AcDbEntity
  8
LAYER_1
 62
     7
  0
POLYLINE
  5
252
330
1F
100
AcDbEntity
  8
LAYER_1
 62
     7
100
AcDb2dPolyline
 66
     1
 10
0.0
 20
0.0
 30
0.0
  0
VERTEX
  5
253
330
252
100
AcDbEntity
  8
LAYER_1
 62
     7
100
AcDbVertex
100
AcDb2dVertex
 10
185.7443836061376
 20
-50.6727911043081
 30
0.0
  0
VERTEX
  5
254
330
252
100
AcDbEntity
  8
LAYER_1
 62
     7
100
AcDbVertex
100
AcDb2dVertex
 10
195.1388984862952
 20
-51.16513676660458
 30
0.0
  0
VERTEX
  5
255
330
252
100
AcDbEntity
  8
LAYER_1
 62
     7
100
AcDbVertex
100
AcDb2dVertex
 10
195.042905476874
 20
-52.9967925004945
 30
0.0
  0
VERTEX
  5
256
330
252
100
AcDbEntity
  8
LAYER_1
 62
     7
100
AcDbVertex
100
AcDb2dVertex
 10
185.6483905967157
 20
-52.50444683819802
 30
0.0
  0
VERTEX
  5
257
330
252
100
AcDbEntity
  8
LAYER_1
 62
     7
100
AcDbVertex
100
AcDb2dVertex
 10
185.7443836061376
 20
-50.6727911043081
 30
0.0
  0
SEQEND
  5
258
330
252
100
AcDbEntity
  8
LAYER_1
 62
     7
  0
SPLINE
  5
259
330
1F
100
AcDbEntity
  8
LAYER_1
 62
     7
100
AcDbSpline
210
0.0
220
0.0
230
1.0
 70
    11
 71
     3
 72
    17
 73
    13
 74
     0
 42
0.0000000001
 43
0.0000000001
 12
1.0
 22
0.0
 32
0.0
 13
1.0
 23
0.0
 33
0.0
 40
0.0
 40
0.0
 40
0.0
 40
0.0
 40
1.0
 40
1.0
 40
1.0
 40
2.0
 40
2.0
 40
2.0
 40
3.0
 40
3.0
 40
3.0
 40
4.0
 40
4.0
 40
4.0
 40
4.0
 10
179.2342782432873
 20
-45.0303820503872
 30
0.0
 10
179.2947687090151
 20
-43.87615520549648
 30
0.0
 10
180.2794916528283
 20
-42.98950668437163
 30
0.0
 10
181.4337184977197
 20
-43.04999715009946
 30
0.0
 10
182.5879453426104
 20
-43.11048761582728
 30
0.0
 10
183.4745938637359
 20
-44.09521055964052
 30
0.0
 10
183.4141033980081
 20
-45.24943740453124
 30
0.0
 10
183.3536129322802
 20
-46.40366424942324
 30
0.0
 10
182.3688899884663
 20
-47.29031277054744
 30
0.0
 10
181.2146631435756
 20
-47.22982230481962
 30
0.0
 10
180.0604362986843
 20
-47.1693318390918
 30
0.0
 10
179.1737877775594
 20
-46.1846088952792
 30
0.0
 10
179.2342782432873
 20
-45.0303820503872
 30
0.0
  0
POLYLINE
  5
25A
330
1F
100
AcDbEntity
  8
LAYER_1
 62
     7
100
AcDb2dPolyline
 66
     1
 10
0.0
 20
0.0
 30
0.0
  0
VERTEX
  5
25B
330
25A
100
AcDbEntity
  8
LAYER_1
 62
     7
100
AcDbVertex
100
AcDb2dVertex
 10
185.7443836061376
 20
-50.6727911043081
 30
0.0
  0
VERTEX
  5
25C
330
25A
100
AcDbEntity
  8
LAYER_1
 62
     7
100
AcDbVertex
100
AcDb2dVertex
 10
195.1388984862952
 20
-51.16513676660458
 30
0.0
  0
VERTEX
  5
25D
330
25A
100
AcDbEntity
  8
LAYER_1
 62
     7
100
AcDbVertex
100
AcDb2dVertex
 10
195.042905476874
 20
-52.9967925004945
 30
0.0
  0
VERTEX
  5
25E
330
25A
100
AcDbEntity
  8
LAYER_1
 62
     7
100
AcDbVertex
100
AcDb2dVertex
 10
185.6483905967157
 20
-52.50444683819802
 30
0.0
  0
VERTEX
  5
25F
330
25A
100
AcDbEntity
  8
LAYER_1
 62
     7
100
AcDbVertex
100
AcDb2dVertex
 10
185.7443836061376
 20
-50.6727911043081
 30
0.0
  0
SEQEND
  5
260
330
25A
100
AcDbEntity
  8
LAYER_1
 62
     7
  0
POLYLINE
  5
261
330
1F
100
AcDbEntity
  8
LAYER_1
 62
     7
100
AcDb2dPolyline
 66
     1
 10
0.0
 20
0.0
 30
0.0
  0
VERTEX
  5
262
330
261
100
AcDbEntity
  8
LAYER_1
 62
     7
100
AcDbVertex
100
AcDb2dVertex
 10
186.0627915988863
 20
-44.5972046720183
 30
0.0
  0
VERTEX
  5
263
330
261
100
AcDbEntity
  8
LAYER_1
 62
     7
100
AcDbVertex
100
AcDb2dVertex
 10
195.4573064790446
 20
-45.08955033431478
 30
0.0
  0
VERTEX
  5
264
330
261
100
AcDbEntity
  8
LAYER_1
 62
     7
100
AcDbVertex
100
AcDb2dVertex
 10
195.3613134696234
 20
-46.9212060682047
 30
0.0
  0
VERTEX
  5
265
330
261
100
AcDbEntity
  8
LAYER_1
 62
     7
100
AcDbVertex
100
AcDb2dVertex
 10
185.9667985894658
 20
-46.42886040590822
 30
0.0
  0
VERTEX
  5
266
330
261
100
AcDbEntity
  8
LAYER_1
 62
     7
100
AcDbVertex
100
AcDb2dVertex
 10
186.0627915988863
 20
-44.5972046720183
 30
0.0
  0
SEQEND
  5
267
330
261
100
AcDbEntity
  8
LAYER_1
 62
     7
  0
POLYLINE
  5
268
330
1F
100
AcDbEntity
  8
LAYER_1
 62
     7
100
AcDb2dPolyline
 66
     1
 10
0.0
 20
0.0
 30
0.0
  0
VERTEX
  5
269
330
268
100
AcDbEntity
  8
LAYER_1
 62
     7
100
AcDbVertex
100
AcDb2dVertex
 10
216.0919185878171
 20
-45.6991740680081
 30
0.0
  0
VERTEX
  5
26A
330
268
100
AcDbEntity
  8
LAYER_1
 62
     7
100
AcDbVertex
100
AcDb2dVertex
 10
218.5579785039007
 20
-45.8284148491824
 30
0.0
  0
VERTEX
  5
26B
330
268
100
AcDbEntity
  8
LAYER_1
 62
     7
100
AcDbVertex
100
AcDb2dVertex
 10
217.7308023151158
 20
-61.61187677267744
 30
0.0
  0
VERTEX
  5
26C
330
268
100
AcDbEntity
  8
LAYER_1
 62
     7
100
AcDbVertex
100
AcDb2dVertex
 10
215.2647423990322
 20
-61.48263599150314
 30
0.0
  0
VERTEX
  5
26D
330
268
100
AcDbEntity
  8
LAYER_1
 62
     7
100
AcDbVertex
100
AcDb2dVertex
 10
216.0919185878171
 20
-45.6991740680081
 30
0.0
  0
SEQEND
  5
26E
330
268
100
AcDbEntity
  8
LAYER_1
 62
     7
  0
POLYLINE
  5
26F
330
1F
100
AcDbEntity
  8
LAYER_1
 62
     7
100
AcDb2dPolyline
 66
     1
 10
0.0
 20
0.0
 30
0.0
  0
VERTEX
  5
270
330
26F
100
AcDbEntity
  8
LAYER_1
 62
     7
100
AcDbVertex
100
AcDb2dVertex
 10
211.1597987744953
 20
-45.44069251106774
 30
0.0
  0
VERTEX
  5
271
330
26F
100
AcDbEntity
  8
LAYER_1
 62
     7
100
AcDbVertex
100
AcDb2dVertex
 10
213.6258586905789
 20
-45.56993329224204
 30
0.0
  0
VERTEX
  5
272
330
26F
100
AcDbEntity
  8
LAYER_1
 62
     7
100
AcDbVertex
100
AcDb2dVertex
 10
212.798682501794
 20
-61.35339521573708
 30
0.0
  0
VERTEX
  5
273
330
26F
100
AcDbEntity
  8
LAYER_1
 62
     7
100
AcDbVertex
100
AcDb2dVertex
 10
210.3326225857104
 20
-61.22415443456278
 30
0.0
  0
VERTEX
  5
274
330
26F
100
AcDbEntity
  8
LAYER_1
 62
     7
100
AcDbVertex
100
AcDb2dVertex
 10
211.1597987744953
 20
-45.44069251106774
 30
0.0
  0
SEQEND
  5
275
330
26F
100
AcDbEntity
  8
LAYER_1
 62
     7
  0
SPLINE
  5
276
330
1F
100
AcDbEntity
  8
LAYER_1
 62
     7
100
AcDbSpline
210
0.0
220
0.0
230
1.0
 70
     8
 71
     3
 72
    35
 73
    31
 74
     0
 42
0.0000000001
 43
0.0000000001
 12
1.0
 22
0.0
 32
0.0
 13
1.0
 23
0.0
 33
0.0
 40
0.0
 40
0.0
 40
0.0
 40
0.0
 40
1.0
 40
1.0
 40
1.0
 40
2.0
 40
2.0
 40
2.0
 40
3.0
 40
3.0
 40
3.0
 40
4.0
 40
4.0
 40
4.0
 40
5.0
 40
5.0
 40
5.0
 40
6.0
 40
6.0
 40
6.0
 40
7.0
 40
7.0
 40
7.0
 40
8.0
 40
8.0
 40
8.0
 40
9.0
 40
9.0
 40
9.0
 40
10.0
 40
10.0
 40
10.0
 40
10.0
 10
159.8123487557179
 20
-68.30408974701228
 30
0.0
 10
159.8123487557179
 20
-68.30408974701228
 30
0.0
 10
159.8123487557179
 20
-56.54289262448281
 30
0.0
 10
159.8123487557179
 20
-56.54289262448281
 30
0.0
 10
162.0216238948683
 20
-55.41430087536175
 30
0.0
 10
163.5373797809911
 20
-53.12184821208937
 30
0.0
 10
163.5373797809911
 20
-50.47071804510892
 30
0.0
 10
163.5373797809911
 20
-48.20778554377578
 30
0.0
 10
162.4306859200482
 20
-46.2081014012093
 30
0.0
 10
160.7339763935626
 20
-44.9674363895837
 30
0.0
 10
160.7339763935626
 20
-44.9674363895837
 30
0.0
 10
160.7339763935626
 20
-49.24040985178586
 30
0.0
 10
160.7339763935626
 20
-49.24040985178586
 30
0.0
 10
160.7339763935626
 20
-49.24040985178586
 30
0.0
 10
156.7170165896081
 20
-51.55960506876249
 30
0.0
 10
156.7170165896081
 20
-51.55960506876249
 30
0.0
 10
156.7170165896081
 20
-51.55960506876249
 30
0.0
 10
152.7000352538068
 20
-49.24040985178586
 30
0.0
 10
152.7000352538068
 20
-49.24040985178586
 30
0.0
 10
152.7000352538068
 20
-49.24040985178586
 30
0.0
 10
152.7000352538068
 20
-44.9674363895837
 30
0.0
 10
152.7000352538068
 20
-44.9674363895837
 30
0.0
 10
151.0033257273213
 20
-46.2081014012093
 30
0.0
 10
149.8966318663783
 20
-48.20778554377578
 30
0.0
 10
149.8966318663783
 20
-50.47071804510892
 30
0.0
 10
149.8966318663783
 20
-53.12184821208937
 30
0.0
 10
151.4123877525011
 20
-55.41430087536175
 30
0.0
 10
153.6216844234982
 20
-56.54289262448281
 30
0.0
 10
153.6216844234982
 20
-56.54289262448281
 30
0.0
 10
153.6216844234982
 20
-68.30408974701228
 30
0.0
 10
153.6216844234982
 20
-68.30408974701228
 30
0.0
  0
SPLINE
  5
277
330
1F
100
AcDbEntity
  8
LAYER_1
 62
     7
100
AcDbSpline
210
0.0
220
0.0
230
1.0
 70
     8
 71
     3
 72
    35
 73
    31
 74
     0
 42
0.0000000001
 43
0.0000000001
 12
1.0
 22
0.0
 32
0.0
 13
1.0
 23
0.0
 33
0.0
 40
0.0
 40
0.0
 40
0.0
 40
0.0
 40
1.0
 40
1.0
 40
1.0
 40
2.0
 40
2.0
 40
2.0
 40
3.0
 40
3.0
 40
3.0
 40
4.0
 40
4.0
 40
4.0
 40
5.0
 40
5.0
 40
5.0
 40
6.0
 40
6.0
 40
6.0
 40
7.0
 40
7.0
 40
7.0
 40
8.0
 40
8.0
 40
8.0
 40
9.0
 40
9.0
 40
9.0
 40
10.0
 40
10.0
 40
10.0
 40
10.0
 10
60.42806192622395
 20
-68.30408974478173
 30
0.0
 10
60.42806192622395
 20
-68.30408974478173
 30
0.0
 10
60.42806192675207
 20
-56.54289262225226
 30
0.0
 10
60.42806192675207
 20
-56.54289262225226
 30
0.0
 10
58.2187867876524
 20
-55.41430087303173
 30
0.0
 10
56.70303090163227
 20
-53.12184820969134
 30
0.0
 10
56.70303090175162
 20
-50.47071804271089
 30
0.0
 10
56.70303090185301
 20
-48.20778554137776
 30
0.0
 10
57.8097247628858
 20
-46.20810139886068
 30
0.0
 10
59.50643428942717
 20
-44.96743638731144
 30
0.0
 10
59.50643428942717
 20
-44.96743638731144
 30
0.0
 10
59.5064342892353
 20
-49.2404098495136
 30
0.0
 10
59.5064342892353
 20
-49.2404098495136
 30
0.0
 10
59.5064342892353
 20
-49.2404098495136
 30
0.0
 10
63.52339409308588
 20
-51.55960506667054
 30
0.0
 10
63.52339409308588
 20
-51.55960506667054
 30
0.0
 10
63.52339409308588
 20
-51.55960506667054
 30
0.0
 10
67.54037542899114
 20
-49.24040984987424
 30
0.0
 10
67.54037542899114
 20
-49.24040984987424
 30
0.0
 10
67.54037542899114
 20
-49.24040984987424
 30
0.0
 10
67.540375429183
 20
-44.96743638767208
 30
0.0
 10
67.540375429183
 20
-44.96743638767208
 30
0.0
 10
69.23708495561273
 20
-46.20810139937404
 30
0.0
 10
70.34377881646583
 20
-48.20778554198994
 30
0.0
 10
70.34377881636445
 20
-50.47071804332307
 30
0.0
 10
70.34377881624509
 20
-53.12184821030353
 30
0.0
 10
68.82802293001961
 20
-55.41430087350788
 30
0.0
 10
66.61872625897176
 20
-56.54289262253012
 30
0.0
 10
66.61872625897176
 20
-56.54289262253012
 30
0.0
 10
66.61872625844364
 20
-68.30408974505958
 30
0.0
 10
66.61872625844364
 20
-68.30408974505958
 30
0.0
  0
SPLINE
  5
278
330
1F
100
AcDbEntity
  8
LAYER_1
 62
     7
100
AcDbSpline
210
0.0
220
0.0
230
1.0
 70
    11
 71
     3
 72
   215
 73
   211
 74
     0
 42
0.0000000001
 43
0.0000000001
 12
1.0
 22
0.0
 32
0.0
 13
1.0
 23
0.0
 33
0.0
 40
0.0
 40
0.0
 40
0.0
 40
0.0
 40
1.0
 40
1.0
 40
1.0
 40
2.0
 40
2.0
 40
2.0
 40
3.0
 40
3.0
 40
3.0
 40
4.0
 40
4.0
 40
4.0
 40
5.0
 40
5.0
 40
5.0
 40
6.0
 40
6.0
 40
6.0
 40
7.0
 40
7.0
 40
7.0
 40
8.0
 40
8.0
 40
8.0
 40
9.0
 40
9.0
 40
9.0
 40
10.0
 40
10.0
 40
10.0
 40
11.0
 40
11.0
 40
11.0
 40
12.0
 40
12.0
 40
12.0
 40
13.0
 40
13.0
 40
13.0
 40
14.0
 40
14.0
 40
14.0
 40
15.0
 40
15.0
 40
15.0
 40
16.0
 40
16.0
 40
16.0
 40
17.0
 40
17.0
 40
17.0
 40
18.0
 40
18.0
 40
18.0
 40
19.0
 40
19.0
 40
19.0
 40
20.0
 40
20.0
 40
20.0
 40
21.0
 40
21.0
 40
21.0
 40
22.0
 40
22.0
 40
22.0
 40
23.0
 40
23.0
 40
23.0
 40
24.0
 40
24.0
 40
24.0
 40
25.0
 40
25.0
 40
25.0
 40
26.0
 40
26.0
 40
26.0
 40
27.0
 40
27.0
 40
27.0
 40
28.0
 40
28.0
 40
28.0
 40
29.0
 40
29.0
 40
29.0
 40
30.0
 40
30.0
 40
30.0
 40
31.0
 40
31.0
 40
31.0
 40
32.0
 40
32.0
 40
32.0
 40
33.0
 40
33.0
 40
33.0
 40
34.0
 40
34.0
 40
34.0
 40
35.0
 40
35.0
 40
35.0
 40
36.0
 40
36.0
 40
36.0
 40
37.0
 40
37.0
 40
37.0
 40
38.0
 40
38.0
 40
38.0
 40
39.0
 40
39.0
 40
39.0
 40
40.0
 40
40.0
 40
40.0
 40
41.0
 40
41.0
 40
41.0
 40
42.0
 40
42.0
 40
42.0
 40
43.0
 40
43.0
 40
43.0
 40
44.0
 40
44.0
 40
44.0
 40
45.0
 40
45.0
 40
45.0
 40
46.0
 40
46.0
 40
46.0
 40
47.0
 40
47.0
 40
47.0
 40
48.0
 40
48.0
 40
48.0
 40
49.0
 40
49.0
 40
49.0
 40
50.0
 40
50.0
 40
50.0
 40
51.0
 40
51.0
 40
51.0
 40
52.0
 40
52.0
 40
52.0
 40
53.0
 40
53.0
 40
53.0
 40
54.0
 40
54.0
 40
54.0
 40
55.0
 40
55.0
 40
55.0
 40
56.0
 40
56.0
 40
56.0
 40
57.0
 40
57.0
 40
57.0
 40
58.0
 40
58.0
 40
58.0
 40
59.0
 40
59.0
 40
59.0
 40
60.0
 40
60.0
 40
60.0
 40
61.0
 40
61.0
 40
61.0
 40
62.0
 40
62.0
 40
62.0
 40
63.0
 40
63.0
 40
63.0
 40
64.0
 40
64.0
 40
64.0
 40
65.0
 40
65.0
 40
65.0
 40
66.0
 40
66.0
 40
66.0
 40
67.0
 40
67.0
 40
67.0
 40
68.0
 40
68.0
 40
68.0
 40
69.0
 40
69.0
 40
69.0
 40
70.0
 40
70.0
 40
70.0
 40
70.0
 10
102.2795125243262
 20
-28.05285795167988
 30
0.0
 10
102.2795125243262
 20
-28.05285795167988
 30
0.0
 10
95.3404011962008
 20
-28.05285795167988
 30
0.0
 10
95.3404011962008
 20
-28.05285795167988
 30
0.0
 10
95.3404011962008
 20
-28.05285795167988
 30
0.0
 10
93.32639837502064
 20
-27.76863757407554
 30
0.0
 10
93.32639816278062
 20
-27.76863692188023
 30
0.0
 10
93.32639816278062
 20
-27.76863692188023
 30
0.0
 10
86.62725926850953
 20
-33.90159590442168
 30
0.0
 10
86.62725926850953
 20
-33.90159590442168
 30
0.0
 10
86.62725926850953
 20
-33.90159590442168
 30
0.0
 10
65.41556951560601
 20
-31.80628882934044
 30
0.0
 10
65.41556951560601
 20
-31.80628882934044
 30
0.0
 10
65.41556951560601
 20
-31.80628882934044
 30
0.0
 10
61.75864372205018
 20
-24.15679881372743
 30
0.0
 10
61.75864372205018
 20
-24.15679881372743
 30
0.0
 10
61.75864372205018
 20
-24.15679881372743
 30
0.0
 10
61.74761962068024
 20
-24.12097047338116
 30
0.0
 10
61.74761962068024
 20
-24.12097047338116
 30
0.0
 10
61.74761962068024
 20
-24.12097047338116
 30
0.0
 10
59.27645262849258
 20
-22.28197850289534
 30
0.0
 10
59.27645262849258
 20
-22.28197850289534
 30
0.0
 10
59.27645262849258
 20
-22.28197850289534
 30
0.0
 10
55.75315347484716
 20
-22.46560209230472
 30
0.0
 10
55.75315347484716
 20
-22.46560209230472
 30
0.0
 10
55.75315347484716
 20
-22.46560209230472
 30
0.0
 10
54.70860052345824
 20
-30.00932767824224
 30
0.0
 10
54.70860052345824
 20
-30.00932767824224
 30
0.0
 10
54.70860052345824
 20
-30.00932767824224
 30
0.0
 10
47.52729898265947
 20
-28.99991470081185
 30
0.0
 10
47.52729898265947
 20
-28.99991470081185
 30
0.0
 10
47.52729898265947
 20
-28.99991470081185
 30
0.0
 10
45.0978176458536
 20
-30.74726713136756
 30
0.0
 10
45.0978176458536
 20
-30.74726713136756
 30
0.0
 10
45.0978176458536
 20
-30.74726713136756
 30
0.0
 10
42.74447291929164
 20
-47.07012954456186
 30
0.0
 10
42.74447291929164
 20
-47.07012954456186
 30
0.0
 10
42.74447291929164
 20
-47.07012954456186
 30
0.0
 10
44.63927543665262
 20
-49.58849434490899
 30
0.0
 10
44.63927543665262
 20
-49.58849434490899
 30
0.0
 10
44.63927543665262
 20
-49.58849434490899
 30
0.0
 10
51.74168429081927
 20
-50.58619399768697
 30
0.0
 10
51.74168429081927
 20
-50.58619399768697
 30
0.0
 10
51.74168429081927
 20
-50.58619399768697
 30
0.0
 10
48.32725015453406
 20
-74.16442750463086
 30
0.0
 10
48.32725015453406
 20
-74.16442750463086
 30
0.0
 10
48.32725015453406
 20
-74.16442750463086
 30
0.0
 10
45.95082328821515
 20
-73.83163128067295
 30
0.0
 10
45.95082328821515
 20
-73.83163128067295
 30
0.0
 10
45.95082328821515
 20
-73.83163128067295
 30
0.0
 10
43.33220620922157
 20
-75.77879924942256
 30
0.0
 10
43.33220620922157
 20
-75.77879924942256
 30
0.0
 10
43.33220620922157
 20
-75.77879924942256
 30
0.0
 10
40.85104844012476
 20
-93.43319106799896
 30
0.0
 10
40.85104844012476
 20
-93.43319106799896
 30
0.0
 10
40.85104844012476
 20
-93.43319106799896
 30
0.0
 10
42.62561712502036
 20
-96.93513062963135
 30
0.0
 10
42.62561712502036
 20
-96.93513062963135
 30
0.0
 10
42.62561712502036
 20
-96.93513062963135
 30
0.0
 10
45.07990314932581
 20
-97.27860664959674
 30
0.0
 10
45.07990314932581
 20
-97.27860664959674
 30
0.0
 10
45.07990314932581
 20
-97.27860664959674
 30
0.0
 10
44.2572143472428
 20
-103.0436294360551
 30
0.0
 10
44.2572143472428
 20
-103.0436294360551
 30
0.0
 10
44.25721347361833
 20
-103.0436291005139
 30
0.0
 10
55.12528439100676
 20
-106.8741159345351
 30
0.0
 10
55.12528439100676
 20
-106.8741159345351
 30
0.0
 10
55.12528439100676
 20
-106.8741159345351
 30
0.0
 10
61.45995327093993
 20
-74.64874300676843
 30
0.0
 10
77.97294188753347
 20
-66.01694860998157
 30
0.0
 10
87.84924667314158
 20
-60.85433855021533
 30
0.0
 10
95.17006077658664
 20
-63.29712709214741
 30
0.0
 10
95.11853616235382
 20
-63.00335133504599
 30
0.0
 10
95.11853616235382
 20
-63.00335133504599
 30
0.0
 10
96.86003282636054
 20
-63.00369550643966
 30
0.0
 10
96.86003282636054
 20
-63.00369550643966
 30
0.0
 10
96.86003282636054
 20
-63.00369550643966
 30
0.0
 10
96.78803033071881
 20
-71.43866729252535
 30
0.0
 10
96.78803033071881
 20
-71.43866729252535
 30
0.0
 10
96.78803033071881
 20
-71.43866729252535
 30
0.0
 10
92.20157471120571
 20
-71.4186857387109
 30
0.0
 10
92.20157471120571
 20
-71.4186857387109
 30
0.0
 10
92.20157471120571
 20
-71.4186857387109
 30
0.0
 10
90.54482829234905
 20
-72.8180835248194
 30
0.0
 10
90.54482829234905
 20
-72.8180835248194
 30
0.0
 10
90.54482829234905
 20
-72.8180835248194
 30
0.0
 10
90.47833794948373
 20
-82.34308352243815
 30
0.0
 10
90.47833794948373
 20
-82.34308352243815
 30
0.0
 10
90.47833794948373
 20
-82.34308352243815
 30
0.0
 10
92.35005832661997
 20
-83.76659697694338
 30
0.0
 10
92.35005832661997
 20
-83.76659697694338
 30
0.0
 10
92.35005832661997
 20
-83.76659697694338
 30
0.0
 10
96.70190294358757
 20
-83.78520049256373
 30
0.0
 10
96.70190294358757
 20
-83.78520049256373
 30
0.0
 10
96.70190294358757
 20
-83.78520049256373
 30
0.0
 10
96.66641846008949
 20
-90.60580053426135
 30
0.0
 10
96.66641846008949
 20
-90.60580053426135
 30
0.0
 10
96.66641846008949
 20
-90.60580053426135
 30
0.0
 10
104.5326049815605
 20
-88.16391685431627
 30
0.0
 10
109.9197007918456
 20
-88.20112388555697
 30
0.0
 10
115.3071411116793
 20
-88.23833091679766
 30
0.0
 10
123.1354315828125
 20
-91.16804011745413
 30
0.0
 10
123.1354315828125
 20
-91.16804011745413
 30
0.0
 10
123.1354315828125
 20
-91.16804011745413
 30
0.0
 10
123.1733276331503
 20
-83.99466229806691
 30
0.0
 10
123.1733276331503
 20
-83.99466229806691
 30
0.0
 10
123.1733276331503
 20
-83.99466229806691
 30
0.0
 10
127.5251722501179
 20
-84.01257679459022
 30
0.0
 10
127.5251722501179
 20
-84.01257679459022
 30
0.0
 10
127.5251722501179
 20
-84.01257679459022
 30
0.0
 10
129.4172186906171
 20
-82.61455704667583
 30
0.0
 10
129.4172186906171
 20
-82.61455704667583
 30
0.0
 10
129.4172186906171
 20
-82.61455704667583
 30
0.0
 10
129.4837090334824
 20
-73.09024606815413
 30
0.0
 10
129.4837090334824
 20
-73.09024606815413
 30
0.0
 10
129.4837090334824
 20
-73.09024606815413
 30
0.0
 10
127.8469441684402
 20
-71.66742163274594
 30
0.0
 10
127.8469441684402
 20
-71.66742163274594
 30
0.0
 10
127.8469441684402
 20
-71.66742163274594
 30
0.0
 10
123.25979952983
 20
-71.6474400789315
 30
0.0
 10
123.25979952983
 20
-71.6474400789315
 30
0.0
 10
123.25979952983
 20
-71.6474400789315
 30
0.0
 10
123.3314575159232
 20
-63.2138463310399
 30
0.0
 10
123.3314575159232
 20
-63.2138463310399
 30
0.0
 10
123.3314575159232
 20
-63.2138463310399
 30
0.0
 10
125.2097235744814
 20
-63.00369550643966
 30
0.0
 10
125.2097235744814
 20
-63.00369550643966
 30
0.0
 10
125.1581989602352
 20
-63.2974712635398
 30
0.0
 10
132.8317908414795
 20
-60.85468272195231
 30
0.0
 10
142.708095626856
 20
-66.01729278216195
 30
0.0
 10
159.2210842430619
 20
-74.64908717968933
 30
0.0
 10
165.5557531215481
 20
-106.8744601077403
 30
0.0
 10
165.5557531215481
 20
-106.8744601077403
 30
0.0
 10
165.5557531215481
 20
-106.8744601077403
 30
0.0
 10
176.4238240391085
 20
-103.0439732742074
 30
0.0
 10
176.4238240391085
 20
-103.0439732742074
 30
0.0
 10
176.4238240391085
 20
-103.0439732742074
 30
0.0
 10
182.927884401252
 20
-103.3279783332727
 30
0.0
 10
182.927884401252
 20
-103.3279783332727
 30
0.0
 10
182.927884401252
 20
-103.3279783332727
 30
0.0
 10
182.784826811227
 20
-107.0603732501455
 30
0.0
 10
182.784826811227
 20
-107.0603732501455
 30
0.0
 10
182.6588655075475
 20
-110.3467144290657
 30
0.0
 10
185.2300263955766
 20
-113.1229230940075
 30
0.0
 10
188.5164752337307
 20
-113.248884397687
 30
0.0
 10
188.5164752337307
 20
-113.248884397687
 30
0.0
 10
203.0898320280475
 20
-113.8074420350799
 30
0.0
 10
203.0898320280475
 20
-113.8074420350799
 30
0.0
 10
206.3761732069676
 20
-113.9334033387593
 30
0.0
 10
209.1524034037562
 20
-111.3621347914963
 30
0.0
 10
209.2783431755889
 20
-108.0757936125761
 30
0.0
 10
209.2783431755889
 20
-108.0757936125761
 30
0.0
 10
209.4159962720714
 20
-104.4845830150581
 30
0.0
 10
209.4159962720714
 20
-104.4845830150581
 30
0.0
 10
209.4159962720714
 20
-104.4845830150581
 30
0.0
 10
216.3857258845867
 20
-104.7889141374864
 30
0.0
 10
216.3857258845867
 20
-104.7889141374864
 30
0.0
 10
216.3857258845867
 20
-104.7889141374864
 30
0.0
 10
218.9795382754314
 20
-104.9019132694026
 30
0.0
 10
218.9795382754314
 20
-104.9019132694026
 30
0.0
 10
218.9795382754314
 20
-104.9019132694026
 30
0.0
 10
228.4333970512797
 20
-94.54216663570782
 30
0.0
 10
228.4333970512797
 20
-94.54216663570782
 30
0.0
 10
228.4333970512797
 20
-94.54216663570782
 30
0.0
 10
241.7738402988126
 20
-37.3050057342185
 30
0.0
 10
241.7738402988126
 20
-37.3050057342185
 30
0.0
 10
241.7738402988126
 20
-37.3050057342185
 30
0.0
 10
236.8427028760003
 20
-25.97684275961998
 30
0.0
 10
236.8427028760003
 20
-25.97684275961998
 30
0.0
 10
236.8427028760003
 20
-25.97684275961998
 30
0.0
 10
234.8609116981103
 20
-25.5193340791788
 30
0.0
 10
234.8609116981103
 20
-25.5193340791788
 30
0.0
 10
234.8609116981103
 20
-25.5193340791788
 30
0.0
 10
232.5104953032986
 20
-25.41667023371836
 30
0.0
 10
232.5104953032986
 20
-25.41667023371836
 30
0.0
 10
227.4815171687052
 20
-32.21901126934416
 30
0.0
 10
171.6949137212803
 20
-29.78332876127253
 30
0.0
 10
167.2781290544157
 20
-22.56860979606232
 30
0.0
 10
167.2781290544157
 20
-22.56860979606232
 30
0.0
 10
164.927712659604
 20
-22.46594595060187
 30
0.0
 10
164.927712659604
 20
-22.46594595060187
 30
0.0
 10
164.927712659604
 20
-22.46594595060187
 30
0.0
 10
161.4045857616133
 20
-22.28232236123806
 30
0.0
 10
161.4045857616133
 20
-22.28232236123806
 30
0.0
 10
161.4045857616133
 20
-22.28232236123806
 30
0.0
 10
158.9223944644908
 20
-24.15714332431101
 30
0.0
 10
158.9223944644908
 20
-24.15714332431101
 30
0.0
 10
158.9223944644908
 20
-24.15714332431101
 30
0.0
 10
155.2654686705916
 20
-31.80663333975975
 30
0.0
 10
155.2654686705916
 20
-31.80663333975975
 30
0.0
 10
155.2654686705916
 20
-31.80663333975975
 30
0.0
 10
134.0537789175938
 20
-33.9019404138887
 30
0.0
 10
134.0537789175938
 20
-33.9019404138887
 30
0.0
 10
134.0537789175938
 20
-33.9019404138887
 30
0.0
 10
127.354640023598
 20
-27.76898143104695
 30
0.0
 10
127.354640023598
 20
-27.76898143104695
 30
0.0
 10
127.354640023598
 20
-27.76898143104695
 30
0.0
 10
125.3402926933724
 20
-28.05320180858006
 30
0.0
 10
125.3402926933724
 20
-28.05285729903153
 30
0.0
 10
125.3402926933724
 20
-28.05285729903153
 30
0.0
 10
118.7546481637688
 20
-28.05320180858006
 30
0.0
 10
118.7546481637688
 20
-28.05320180858006
 30
0.0
 10
118.7546481637688
 20
-28.05320180858006
 30
0.0
 10
118.7546481637688
 20
-34.31362932437606
 30
0.0
 10
118.7546481637688
 20
-34.31362932437606
 30
0.0
 10
118.7546481637688
 20
-34.31362932437606
 30
0.0
 10
102.2795125342071
 20
-34.31362932437606
 30
0.0
 10
102.2795125342071
 20
-34.31362932437606
 30
0.0
 10
102.2795125342071
 20
-34.31362932437606
 30
0.0
 10
102.2795125342071
 20
-28.05285729903153
 30
0.0
 10
102.2795125342071
 20
-28.05285729903153
 30
0.0
  0
ENDSEC
  0
SECTION
  2
OBJECTS
  0
DICTIONARY
  5
C
330
0
100
AcDbDictionary
  3
ACAD_GROUP
350
D
  3
ACAD_LAYOUT
350
1A
  3
ACAD_MATERIAL
350
3B
  3
ACAD_MLEADERSTYLE
350
29D
  3
ACAD_MLINESTYLE
350
17
  3
ACAD_PLOTSETTINGS
350
19
  3
ACAD_VISUALSTYLE
350
2A
  3
ACDBHEADERROUNDTRIPXREC
350
27B
  3
ACDBVARIABLEDICTIONARY
350
29B
  0
DICTIONARY
  5
D
102
{ACAD_REACTORS
330
C
102
}
330
C
100
AcDbDictionary
  0
DICTIONARY
  5
1A
102
{ACAD_REACTORS
330
C
102
}
330
C
100
AcDbDictionary
  0
DICTIONARY
  5
3B
102
{ACAD_REACTORS
330
C
102
}
330
C
100
AcDbDictionary
  3
BYBLOCK
350
3D
  3
BYLAYER
350
3C
  3
GLOBAL
350
3E
  0
DICTIONARY
  5
29D
102
{ACAD_REACTORS
330
C
102
}
330
C
100
AcDbDictionary
  0
DICTIONARY
  5
17
102
{ACAD_REACTORS
330
C
102
}
330
C
100
AcDbDictionary
  3
STANDARD
350
18
  0
DICTIONARY
  5
19
102
{ACAD_REACTORS
330
C
102
}
330
C
100
AcDbDictionary
  0
DICTIONARY
  5
2A
102
{ACAD_REACTORS
330
C
102
}
330
C
100
AcDbDictionary
  3
2DWIREFRAME
350
2F
  3
3DWIREFRAME
350
30
  3
3D_HIDDEN
350
31
  3
BASIC
350
32
  3
BRIGHTEN
350
36
  3
COLORCHANGE
350
3A
  3
CONCEPTUAL
350
34
  3
DIM
350
35
  3
FACEPATTERN
350
39
  3
FLAT
350
2B
  3
FLATWITHEDGES
350
2C
  3
GOURAUD
350
2D
  3
GOURAUDWITHEDGES
350
2E
  3
LINEPATTERN
350
38
  3
REALISTIC
350
33
  3
THICKEN
350
37
  0
DICTIONARY
  5
27B
102
{ACAD_REACTORS
330
C
102
}
330
C
100
AcDbDictionary
  3
CEPSNTYPE
350
284
  3
DIMSTYLEDATA
350
29A
  3
FINGERPRINTGUID
350
285
  3
HYPERLINKBASE
350
27E
  3
INSUNITS
350
283
  3
LAYOUTDICT
350
280
  3
LWETCUNION
350
282
  3
PLOTSETDICT
350
281
  3
PSVPSCALE
350
287
  3
PUCSBASE
350
28A
  3
PUCSORGBACK
350
290
  3
PUCSORGBOTTOM
350
28C
  3
PUCSORGFRONT
350
28F
  3
PUCSORGLEFT
350
28D
  3
PUCSORGRIGHT
350
28E
  3
PUCSORGTOP
350
28B
  3
PUCSORTHOREF
350
288
  3
PUCSORTHOVIEW
350
289
  3
STYLESHEET
350
27F
  3
TSTACKALIGN
350
27C
  3
TSTACKSIZE
350
27D
  3
UCSBASE
350
293
  3
UCSORGBACK
350
299
  3
UCSORGBOTTOM
350
295
  3
UCSORGFRONT
350
298
  3
UCSORGLEFT
350
296
  3
UCSORGRIGHT
350
297
  3
UCSORGTOP
350
294
  3
UCSORTHOREF
350
291
  3
UCSORTHOVIEW
350
292
  3
VERSIONGUID
350
286
  0
DICTIONARY
  5
29B
102
{ACAD_REACTORS
330
C
102
}
330
C
100
AcDbDictionary
  3
DIMASSOC
350
29E
  3
HIDETEXT
350
29F
  0
MATERIAL
  5
3D
102
{ACAD_REACTORS
330
3B
102
}
102
{ACAD_XDICTIONARY
360
2A2
102
}
330
3B
100
AcDbMaterial
  1
ByBlock
  0
MATERIAL
  5
3C
102
{ACAD_REACTORS
330
3B
102
}
102
{ACAD_XDICTIONARY
360
2A0
102
}
330
3B
100
AcDbMaterial
  1
ByLayer
  0
MATERIAL
  5
3E
102
{ACAD_REACTORS
330
3B
102
}
102
{ACAD_XDICTIONARY
360
2A4
102
}
330
3B
100
AcDbMaterial
  1
Global
  0
MLINESTYLE
  5
18
102
{ACAD_REACTORS
330
17
102
}
330
17
100
AcDbMlineStyle
  2
Standard
 70
     0
  3

 62
   256
 51
90.0
 52
90.0
 71
     2
 49
0.5
 62
   256
  6
BYLAYER
 49
-0.5
 62
   256
  6
BYLAYER
  0
ACAD_PROXY_OBJECT
  5
2F
102
{ACAD_REACTORS
330
2A
102
}
330
2A
100
AcDbProxyObject
 90
      499
 91
      501
 93
      436
310
42CC9915DA5C99599C985B595049028333333333333E3BF0000000000000FB0107901411070040501600405405064090741402480A0340
1001
ACAD
1000
AcDbSavedByObjectVersion
1070
     0
  0
ACAD_PROXY_OBJECT
  5
30
102
{ACAD_REACTORS
330
2A
102
}
330
2A
100
AcDbProxyObject
 90
      499
 91
      501
 93
      436
310
42CCD915DA5C99599C985B595059028333333333333E3BF0000000000000FB0107901411070040501600405405064090741402480A0340
1001
ACAD
1000
AcDbSavedByObjectVersion
1070
     0
  0
ACAD_PROXY_OBJECT
  5
31
102
{ACAD_REACTORS
330
2A
102
}
330
2A
100
AcDbProxyObject
 90
      499
 91
      501
 93
      500
310
424CD108121A5919195B90640502408333333333333E3BF0000000000000FB01079024090700405020000000000001110200405405064090740C02480A0340
1001
ACAD
1000
AcDbSavedByObjectVersion
1070
     0
  0
ACAD_PROXY_OBJECT
  5
32
102
{ACAD_REACTORS
330
2A
102
}
330
2A
100
AcDbProxyObject
 90
      499
 91
      501
 93
      388
310
4150985CDA58D07406404333333333333E3BF0000000000000FB0107A41107004050150841D405064090741402480A0350
1001
ACAD
1000
AcDbSavedByObjectVersion
1070
     0
  0
ACAD_PROXY_OBJECT
  5
36
102
{ACAD_REACTORS
330
2A
102
}
330
2A
100
AcDbProxyObject
 90
      499
 91
      501
 93
      428
310
42109C9A59DA1D195B90C409028333333333333E3BF0000000000000FB010790141107004050150841D405064090741402480A029950
1001
ACAD
1000
AcDbSavedByObjectVersion
1070
     0
  0
ACAD_PROXY_OBJECT
  5
3A
102
{ACAD_REACTORS
330
2A
102
}
330
2A
100
AcDbProxyObject
 90
      499
 91
      501
 93
      452
310
42D0DBDB1BDC90DA185B99D95104090240C333333333333E3BF0000000000000FB0108901411070040501508421405064090741402480A0350
1001
ACAD
1000
AcDbSavedByObjectVersion
1070
     0
  0
ACAD_PROXY_OBJECT
  5
34
102
{ACAD_REACTORS
330
2A
102
}
330
2A
100
AcDbProxyObject
 90
      499
 91
      501
 93
      500
310
4290DBDB98D95C1D1D585B10940D028333333333333E3BF0000000000000FB0107902409070040501000000000000111010841D405064090740C02480A0340
1001
ACAD
1000
AcDbSavedByObjectVersion
1070
     0
  0
ACAD_PROXY_OBJECT
  5
35
102
{ACAD_REACTORS
330
2A
102
}
330
2A
100
AcDbProxyObject
 90
      499
 91
      501
 93
      412
310
40D11A5B50B409028333333333333E3BF0000000000000FB010790141107004050150841D405064090741402480A02677FFFFFD0
1001
ACAD
1000
AcDbSavedByObjectVersion
1070
     0
  0
ACAD_PROXY_OBJECT
  5
39
102
{ACAD_REACTORS
330
2A
102
}
330
2A
100
AcDbProxyObject
 90
      499
 91
      501
 93
      444
310
42D19858D95C185D1D195C9B90F409028333333333333E3BF0000000000000FB010790141107004050150841D405064090741402480A0350
1001
ACAD
1000
AcDbSavedByObjectVersion
1070
     0
  0
ACAD_PROXY_OBJECT
  5
2B
102
{ACAD_REACTORS
330
2A
102
}
330
2A
100
AcDbProxyObject
 90
      499
 91
      501
 93
      388
310
41119B185D240901404333333333333E3BF0000000000000F9010740A41107004050150841D405064090741402480A1B50
1001
ACAD
1000
AcDbSavedByObjectVersion
1070
     0
  0
ACAD_PROXY_OBJECT
  5
2C
102
{ACAD_REACTORS
330
2A
102
}
330
2A
100
AcDbProxyObject
 90
      499
 91
      501
 93
      476
310
43519B185D15DA5D1A115919D95CD0140901404333333333333E3BF0000000000000F9010740901411070040501600405405064090741402480A1B50
1001
ACAD
1000
AcDbSavedByObjectVersion
1070
     0
  0
ACAD_PROXY_OBJECT
  5
2D
102
{ACAD_REACTORS
330
2A
102
}
330
2A
100
AcDbProxyObject
 90
      499
 91
      501
 93
      412
310
41D1DBDD5C985D5910240902404333333333333E3BF0000000000000F9010740A411070040501641D405064090741402480A1B50
1001
ACAD
1000
AcDbSavedByObjectVersion
1070
     0
  0
ACAD_PROXY_OBJECT
  5
2E
102
{ACAD_REACTORS
330
2A
102
}
330
2A
100
AcDbProxyObject
 90
      499
 91
      501
 93
      500
310
4411DBDD5C985D5915DA5D1A115919D95CD0340902404333333333333E3BF0000000000000F9010740901411070040501600405405064090741402480A1B50
1001
ACAD
1000
AcDbSavedByObjectVersion
1070
     0
  0
ACAD_PROXY_OBJECT
  5
38
102
{ACAD_REACTORS
330
2A
102
}
330
2A
100
AcDbProxyObject
 90
      499
 91
      501
 93
      444
310
42D31A5B995C185D1D195C9B90E409028333333333333E3BF0000000000000FB010790141107004050750841D405064090741402483A0350
1001
ACAD
1000
AcDbSavedByObjectVersion
1070
     0
  0
ACAD_PROXY_OBJECT
  5
33
102
{ACAD_REACTORS
330
2A
102
}
330
2A
100
AcDbProxyObject
 90
      499
 91
      501
 93
      420
310
425499585B1A5CDD1A58D08409028333333333333E3BF0000000000000FB01079019070040501508421405064090741402480A1B40
1001
ACAD
1000
AcDbSavedByObjectVersion
1070
     0
  0
ACAD_PROXY_OBJECT
  5
37
102
{ACAD_REACTORS
330
2A
102
}
330
2A
100
AcDbProxyObject
 90
      499
 91
      501
 93
      412
310
41D51A1A58DAD95B90D409028333333333333E3BF0000000000000FB010790141107004050150C41D405064090741402480A0350
1001
ACAD
1000
AcDbSavedByObjectVersion
1070
     0
  0
XRECORD
  5
284
102
{ACAD_REACTORS
330
27B
102
}
330
27B
100
AcDbXrecord
 90
        0
  0
XRECORD
  5
29A
102
{ACAD_REACTORS
330
27B
102
}
330
27B
100
AcDbXrecord
1000
DSTYLE
1002
{
1070
   340
340
11
1002
}
  0
XRECORD
  5
285
102
{ACAD_REACTORS
330
27B
102
}
330
27B
100
AcDbXrecord
  1
{06FB55D0-9DF8-FEF0-2BE9-1A08D32730B5}
  0
XRECORD
  5
27E
102
{ACAD_REACTORS
330
27B
102
}
330
27B
100
AcDbXrecord
  1

  0
XRECORD
  5
283
102
{ACAD_REACTORS
330
27B
102
}
330
27B
100
AcDbXrecord
 90
        1
  0
XRECORD
  5
280
102
{ACAD_REACTORS
330
27B
102
}
330
27B
100
AcDbXrecord
340
1A
  0
XRECORD
  5
282
102
{ACAD_REACTORS
330
27B
102
}
330
27B
100
AcDbXrecord
 90
    10269
  0
XRECORD
  5
281
102
{ACAD_REACTORS
330
27B
102
}
330
27B
100
AcDbXrecord
340
19
  0
XRECORD
  5
287
102
{ACAD_REACTORS
330
27B
102
}
330
27B
100
AcDbXrecord
 40
0.0
  0
XRECORD
  5
28A
102
{ACAD_REACTORS
330
27B
102
}
330
27B
100
AcDbXrecord
340
0
  0
XRECORD
  5
290
102
{ACAD_REACTORS
330
27B
102
}
330
27B
100
AcDbXrecord
 10
0.0
 20
0.0
 30
0.0
  0
XRECORD
  5
28C
102
{ACAD_REACTORS
330
27B
102
}
330
27B
100
AcDbXrecord
 10
0.0
 20
0.0
 30
0.0
  0
XRECORD
  5
28F
102
{ACAD_REACTORS
330
27B
102
}
330
27B
100
AcDbXrecord
 10
0.0
 20
0.0
 30
0.0
  0
XRECORD
  5
28D
102
{ACAD_REACTORS
330
27B
102
}
330
27B
100
AcDbXrecord
 10
0.0
 20
0.0
 30
0.0
  0
XRECORD
  5
28E
102
{ACAD_REACTORS
330
27B
102
}
330
27B
100
AcDbXrecord
 10
0.0
 20
0.0
 30
0.0
  0
XRECORD
  5
28B
102
{ACAD_REACTORS
330
27B
102
}
330
27B
100
AcDbXrecord
 10
0.0
 20
0.0
 30
0.0
  0
XRECORD
  5
288
102
{ACAD_REACTORS
330
27B
102
}
330
27B
100
AcDbXrecord
340
0
  0
XRECORD
  5
289
102
{ACAD_REACTORS
330
27B
102
}
330
27B
100
AcDbXrecord
 70
     0
  0
XRECORD
  5
27F
102
{ACAD_REACTORS
330
27B
102
}
330
27B
100
AcDbXrecord
  1

  0
XRECORD
  5
27C
102
{ACAD_REACTORS
330
27B
102
}
330
27B
100
AcDbXrecord
 90
        1
  0
XRECORD
  5
27D
102
{ACAD_REACTORS
330
27B
102
}
330
27B
100
AcDbXrecord
 90
       70
  0
XRECORD
  5
293
102
{ACAD_REACTORS
330
27B
102
}
330
27B
100
AcDbXrecord
340
0
  0
XRECORD
  5
299
102
{ACAD_REACTORS
330
27B
102
}
330
27B
100
AcDbXrecord
 10
0.0
 20
0.0
 30
0.0
  0
XRECORD
  5
295
102
{ACAD_REACTORS
330
27B
102
}
330
27B
100
AcDbXrecord
 10
0.0
 20
0.0
 30
0.0
  0
XRECORD
  5
298
102
{ACAD_REACTORS
330
27B
102
}
330
27B
100
AcDbXrecord
 10
0.0
 20
0.0
 30
0.0
  0
XRECORD
  5
296
102
{ACAD_REACTORS
330
27B
102
}
330
27B
100
AcDbXrecord
 10
0.0
 20
0.0
 30
0.0
  0
XRECORD
  5
297
102
{ACAD_REACTORS
330
27B
102
}
330
27B
100
AcDbXrecord
 10
0.0
 20
0.0
 30
0.0
  0
XRECORD
  5
294
102
{ACAD_REACTORS
330
27B
102
}
330
27B
100
AcDbXrecord
 10
0.0
 20
0.0
 30
0.0
  0
XRECORD
  5
291
102
{ACAD_REACTORS
330
27B
102
}
330
27B
100
AcDbXrecord
340
0
  0
XRECORD
  5
292
102
{ACAD_REACTORS
330
27B
102
}
330
27B
100
AcDbXrecord
 70
     0
  0
XRECORD
  5
286
102
{ACAD_REACTORS
330
27B
102
}
330
27B
100
AcDbXrecord
  1
{FAEB1C32-E019-11D5-929B-00C0DF256EC4}
  0
DICTIONARYVAR
  5
29E
102
{ACAD_REACTORS
330
29B
102
}
330
29B
100
DictionaryVariables
280
     0
  1
2
  0
DICTIONARYVAR
  5
29F
102
{ACAD_REACTORS
330
29B
102
}
330
29B
100
DictionaryVariables
280
     0
  1
1
  0
DICTIONARY
  5
2A2
330
3D
100
AcDbDictionary
280
     1
  3
ACAD_XREC_ROUNDTRIP
360
2A3
  0
DICTIONARY
  5
2A0
330
3C
100
AcDbDictionary
280
     1
  3
ACAD_XREC_ROUNDTRIP
360
2A1
  0
DICTIONARY
  5
2A4
330
3E
100
AcDbDictionary
280
     1
  3
ACAD_XREC_ROUNDTRIP
360
2A5
  0
XRECORD
  5
2A3
102
{ACAD_REACTORS
330
2A2
102
}
330
2A2
100
AcDbXrecord
102
MATERIAL
148
0.0
149
0.0
149
0.0
 93
        0
 94
      127
282
     0
 72
     1
 77
     1
171
     1
175
     1
179
     1
273
     0
  0
XRECORD
  5
2A1
102
{ACAD_REACTORS
330
2A0
102
}
330
2A0
100
AcDbXrecord
102
MATERIAL
148
0.0
149
0.0
149
0.0
 93
        0
 94
      127
282
     0
 72
     1
 77
     1
171
     1
175
     1
179
     1
273
     0
  0
XRECORD
  5
2A5
102
{ACAD_REACTORS
330
2A4
102
}
330
2A4
100
AcDbXrecord
102
MATERIAL
148
0.0
149
0.0
149
0.0
 93
        0
 94
      127
282
     0
 72
     1
 77
     1
171
     1
175
     1
179
     1
273
     0
  0
ENDSEC
  0
EOF
