  0
SECTION
  2
HEADER
  9
$ACADVER
  1
AC1018
  9
$ACADMAINTVER
 70
     0
  9
$DWGCODEPAGE
  3
ANSI_1252
  9
$INSBASE
 10
0.0
 20
0.0
 30
0.0
  9
$EXTMIN
 10
1.603806528567702
 20
-429.995893829796
 30
0.0
  9
$EXTMAX
 10
721.6038065285678
 20
0.0041061702040111
 30
0.0
  9
$LIMMIN
 10
0.0
 20
0.0
  9
$LIMMAX
 10
12.0
 20
9.0
  9
$ORTHOMODE
 70
     0
  9
$REGENMODE
 70
     1
  9
$FILLMODE
 70
     1
  9
$QTEXTMODE
 70
     0
  9
$MIRRTEXT
 70
     1
  9
$LTSCALE
 40
1.0
  9
$ATTMODE
 70
     1
  9
$TEXTSIZE
 40
0.2
  9
$TRACEWID
 40
0.05
  9
$TEXTSTYLE
  7
Standard
  9
$CLAYER
  8
0
  9
$CELTYPE
  6
ByLayer
  9
$CECOLOR
 62
   256
  9
$CELTSCALE
 40
1.0
  9
$DISPSILH
 70
     0
  9
$DIMSCALE
 40
1.0
  9
$DIMASZ
 40
0.18
  9
$DIMEXO
 40
0.0625
  9
$DIMDLI
 40
0.38
  9
$DIMRND
 40
0.0
  9
$DIMDLE
 40
0.0
  9
$DIMEXE
 40
0.18
  9
$DIMTP
 40
0.0
  9
$DIMTM
 40
0.0
  9
$DIMTXT
 40
0.18
  9
$DIMCEN
 40
0.09
  9
$DIMTSZ
 40
0.0
  9
$DIMTOL
 70
     0
  9
$DIMLIM
 70
     0
  9
$DIMTIH
 70
     1
  9
$DIMTOH
 70
     1
  9
$DIMSE1
 70
     0
  9
$DIMSE2
 70
     0
  9
$DIMTAD
 70
     0
  9
$DIMZIN
 70
     0
  9
$DIMBLK
  1

  9
$DIMASO
 70
     1
  9
$DIMSHO
 70
     1
  9
$DIMPOST
  1

  9
$DIMAPOST
  1

  9
$DIMALT
 70
     0
  9
$DIMALTD
 70
     2
  9
$DIMALTF
 40
25.4
  9
$DIMLFAC
 40
1.0
  9
$DIMTOFL
 70
     0
  9
$DIMTVP
 40
0.0
  9
$DIMTIX
 70
     0
  9
$DIMSOXD
 70
     0
  9
$DIMSAH
 70
     0
  9
$DIMBLK1
  1

  9
$DIMBLK2
  1

  9
$DIMSTYLE
  2
Standard
  9
$DIMCLRD
 70
     0
  9
$DIMCLRE
 70
     0
  9
$DIMCLRT
 70
     0
  9
$DIMTFAC
 40
1.0
  9
$DIMGAP
 40
0.09
  9
$DIMJUST
 70
     0
  9
$DIMSD1
 70
     0
  9
$DIMSD2
 70
     0
  9
$DIMTOLJ
 70
     1
  9
$DIMTZIN
 70
     0
  9
$DIMALTZ
 70
     0
  9
$DIMALTTZ
 70
     0
  9
$DIMUPT
 70
     0
  9
$DIMDEC
 70
     4
  9
$DIMTDEC
 70
     4
  9
$DIMALTU
 70
     2
  9
$DIMALTTD
 70
     2
  9
$DIMTXSTY
  7
Standard
  9
$DIMAUNIT
 70
     0
  9
$DIMADEC
 70
     0
  9
$DIMALTRND
 40
0.0
  9
$DIMAZIN
 70
     0
  9
$DIMDSEP
 70
    46
  9
$DIMATFIT
 70
     3
  9
$DIMFRAC
 70
     0
  9
$DIMLDRBLK
  1

  9
$DIMLUNIT
 70
     2
  9
$DIMLWD
 70
    -2
  9
$DIMLWE
 70
    -2
  9
$DIMTMOVE
 70
     2
  9
$LUNITS
 70
     2
  9
$LUPREC
 70
     3
  9
$SKETCHINC
 40
0.1
  9
$FILLETRAD
 40
0.5
  9
$AUNITS
 70
     0
  9
$AUPREC
 70
     0
  9
$MENU
  1
.
  9
$ELEVATION
 40
0.0
  9
$PELEVATION
 40
0.0
  9
$THICKNESS
 40
0.0
  9
$LIMCHECK
 70
     0
  9
$CHAMFERA
 40
0.0
  9
$CHAMFERB
 40
0.0
  9
$CHAMFERC
 40
0.0
  9
$CHAMFERD
 40
0.0
  9
$SKPOLY
 70
     0
  9
$TDCREATE
 40
2457070.686078912
  9
$TDUCREATE
 40
2457070.644412246
  9
$TDUPDATE
 40
2457070.686094167
  9
$TDUUPDATE
 40
2457070.6444275
  9
$TDINDWG
 40
0.0000000116
  9
$TDUSRTIMER
 40
0.0000000116
  9
$USRTIMER
 70
     1
  9
$ANGBASE
 50
0.0
  9
$ANGDIR
 70
     0
  9
$PDMODE
 70
     0
  9
$PDSIZE
 40
0.0
  9
$PLINEWID
 40
0.0
  9
$SPLFRAME
 70
     0
  9
$SPLINETYPE
 70
     6
  9
$SPLINESEGS
 70
     8
  9
$HANDSEED
  5
369
  9
$SURFTAB1
 70
     6
  9
$SURFTAB2
 70
     6
  9
$SURFTYPE
 70
     6
  9
$SURFU
 70
     6
  9
$SURFV
 70
     6
  9
$UCSBASE
  2

  9
$UCSNAME
  2

  9
$UCSORG
 10
0.0
 20
0.0
 30
0.0
  9
$UCSXDIR
 10
1.0
 20
0.0
 30
0.0
  9
$UCSYDIR
 10
0.0
 20
1.0
 30
0.0
  9
$UCSORTHOREF
  2

  9
$UCSORTHOVIEW
 70
     0
  9
$UCSORGTOP
 10
0.0
 20
0.0
 30
0.0
  9
$UCSORGBOTTOM
 10
0.0
 20
0.0
 30
0.0
  9
$UCSORGLEFT
 10
0.0
 20
0.0
 30
0.0
  9
$UCSORGRIGHT
 10
0.0
 20
0.0
 30
0.0
  9
$UCSORGFRONT
 10
0.0
 20
0.0
 30
0.0
  9
$UCSORGBACK
 10
0.0
 20
0.0
 30
0.0
  9
$PUCSBASE
  2

  9
$PUCSNAME
  2

  9
$PUCSORG
 10
0.0
 20
0.0
 30
0.0
  9
$PUCSXDIR
 10
1.0
 20
0.0
 30
0.0
  9
$PUCSYDIR
 10
0.0
 20
1.0
 30
0.0
  9
$PUCSORTHOREF
  2

  9
$PUCSORTHOVIEW
 70
     0
  9
$PUCSORGTOP
 10
0.0
 20
0.0
 30
0.0
  9
$PUCSORGBOTTOM
 10
0.0
 20
0.0
 30
0.0
  9
$PUCSORGLEFT
 10
0.0
 20
0.0
 30
0.0
  9
$PUCSORGRIGHT
 10
0.0
 20
0.0
 30
0.0
  9
$PUCSORGFRONT
 10
0.0
 20
0.0
 30
0.0
  9
$PUCSORGBACK
 10
0.0
 20
0.0
 30
0.0
  9
$USERI1
 70
     0
  9
$USERI2
 70
     0
  9
$USERI3
 70
     0
  9
$USERI4
 70
     0
  9
$USERI5
 70
     0
  9
$USERR1
 40
0.0
  9
$USERR2
 40
0.0
  9
$USERR3
 40
0.0
  9
$USERR4
 40
0.0
  9
$USERR5
 40
0.0
  9
$WORLDVIEW
 70
     1
  9
$SHADEDGE
 70
     3
  9
$SHADEDIF
 70
    70
  9
$TILEMODE
 70
     1
  9
$MAXACTVP
 70
    64
  9
$PINSBASE
 10
0.0
 20
0.0
 30
0.0
  9
$PLIMCHECK
 70
     0
  9
$PEXTMIN
 10
1.000000000000000E+20
 20
1.000000000000000E+20
 30
1.000000000000000E+20
  9
$PEXTMAX
 10
-1.000000000000000E+20
 20
-1.000000000000000E+20
 30
-1.000000000000000E+20
  9
$PLIMMIN
 10
0.0
 20
0.0
  9
$PLIMMAX
 10
12.0
 20
9.0
  9
$UNITMODE
 70
     0
  9
$VISRETAIN
 70
     1
  9
$PLINEGEN
 70
     0
  9
$PSLTSCALE
 70
     1
  9
$TREEDEPTH
 70
  3020
  9
$CMLSTYLE
  2
Standard
  9
$CMLJUST
 70
     0
  9
$CMLSCALE
 40
1.0
  9
$PROXYGRAPHICS
 70
     1
  9
$MEASUREMENT
 70
     0
  9
$CELWEIGHT
370
    -1
  9
$ENDCAPS
280
     0
  9
$JOINSTYLE
280
     0
  9
$LWDISPLAY
290
     0
  9
$INSUNITS
 70
     4
  9
$HYPERLINKBASE
  1

  9
$STYLESHEET
  1

  9
$XEDIT
290
     1
  9
$CEPSNTYPE
380
     0
  9
$PSTYLEMODE
290
     1
  9
$FINGERPRINTGUID
  2
{674B9393-D0A0-41BF-A313-7B8504E6D45F}
  9
$VERSIONGUID
  2
{FAEB1C32-E019-11D5-929B-00C0DF256EC4}
  9
$EXTNAMES
290
     1
  9
$PSVPSCALE
 40
0.0
  9
$OLESTARTUP
290
     0
  9
$SORTENTS
280
   127
  9
$INDEXCTL
280
     0
  9
$HIDETEXT
280
     1
  9
$XCLIPFRAME
290
     0
  9
$HALOGAP
280
     0
  9
$OBSCOLOR
 70
   257
  9
$OBSLTYPE
280
     0
  9
$INTERSECTIONDISPLAY
280
     0
  9
$INTERSECTIONCOLOR
 70
   257
  9
$DIMASSOC
280
     2
  9
$PROJECTNAME
  1

  0
ENDSEC
  0
SECTION
  2
CLASSES
  0
CLASS
  1
ACDBDICTIONARYWDFLT
  2
AcDbDictionaryWithDefault
  3
ObjectDBX Classes
 90
        0
 91
        4
280
     0
281
     0
  0
CLASS
  1
VISUALSTYLE
  2
AcDbVisualStyle
  3
ObjectDBX Classes
 90
     4095
 91
        4
280
     0
281
     0
  0
CLASS
  1
MATERIAL
  2
AcDbMaterial
  3
ObjectDBX Classes
 90
     1153
 91
        4
280
     0
281
     0
  0
CLASS
  1
SCALE
  2
AcDbScale
  3
ObjectDBX Classes
 90
     1153
 91
        4
280
     0
281
     0
  0
CLASS
  1
TABLESTYLE
  2
AcDbTableStyle
  3
ObjectDBX Classes
 90
     4095
 91
        4
280
     0
281
     0
  0
CLASS
  1
MLEADERSTYLE
  2
AcDbMLeaderStyle
  3
ACDB_MLEADERSTYLE_CLASS
 90
     4095
 91
        4
280
     0
281
     0
  0
CLASS
  1
SUN
  2
AcDbSun
  3
SCENEOE
 90
     1153
 91
        4
280
     0
281
     0
  0
CLASS
  1
DICTIONARYVAR
  2
AcDbDictionaryVar
  3
ObjectDBX Classes
 90
        0
 91
        4
280
     0
281
     0
  0
CLASS
  1
CELLSTYLEMAP
  2
AcDbCellStyleMap
  3
ObjectDBX Classes
 90
     1152
 91
        4
280
     0
281
     0
  0
ENDSEC
  0
SECTION
  2
TABLES
  0
TABLE
  2
VPORT
  5
8
102
{ACAD_XDICTIONARY
360
322
102
}
330
0
100
AcDbSymbolTable
 70
     1
  0
VPORT
  5
29
330
8
100
AcDbSymbolTableRecord
100
AcDbViewportTableRecord
  2
*Active
 70
     0
 10
0.0
 20
0.0
 11
1.0
 21
1.0
 12
361.6038065285678
 22
-214.995893829796
 13
0.0
 23
0.0
 14
0.5
 24
0.5
 15
0.5
 25
0.5
 16
0.0
 26
0.0
 36
1.0
 17
0.0
 27
0.0
 37
0.0
 40
438.6
 41
1.674418604651163
 42
50.0
 43
0.0
 44
0.0
 50
0.0
 51
0.0
 71
     0
 72
   100
 73
     1
 74
     3
 75
     0
 76
     0
 77
     0
 78
     0
281
     0
 65
     1
110
0.0
120
0.0
130
0.0
111
1.0
121
0.0
131
0.0
112
0.0
122
1.0
132
0.0
 79
     0
146
0.0
  0
ENDTAB
  0
TABLE
  2
LTYPE
  5
5
330
0
100
AcDbSymbolTable
 70
     1
  0
LTYPE
  5
14
330
5
100
AcDbSymbolTableRecord
100
AcDbLinetypeTableRecord
  2
ByBlock
 70
     0
  3

 72
    65
 73
     0
 40
0.0
  0
LTYPE
  5
15
330
5
100
AcDbSymbolTableRecord
100
AcDbLinetypeTableRecord
  2
ByLayer
 70
     0
  3

 72
    65
 73
     0
 40
0.0
  0
LTYPE
  5
16
330
5
100
AcDbSymbolTableRecord
100
AcDbLinetypeTableRecord
  2
Continuous
 70
     0
  3
Solid line
 72
    65
 73
     0
 40
0.0
  0
ENDTAB
  0
TABLE
  2
LAYER
  5
2
330
0
100
AcDbSymbolTable
 70
     2
  0
LAYER
  5
10
330
2
100
AcDbSymbolTableRecord
100
AcDbLayerTableRecord
  2
0
 70
     0
 62
     7
  6
Continuous
370
    -3
390
F
  0
LAYER
  5
6E
330
2
100
AcDbSymbolTableRecord
100
AcDbLayerTableRecord
  2
Défaut
 70
     0
 62
    18
420
        0
  6
Continuous
370
    -3
390
F
  0
ENDTAB
  0
TABLE
  2
STYLE
  5
3
330
0
100
AcDbSymbolTable
 70
     1
  0
STYLE
  5
11
330
3
100
AcDbSymbolTableRecord
100
AcDbTextStyleTableRecord
  2
Standard
 70
     0
 40
0.0
 41
1.0
 50
0.0
 71
     0
 42
0.2
  3
txt
  4

  0
ENDTAB
  0
TABLE
  2
VIEW
  5
6
330
0
100
AcDbSymbolTable
 70
     0
  0
ENDTAB
  0
TABLE
  2
UCS
  5
7
330
0
100
AcDbSymbolTable
 70
     0
  0
ENDTAB
  0
TABLE
  2
APPID
  5
9
330
0
100
AcDbSymbolTable
 70
     2
  0
APPID
  5
12
330
9
100
AcDbSymbolTableRecord
100
AcDbRegAppTableRecord
  2
ACAD
 70
     0
  0
APPID
  5
361
330
9
100
AcDbSymbolTableRecord
100
AcDbRegAppTableRecord
  2
ACAD_MLEADERVER
 70
     0
  0
ENDTAB
  0
TABLE
  2
DIMSTYLE
  5
A
330
0
100
AcDbSymbolTable
 70
     1
100
AcDbDimStyleTable
  0
DIMSTYLE
105
27
330
A
100
AcDbSymbolTableRecord
100
AcDbDimStyleTableRecord
  2
Standard
 70
     0
178
     0
340
11
  0
ENDTAB
  0
TABLE
  2
BLOCK_RECORD
  5
1
330
0
100
AcDbSymbolTable
 70
     1
  0
BLOCK_RECORD
  5
1F
330
1
100
AcDbSymbolTableRecord
100
AcDbBlockTableRecord
  2
*Model_Space
340
22
  0
BLOCK_RECORD
  5
1B
330
1
100
AcDbSymbolTableRecord
100
AcDbBlockTableRecord
  2
*Paper_Space
340
1E
  0
BLOCK_RECORD
  5
23
330
1
100
AcDbSymbolTableRecord
100
AcDbBlockTableRecord
  2
*Paper_Space0
340
26
  0
ENDTAB
  0
ENDSEC
  0
SECTION
  2
BLOCKS
  0
BLOCK
  5
20
330
1F
100
AcDbEntity
  8
0
100
AcDbBlockBegin
  2
*Model_Space
 70
     0
 10
0.0
 20
0.0
 30
0.0
  3
*Model_Space
  1

  0
ENDBLK
  5
21
330
1F
100
AcDbEntity
  8
0
100
AcDbBlockEnd
  0
BLOCK
  5
1C
330
1B
100
AcDbEntity
 67
     1
  8
0
100
AcDbBlockBegin
  2
*Paper_Space
 70
     0
 10
0.0
 20
0.0
 30
0.0
  3
*Paper_Space
  1

  0
ENDBLK
  5
1D
330
1B
100
AcDbEntity
 67
     1
  8
0
100
AcDbBlockEnd
  0
BLOCK
  5
24
330
23
100
AcDbEntity
  8
0
100
AcDbBlockBegin
  2
*Paper_Space0
 70
     0
 10
0.0
 20
0.0
 30
0.0
  3
*Paper_Space0
  1

  0
ENDBLK
  5
25
330
23
100
AcDbEntity
  8
0
100
AcDbBlockEnd
  0
ENDSEC
  0
SECTION
  2
ENTITIES
  0
POLYLINE
  5
6F
330
1F
100
AcDbEntity
  8
Défaut
 62
     5
420
      255
100
AcDb2dPolyline
 66
     1
 10
0.0
 20
0.0
 30
0.0
 70
     1
  0
VERTEX
  5
70
330
6F
100
AcDbEntity
  8
Défaut
 62
     5
420
      255
100
AcDbVertex
100
AcDb2dVertex
 10
122.6999738819581
 20
-223.9083175797041
 30
0.0
  0
VERTEX
  5
71
330
6F
100
AcDbEntity
  8
Défaut
 62
     5
420
      255
100
AcDbVertex
100
AcDb2dVertex
 10
122.1233799779017
 20
-222.8785460361267
 30
0.0
  0
VERTEX
  5
72
330
6F
100
AcDbEntity
  8
Défaut
 62
     5
420
      255
100
AcDbVertex
100
AcDb2dVertex
 10
121.5113934159405
 20
-221.869406595744
 30
0.0
  0
VERTEX
  5
73
330
6F
100
AcDbEntity
  8
Défaut
 62
     5
420
      255
100
AcDbVertex
100
AcDb2dVertex
 10
120.8647515922155
 20
-220.8821151929826
 30
0.0
  0
VERTEX
  5
74
330
6F
100
AcDbEntity
  8
Défaut
 62
     5
420
      255
100
AcDbVertex
100
AcDb2dVertex
 10
120.1842336597592
 20
-219.9178614370852
 30
0.0
  0
VERTEX
  5
75
330
6F
100
AcDbEntity
  8
Défaut
 62
     5
420
      255
100
AcDbVertex
100
AcDb2dVertex
 10
119.4706595896763
 20
-218.9778071787244
 30
0.0
  0
VERTEX
  5
76
330
6F
100
AcDbEntity
  8
Défaut
 62
     5
420
      255
100
AcDbVertex
100
AcDb2dVertex
 10
118.7248891831428
 20
-218.0630851100632
 30
0.0
  0
VERTEX
  5
77
330
6F
100
AcDbEntity
  8
Défaut
 62
     5
420
      255
100
AcDbVertex
100
AcDb2dVertex
 10
117.9478210354126
 20
-217.174797399949
 30
0.0
  0
VERTEX
  5
78
330
6F
100
AcDbEntity
  8
Défaut
 62
     5
420
      255
100
AcDbVertex
100
AcDb2dVertex
 10
117.1403914530798
 20
-216.314014365886
 30
0.0
  0
VERTEX
  5
79
330
6F
100
AcDbEntity
  8
Défaut
 62
     5
420
      255
100
AcDbVertex
100
AcDb2dVertex
 10
116.3035733259024
 20
-215.4817731843861
 30
0.0
  0
VERTEX
  5
7A
330
6F
100
AcDbEntity
  8
Défaut
 62
     5
420
      255
100
AcDbVertex
100
AcDb2dVertex
 10
115.4383749545463
 20
-214.6790766412519
 30
0.0
  0
VERTEX
  5
7B
330
6F
100
AcDbEntity
  8
Défaut
 62
     5
420
      255
100
AcDbVertex
100
AcDb2dVertex
 10
114.5458388356607
 20
-213.9068919232979
 30
0.0
  0
VERTEX
  5
7C
330
6F
100
AcDbEntity
  8
Défaut
 62
     5
420
      255
100
AcDbVertex
100
AcDb2dVertex
 10
113.6270404057517
 20
-213.1661494529659
 30
0.0
  0
VERTEX
  5
7D
330
6F
100
AcDbEntity
  8
Défaut
 62
     5
420
      255
100
AcDbVertex
100
AcDb2dVertex
 10
112.6830867453644
 20
-212.457741767238
 30
0.0
  0
VERTEX
  5
7E
330
6F
100
AcDbEntity
  8
Défaut
 62
     5
420
      255
100
AcDbVertex
100
AcDb2dVertex
 10
111.7151152451375
 20
-211.7825224421995
 30
0.0
  0
VERTEX
  5
7F
330
6F
100
AcDbEntity
  8
Défaut
 62
     5
420
      255
100
AcDbVertex
100
AcDb2dVertex
 10
110.724292235336
 20
-211.141305064546
 30
0.0
  0
VERTEX
  5
80
330
6F
100
AcDbEntity
  8
Défaut
 62
     5
420
      255
100
AcDbVertex
100
AcDb2dVertex
 10
109.7118115805141
 20
-210.5348622512749
 30
0.0
  0
VERTEX
  5
81
330
6F
100
AcDbEntity
  8
Défaut
 62
     5
420
      255
100
AcDbVertex
100
AcDb2dVertex
 10
108.6788932410013
 20
-209.9639247187417
 30
0.0
  0
VERTEX
  5
82
330
6F
100
AcDbEntity
  8
Défaut
 62
     5
420
      255
100
AcDbVertex
100
AcDb2dVertex
 10
107.6267818029454
 20
-209.4291804022045
 30
0.0
  0
VERTEX
  5
83
330
6F
100
AcDbEntity
  8
Défaut
 62
     5
420
      255
100
AcDbVertex
100
AcDb2dVertex
 10
106.556744978683
 20
-208.9312736269148
 30
0.0
  0
VERTEX
  5
84
330
6F
100
AcDbEntity
  8
Défaut
 62
     5
420
      255
100
AcDbVertex
100
AcDb2dVertex
 10
105.470072079245
 20
-208.4708043317561
 30
0.0
  0
VERTEX
  5
85
330
6F
100
AcDbEntity
  8
Défaut
 62
     5
420
      255
100
AcDbVertex
100
AcDb2dVertex
 10
104.3680724608371
 20
-208.0483273463643
 30
0.0
  0
VERTEX
  5
86
330
6F
100
AcDbEntity
  8
Défaut
 62
     5
420
      255
100
AcDbVertex
100
AcDb2dVertex
 10
103.2520739471675
 20
-207.6643517226013
 30
0.0
  0
VERTEX
  5
87
330
6F
100
AcDbEntity
  8
Défaut
 62
     5
420
      255
100
AcDbVertex
100
AcDb2dVertex
 10
102.123421229523
 20
-207.3193401211867
 30
0.0
  0
VERTEX
  5
88
330
6F
100
AcDbEntity
  8
Défaut
 62
     5
420
      255
100
AcDbVertex
100
AcDb2dVertex
 10
100.9834742465206
 20
-207.0137082542283
 30
0.0
  0
VERTEX
  5
89
330
6F
100
AcDbEntity
  8
Défaut
 62
     5
420
      255
100
AcDbVertex
100
AcDb2dVertex
 10
99.83360654548713
 20
-206.7478243843208
 30
0.0
  0
VERTEX
  5
8A
330
6F
100
AcDbEntity
  8
Défaut
 62
     5
420
      255
100
AcDbVertex
100
AcDb2dVertex
 10
98.67520362744224
 20
-206.5220088808184
 30
0.0
  0
VERTEX
  5
8B
330
6F
100
AcDbEntity
  8
Défaut
 62
     5
420
      255
100
AcDbVertex
100
AcDb2dVertex
 10
97.50966127767715
 20
-206.3365338338147
 30
0.0
  0
VERTEX
  5
8C
330
6F
100
AcDbEntity
  8
Défaut
 62
     5
420
      255
100
AcDbVertex
100
AcDb2dVertex
 10
96.33838388394226
 20
-206.1916227262952
 30
0.0
  0
VERTEX
  5
8D
330
6F
100
AcDbEntity
  8
Défaut
 62
     5
420
      255
100
AcDbVertex
100
AcDb2dVertex
 10
95.16278274426926
 20
-206.0874501648578
 30
0.0
  0
VERTEX
  5
8E
330
6F
100
AcDbEntity
  8
Défaut
 62
     5
420
      255
100
AcDbVertex
100
AcDb2dVertex
 10
93.98427436646692
 20
-206.024141669325
 30
0.0
  0
VERTEX
  5
8F
330
6F
100
AcDbEntity
  8
Défaut
 62
     5
420
      255
100
AcDbVertex
100
AcDb2dVertex
 10
92.80427876133953
 20
-206.0017735215033
 30
0.0
  0
VERTEX
  5
90
330
6F
100
AcDbEntity
  8
Défaut
 62
     5
420
      255
100
AcDbVertex
100
AcDb2dVertex
 10
91.62421773168448
 20
-206.0203726732684
 30
0.0
  0
VERTEX
  5
91
330
6F
100
AcDbEntity
  8
Défaut
 62
     5
420
      255
100
AcDbVertex
100
AcDb2dVertex
 10
90.44551315913063
 20
-206.0799167140912
 30
0.0
  0
VERTEX
  5
92
330
6F
100
AcDbEntity
  8
Défaut
 62
     5
420
      255
100
AcDbVertex
100
AcDb2dVertex
 10
89.2695852908816
 20
-206.1803338980402
 30
0.0
  0
VERTEX
  5
93
330
6F
100
AcDbEntity
  8
Défaut
 62
     5
420
      255
100
AcDbVertex
100
AcDb2dVertex
 10
88.09785102842869
 20
-206.32150323023
 30
0.0
  0
VERTEX
  5
94
330
6F
100
AcDbEntity
  8
Défaut
 62
     5
420
      255
100
AcDbVertex
100
AcDb2dVertex
 10
86.93172222029486
 20
-206.5032546126105
 30
0.0
  0
VERTEX
  5
95
330
6F
100
AcDbEntity
  8
Défaut
 62
     5
420
      255
100
AcDbVertex
100
AcDb2dVertex
 10
85.7726039608671
 20
-206.7253690489222
 30
0.0
  0
VERTEX
  5
96
330
6F
100
AcDbEntity
  8
Défaut
 62
     5
420
      255
100
AcDbVertex
100
AcDb2dVertex
 10
84.62189289736732
 20
-206.9875789085693
 30
0.0
  0
VERTEX
  5
97
330
6F
100
AcDbEntity
  8
Défaut
 62
     5
420
      255
100
AcDbVertex
100
AcDb2dVertex
 10
83.48097554700114
 20
-207.2895682490936
 30
0.0
  0
VERTEX
  5
98
330
6F
100
AcDbEntity
  8
Défaut
 62
     5
420
      255
100
AcDbVertex
100
AcDb2dVertex
 10
82.35122662631265
 20
-207.6309731968611
 30
0.0
  0
VERTEX
  5
99
330
6F
100
AcDbEntity
  8
Défaut
 62
     5
420
      255
100
AcDbVertex
100
AcDb2dVertex
 10
81.23400739475808
 20
-208.0113823855008
 30
0.0
  0
VERTEX
  5
9A
330
6F
100
AcDbEntity
  8
Défaut
 62
     5
420
      255
100
AcDbVertex
100
AcDb2dVertex
 10
80.13066401449413
 20
-208.4303374515695
 30
0.0
  0
VERTEX
  5
9B
330
6F
100
AcDbEntity
  8
Défaut
 62
     5
420
      255
100
AcDbVertex
100
AcDb2dVertex
 10
79.04252592835746
 20
-208.887333586844
 30
0.0
  0
VERTEX
  5
9C
330
6F
100
AcDbEntity
  8
Défaut
 62
     5
420
      255
100
AcDbVertex
100
AcDb2dVertex
 10
77.97090425798964
 20
-209.3818201465754
 30
0.0
  0
VERTEX
  5
9D
330
6F
100
AcDbEntity
  8
Défaut
 62
     5
420
      255
100
AcDbVertex
100
AcDb2dVertex
 10
76.9170902240376
 20
-209.9132013129735
 30
0.0
  0
VERTEX
  5
9E
330
6F
100
AcDbEntity
  8
Défaut
 62
     5
420
      255
100
AcDbVertex
100
AcDb2dVertex
 10
75.8823535903334
 20
-210.4808368131208
 30
0.0
  0
VERTEX
  5
9F
330
6F
100
AcDbEntity
  8
Défaut
 62
     5
420
      255
100
AcDbVertex
100
AcDb2dVertex
 10
74.86794113392773
 20
-211.0840426904512
 30
0.0
  0
VERTEX
  5
A0
330
6F
100
AcDbEntity
  8
Défaut
 62
     5
420
      255
100
AcDbVertex
100
AcDb2dVertex
 10
73.87507514282058
 20
-211.7220921288646
 30
0.0
  0
VERTEX
  5
A1
330
6F
100
AcDbEntity
  8
Défaut
 62
     5
420
      255
100
AcDbVertex
100
AcDb2dVertex
 10
72.90495194319949
 20
-212.3942163284839
 30
0.0
  0
VERTEX
  5
A2
330
6F
100
AcDbEntity
  8
Défaut
 62
     5
420
      255
100
AcDbVertex
100
AcDb2dVertex
 10
71.9587404579596
 20
-213.0996054319984
 30
0.0
  0
VERTEX
  5
A3
330
6F
100
AcDbEntity
  8
Défaut
 62
     5
420
      255
100
AcDbVertex
100
AcDb2dVertex
 10
71.0375807982427
 20
-213.8374095004795
 30
0.0
  0
VERTEX
  5
A4
330
6F
100
AcDbEntity
  8
Défaut
 62
     5
420
      255
100
AcDbVertex
100
AcDb2dVertex
 10
70.142582889692
 20
-214.6067395374901
 30
0.0
  0
VERTEX
  5
A5
330
6F
100
AcDbEntity
  8
Défaut
 62
     5
420
      255
100
AcDbVertex
100
AcDb2dVertex
 10
69.27482513507822
 20
-215.4066685602568
 30
0.0
  0
VERTEX
  5
A6
330
6F
100
AcDbEntity
  8
Défaut
 62
     5
420
      255
100
AcDbVertex
100
AcDb2dVertex
 10
68.43535311490825
 20
-216.2362327166117
 30
0.0
  0
VERTEX
  5
A7
330
6F
100
AcDbEntity
  8
Défaut
 62
     5
420
      255
100
AcDbVertex
100
AcDb2dVertex
 10
67.62517832758215
 20
-217.0944324463588
 30
0.0
  0
VERTEX
  5
A8
330
6F
100
AcDbEntity
  8
Défaut
 62
     5
420
      255
100
AcDbVertex
100
AcDb2dVertex
 10
66.84527697061621
 20
-217.9802336856668
 30
0.0
  0
VERTEX
  5
A9
330
6F
100
AcDbEntity
  8
Défaut
 62
     5
420
      255
100
AcDbVertex
100
AcDb2dVertex
 10
66.09658876440106
 20
-218.8925691130351
 30
0.0
  0
VERTEX
  5
AA
330
6F
100
AcDbEntity
  8
Défaut
 62
     5
420
      255
100
AcDbVertex
100
AcDb2dVertex
 10
65.38001581991183
 20
-219.8303394353331
 30
0.0
  0
VERTEX
  5
AB
330
6F
100
AcDbEntity
  8
Défaut
 62
     5
420
      255
100
AcDbVertex
100
AcDb2dVertex
 10
64.69642155173462
 20
-220.792414712363
 30
0.0
  0
VERTEX
  5
AC
330
6F
100
AcDbEntity
  8
Défaut
 62
     5
420
      255
100
AcDbVertex
100
AcDb2dVertex
 10
64.04662963771918
 20
-221.7776357183495
 30
0.0
  0
VERTEX
  5
AD
330
6F
100
AcDbEntity
  8
Défaut
 62
     5
420
      255
100
AcDbVertex
100
AcDb2dVertex
 10
63.4314230265113
 20
-222.7848153387167
 30
0.0
  0
VERTEX
  5
AE
330
6F
100
AcDbEntity
  8
Défaut
 62
     5
420
      255
100
AcDbVertex
100
AcDb2dVertex
 10
62.85154299416064
 20
-223.8127400004687
 30
0.0
  0
VERTEX
  5
AF
330
6F
100
AcDbEntity
  8
Défaut
 62
     5
420
      255
100
AcDbVertex
100
AcDb2dVertex
 10
62.30768825094084
 20
-224.8601711344504
 30
0.0
  0
VERTEX
  5
B0
330
6F
100
AcDbEntity
  8
Défaut
 62
     5
420
      255
100
AcDbVertex
100
AcDb2dVertex
 10
61.80051409945802
 20
-225.9258466677271
 30
0.0
  0
VERTEX
  5
B1
330
6F
100
AcDbEntity
  8
Défaut
 62
     5
420
      255
100
AcDbVertex
100
AcDb2dVertex
 10
61.33063164506225
 20
-227.0084825442839
 30
0.0
  0
VERTEX
  5
B2
330
6F
100
AcDbEntity
  8
Défaut
 62
     5
420
      255
100
AcDbVertex
100
AcDb2dVertex
 10
60.89860705951315
 20
-228.1067742722133
 30
0.0
  0
VERTEX
  5
B3
330
6F
100
AcDbEntity
  8
Défaut
 62
     5
420
      255
100
AcDbVertex
100
AcDb2dVertex
 10
60.50496089878703
 20
-229.2193984955261
 30
0.0
  0
VERTEX
  5
B4
330
6F
100
AcDbEntity
  8
Défaut
 62
     5
420
      255
100
AcDbVertex
100
AcDb2dVertex
 10
60.1501674758475
 20
-230.3450145886928
 30
0.0
  0
VERTEX
  5
B5
330
6F
100
AcDbEntity
  8
Défaut
 62
     5
420
      255
100
AcDbVertex
100
AcDb2dVertex
 10
59.83465428913524
 20
-231.4822662719923
 30
0.0
  0
VERTEX
  5
B6
330
6F
100
AcDbEntity
  8
Défaut
 62
     5
420
      255
100
AcDbVertex
100
AcDb2dVertex
 10
59.55880150746573
 20
-232.629783245724
 30
0.0
  0
VERTEX
  5
B7
330
6F
100
AcDbEntity
  8
Défaut
 62
     5
420
      255
100
AcDbVertex
100
AcDb2dVertex
 10
59.32294151195546
 20
-233.7861828413114
 30
0.0
  0
VERTEX
  5
B8
330
6F
100
AcDbEntity
  8
Défaut
 62
     5
420
      255
100
AcDbVertex
100
AcDb2dVertex
 10
59.12735849552848
 20
-234.950071687311
 30
0.0
  0
VERTEX
  5
B9
330
6F
100
AcDbEntity
  8
Défaut
 62
     5
420
      255
100
AcDbVertex
100
AcDb2dVertex
 10
58.97228812048611
 20
-236.1200473883155
 30
0.0
  0
VERTEX
  5
BA
330
6F
100
AcDbEntity
  8
Défaut
 62
     5
420
      255
100
AcDbVertex
100
AcDb2dVertex
 10
58.85791723455226
 20
-237.2947002147317
 30
0.0
  0
VERTEX
  5
BB
330
6F
100
AcDbEntity
  8
Défaut
 62
     5
420
      255
100
AcDbVertex
100
AcDb2dVertex
 10
58.78438364573644
 20
-238.4726148013944
 30
0.0
  0
VERTEX
  5
BC
330
6F
100
AcDbEntity
  8
Défaut
 62
     5
420
      255
100
AcDbVertex
100
AcDb2dVertex
 10
58.75177595628583
 20
-239.6523718529714
 30
0.0
  0
VERTEX
  5
BD
330
6F
100
AcDbEntity
  8
Défaut
 62
     5
420
      255
100
AcDbVertex
100
AcDb2dVertex
 10
58.76013345592646
 20
-240.8325498541037
 30
0.0
  0
VERTEX
  5
BE
330
6F
100
AcDbEntity
  8
Défaut
 62
     5
420
      255
100
AcDbVertex
100
AcDb2dVertex
 10
58.80944607452223
 20
-242.0117267822211
 30
0.0
  0
VERTEX
  5
BF
330
6F
100
AcDbEntity
  8
Défaut
 62
     5
420
      255
100
AcDbVertex
100
AcDb2dVertex
 10
58.89965439420858
 20
-243.188481820968
 30
0.0
  0
VERTEX
  5
C0
330
6F
100
AcDbEntity
  8
Défaut
 62
     5
420
      255
100
AcDbVertex
100
AcDb2dVertex
 10
59.03064972098636
 20
-244.3613970721773
 30
0.0
  0
VERTEX
  5
C1
330
6F
100
AcDbEntity
  8
Défaut
 62
     5
420
      255
100
AcDbVertex
100
AcDb2dVertex
 10
59.20227421568968
 20
-245.5290592643265
 30
0.0
  0
VERTEX
  5
C2
330
6F
100
AcDbEntity
  8
Défaut
 62
     5
420
      255
100
AcDbVertex
100
AcDb2dVertex
 10
59.41432108416983
 20
-246.6900614554203
 30
0.0
  0
VERTEX
  5
C3
330
6F
100
AcDbEntity
  8
Défaut
 62
     5
420
      255
100
AcDbVertex
100
AcDb2dVertex
 10
59.66653482646606
 20
-247.8430047282459
 30
0.0
  0
VERTEX
  5
C4
330
6F
100
AcDbEntity
  8
Défaut
 62
     5
420
      255
100
AcDbVertex
100
AcDb2dVertex
 10
59.95861154466319
 20
-248.9864998759593
 30
0.0
  0
VERTEX
  5
C5
330
6F
100
AcDbEntity
  8
Défaut
 62
     5
420
      255
100
AcDbVertex
100
AcDb2dVertex
 10
60.29019930906488
 20
-250.1191690759714
 30
0.0
  0
VERTEX
  5
C6
330
6F
100
AcDbEntity
  8
Défaut
 62
     5
420
      255
100
AcDbVertex
100
AcDb2dVertex
 10
60.66089858224154
 20
-251.2396475501168
 30
0.0
  0
VERTEX
  5
C7
330
6F
100
AcDbEntity
  8
Défaut
 62
     5
420
      255
100
AcDbVertex
100
AcDb2dVertex
 10
61.07026270044179
 20
-252.3465852091054
 30
0.0
  0
VERTEX
  5
C8
330
6F
100
AcDbEntity
  8
Défaut
 62
     5
420
      255
100
AcDbVertex
100
AcDb2dVertex
 10
61.51779841178752
 20
-253.4386482792745
 30
0.0
  0
VERTEX
  5
C9
330
6F
100
AcDbEntity
  8
Défaut
 62
     5
420
      255
100
AcDbVertex
100
AcDb2dVertex
 10
62.00296647060394
 20
-254.5145209096826
 30
0.0
  0
VERTEX
  5
CA
330
6F
100
AcDbEntity
  8
Défaut
 62
     5
420
      255
100
AcDbVertex
100
AcDb2dVertex
 10
62.52518228716868
 20
-255.5729067576069
 30
0.0
  0
VERTEX
  5
CB
330
6F
100
AcDbEntity
  8
Défaut
 62
     5
420
      255
100
AcDbVertex
100
AcDb2dVertex
 10
63.08381663209681
 20
-256.6125305505357
 30
0.0
  0
VERTEX
  5
CC
330
6F
100
AcDbEntity
  8
Défaut
 62
     5
420
      255
100
AcDbVertex
100
AcDb2dVertex
 10
63.67819639451326
 20
-257.6321396227721
 30
0.0
  0
VERTEX
  5
CD
330
6F
100
AcDbEntity
  8
Défaut
 62
     5
420
      255
100
AcDbVertex
100
AcDb2dVertex
 10
64.30760539309905
 20
-258.6305054247987
 30
0.0
  0
VERTEX
  5
CE
330
6F
100
AcDbEntity
  8
Défaut
 62
     5
420
      255
100
AcDbVertex
100
AcDb2dVertex
 10
64.97128523903386
 20
-259.6064250035841
 30
0.0
  0
VERTEX
  5
CF
330
6F
100
AcDbEntity
  8
Défaut
 62
     5
420
      255
100
AcDbVertex
100
AcDb2dVertex
 10
65.66843624979569
 20
-260.558722452048
 30
0.0
  0
VERTEX
  5
D0
330
6F
100
AcDbEntity
  8
Défaut
 62
     5
420
      255
100
AcDbVertex
100
AcDb2dVertex
 10
66.39821841271582
 20
-261.4862503259366
 30
0.0
  0
VERTEX
  5
D1
330
6F
100
AcDbEntity
  8
Défaut
 62
     5
420
      255
100
AcDbVertex
100
AcDb2dVertex
 10
67.15975239712881
 20
-262.387891026405
 30
0.0
  0
VERTEX
  5
D2
330
6F
100
AcDbEntity
  8
Défaut
 62
     5
420
      255
100
AcDbVertex
100
AcDb2dVertex
 10
67.95212061389734
 20
-263.2625581466353
 30
0.0
  0
VERTEX
  5
D3
330
6F
100
AcDbEntity
  8
Défaut
 62
     5
420
      255
100
AcDbVertex
100
AcDb2dVertex
 10
68.7743683210357
 20
-264.1091977808733
 30
0.0
  0
VERTEX
  5
D4
330
6F
100
AcDbEntity
  8
Défaut
 62
     5
420
      255
100
AcDbVertex
100
AcDb2dVertex
 10
69.62550477409953
 20
-264.9267897943022
 30
0.0
  0
VERTEX
  5
D5
330
6F
100
AcDbEntity
  8
Défaut
 62
     5
420
      255
100
AcDbVertex
100
AcDb2dVertex
 10
70.5045044199557
 20
-265.7143490522261
 30
0.0
  0
VERTEX
  5
D6
330
6F
100
AcDbEntity
  8
Défaut
 62
     5
420
      255
100
AcDbVertex
100
AcDb2dVertex
 10
71.41030813249397
 20
-266.4709266070801
 30
0.0
  0
VERTEX
  5
D7
330
6F
100
AcDbEntity
  8
Défaut
 62
     5
420
      255
100
AcDbVertex
100
AcDb2dVertex
 10
72.34182448879142
 20
-267.1956108418385
 30
0.0
  0
VERTEX
  5
D8
330
6F
100
AcDbEntity
  8
Défaut
 62
     5
420
      255
100
AcDbVertex
100
AcDb2dVertex
 10
73.2979310841921
 20
-267.887528568442
 30
0.0
  0
VERTEX
  5
D9
330
6F
100
AcDbEntity
  8
Défaut
 62
     5
420
      255
100
AcDbVertex
100
AcDb2dVertex
 10
74.27747588471725
 20
-268.5458460799219
 30
0.0
  0
VERTEX
  5
DA
330
6F
100
AcDbEntity
  8
Défaut
 62
     5
420
      255
100
AcDbVertex
100
AcDb2dVertex
 10
75.27927861517641
 20
-269.1697701549514
 30
0.0
  0
VERTEX
  5
DB
330
6F
100
AcDbEntity
  8
Défaut
 62
     5
420
      255
100
AcDbVertex
100
AcDb2dVertex
 10
76.30213218130719
 20
-269.7585490136161
 30
0.0
  0
VERTEX
  5
DC
330
6F
100
AcDbEntity
  8
Défaut
 62
     5
420
      255
100
AcDbVertex
100
AcDb2dVertex
 10
77.34480412422987
 20
-270.3114732232495
 30
0.0
  0
VERTEX
  5
DD
330
6F
100
AcDbEntity
  8
Défaut
 62
     5
420
      255
100
AcDbVertex
100
AcDb2dVertex
 10
78.40603810546413
 20
-270.8278765532451
 30
0.0
  0
VERTEX
  5
DE
330
6F
100
AcDbEntity
  8
Défaut
 62
     5
420
      255
100
AcDbVertex
100
AcDb2dVertex
 10
79.48455542071949
 20
-271.3071367778115
 30
0.0
  0
VERTEX
  5
DF
330
6F
100
AcDbEntity
  8
Défaut
 62
     5
420
      255
100
AcDbVertex
100
AcDb2dVertex
 10
80.57905654063387
 20
-271.7486764257063
 30
0.0
  0
VERTEX
  5
E0
330
6F
100
AcDbEntity
  8
Défaut
 62
     5
420
      255
100
AcDbVertex
100
AcDb2dVertex
 10
81.68822267660566
 20
-272.1519634760442
 30
0.0
  0
VERTEX
  5
E1
330
6F
100
AcDbEntity
  8
Défaut
 62
     5
420
      255
100
AcDbVertex
100
AcDb2dVertex
 10
82.81071736983112
 20
-272.5165119993407
 30
0.0
  0
VERTEX
  5
E2
330
6F
100
AcDbEntity
  8
Défaut
 62
     5
420
      255
100
AcDbVertex
100
AcDb2dVertex
 10
83.94518810163312
 20
-272.8418827430187
 30
0.0
  0
VERTEX
  5
E3
330
6F
100
AcDbEntity
  8
Défaut
 62
     5
420
      255
100
AcDbVertex
100
AcDb2dVertex
 10
85.09026792314076
 20
-273.1276836606745
 30
0.0
  0
VERTEX
  5
E4
330
6F
100
AcDbEntity
  8
Défaut
 62
     5
420
      255
100
AcDbVertex
100
AcDb2dVertex
 10
86.24457710235646
 20
-273.3735703844627
 30
0.0
  0
VERTEX
  5
E5
330
6F
100
AcDbEntity
  8
Défaut
 62
     5
420
      255
100
AcDbVertex
100
AcDb2dVertex
 10
87.40672478662543
 20
-273.5792466400325
 30
0.0
  0
VERTEX
  5
E6
330
6F
100
AcDbEntity
  8
Défaut
 62
     5
420
      255
100
AcDbVertex
100
AcDb2dVertex
 10
88.57531067850478
 20
-273.7444646035155
 30
0.0
  0
VERTEX
  5
E7
330
6F
100
AcDbEntity
  8
Défaut
 62
     5
420
      255
100
AcDbVertex
100
AcDb2dVertex
 10
89.7489267230129
 20
-273.8690252001342
 30
0.0
  0
VERTEX
  5
E8
330
6F
100
AcDbEntity
  8
Défaut
 62
     5
420
      255
100
AcDbVertex
100
AcDb2dVertex
 10
90.92615880422612
 20
-273.9527783440713
 30
0.0
  0
VERTEX
  5
E9
330
6F
100
AcDbEntity
  8
Défaut
 62
     5
420
      255
100
AcDbVertex
100
AcDb2dVertex
 10
92.10558844917809
 20
-273.9956231193117
 30
0.0
  0
VERTEX
  5
EA
330
6F
100
AcDbEntity
  8
Défaut
 62
     5
420
      255
100
AcDbVertex
100
AcDb2dVertex
 10
93.28579453700934
 20
-273.9975079012383
 30
0.0
  0
VERTEX
  5
EB
330
6F
100
AcDbEntity
  8
Défaut
 62
     5
420
      255
100
AcDbVertex
100
AcDb2dVertex
 10
94.46535501130728
 20
-273.9584304188357
 30
0.0
  0
VERTEX
  5
EC
330
6F
100
AcDbEntity
  8
Défaut
 62
     5
420
      255
100
AcDbVertex
100
AcDb2dVertex
 10
95.6428485935733
 20
-273.8784377574266
 30
0.0
  0
VERTEX
  5
ED
330
6F
100
AcDbEntity
  8
Défaut
 62
     5
420
      255
100
AcDbVertex
100
AcDb2dVertex
 10
96.81685649575263
 20
-273.7576263019374
 30
0.0
  0
VERTEX
  5
EE
330
6F
100
AcDbEntity
  8
Défaut
 62
     5
420
      255
100
AcDbVertex
100
AcDb2dVertex
 10
97.9859641297636
 20
-273.5961416207625
 30
0.0
  0
VERTEX
  5
EF
330
6F
100
AcDbEntity
  8
Défaut
 62
     5
420
      255
100
AcDbVertex
100
AcDb2dVertex
 10
99.14876281196602
 20
-273.3941782903649
 30
0.0
  0
VERTEX
  5
F0
330
6F
100
AcDbEntity
  8
Défaut
 62
     5
420
      255
100
AcDbVertex
100
AcDb2dVertex
 10
100.3038514605151
 20
-273.1519796608274
 30
0.0
  0
VERTEX
  5
F1
330
6F
100
AcDbEntity
  8
Défaut
 62
     5
420
      255
100
AcDbVertex
100
AcDb2dVertex
 10
101.4498382835564
 20
-272.8698375626344
 30
0.0
  0
VERTEX
  5
F2
330
6F
100
AcDbEntity
  8
Défaut
 62
     5
420
      255
100
AcDbVertex
100
AcDb2dVertex
 10
102.5853424562259
 20
-272.5480919550389
 30
0.0
  0
VERTEX
  5
F3
330
6F
100
AcDbEntity
  8
Défaut
 62
     5
420
      255
100
AcDbVertex
100
AcDb2dVertex
 10
103.7089957844371
 20
-272.1871305164381
 30
0.0
  0
VERTEX
  5
F4
330
6F
100
AcDbEntity
  8
Défaut
 62
     5
420
      255
100
AcDbVertex
100
AcDb2dVertex
 10
104.819444353448
 20
-271.7873881772511
 30
0.0
  0
VERTEX
  5
F5
330
6F
100
AcDbEntity
  8
Défaut
 62
     5
420
      255
100
AcDbVertex
100
AcDb2dVertex
 10
105.9153501592228
 20
-271.3493465958618
 30
0.0
  0
VERTEX
  5
F6
330
6F
100
AcDbEntity
  8
Défaut
 62
     5
420
      255
100
AcDbVertex
100
AcDb2dVertex
 10
106.9953927206228
 20
-270.8735335782579
 30
0.0
  0
VERTEX
  5
F7
330
6F
100
AcDbEntity
  8
Défaut
 62
     5
420
      255
100
AcDbVertex
100
AcDb2dVertex
 10
108.0582706704834
 20
-270.3605224420658
 30
0.0
  0
VERTEX
  5
F8
330
6F
100
AcDbEntity
  8
Défaut
 62
     5
420
      255
100
AcDbVertex
100
AcDb2dVertex
 10
109.1027033236596
 20
-269.8109313257473
 30
0.0
  0
VERTEX
  5
F9
330
6F
100
AcDbEntity
  8
Défaut
 62
     5
420
      255
100
AcDbVertex
100
AcDb2dVertex
 10
110.1274322201526
 20
-269.2254224437914
 30
0.0
  0
VERTEX
  5
FA
330
6F
100
AcDbEntity
  8
Défaut
 62
     5
420
      255
100
AcDbVertex
100
AcDb2dVertex
 10
111.1312226414556
 20
-268.6047012887972
 30
0.0
  0
VERTEX
  5
FB
330
6F
100
AcDbEntity
  8
Défaut
 62
     5
420
      255
100
AcDbVertex
100
AcDb2dVertex
 10
112.1128650982935
 20
-267.9495157814101
 30
0.0
  0
VERTEX
  5
FC
330
6F
100
AcDbEntity
  8
Défaut
 62
     5
420
      255
100
AcDbVertex
100
AcDb2dVertex
 10
113.0711767879635
 20
-267.2606553691357
 30
0.0
  0
VERTEX
  5
FD
330
6F
100
AcDbEntity
  8
Défaut
 62
     5
420
      255
100
AcDbVertex
100
AcDb2dVertex
 10
114.0050030195198
 20
-266.5389500751173
 30
0.0
  0
VERTEX
  5
FE
330
6F
100
AcDbEntity
  8
Défaut
 62
     5
420
      255
100
AcDbVertex
100
AcDb2dVertex
 10
114.9132186050868
 20
-265.7852694980225
 30
0.0
  0
VERTEX
  5
FF
330
6F
100
AcDbEntity
  8
Défaut
 62
     5
420
      255
100
AcDbVertex
100
AcDb2dVertex
 10
115.7947292156225
 20
-265.0005217642444
 30
0.0
  0
VERTEX
  5
100
330
6F
100
AcDbEntity
  8
Défaut
 62
     5
420
      255
100
AcDbVertex
100
AcDb2dVertex
 10
116.6484726994997
 20
-264.18565243368
 30
0.0
  0
VERTEX
  5
101
330
6F
100
AcDbEntity
  8
Défaut
 62
     5
420
      255
100
AcDbVertex
100
AcDb2dVertex
 10
117.4734203623161
 20
-263.341643360405
 30
0.0
  0
VERTEX
  5
102
330
6F
100
AcDbEntity
  8
Défaut
 62
     5
420
      255
100
AcDbVertex
100
AcDb2dVertex
 10
118.2685782063912
 20
-262.4695115096148
 30
0.0
  0
VERTEX
  5
103
330
6F
100
AcDbEntity
  8
Défaut
 62
     5
420
      255
100
AcDbVertex
100
AcDb2dVertex
 10
119.0329881284557
 20
-261.5703077322616
 30
0.0
  0
VERTEX
  5
104
330
6F
100
AcDbEntity
  8
Défaut
 62
     5
420
      255
100
AcDbVertex
100
AcDb2dVertex
 10
119.7657290740912
 20
-260.6451154988604
 30
0.0
  0
VERTEX
  5
105
330
6F
100
AcDbEntity
  8
Défaut
 62
     5
420
      255
100
AcDbVertex
100
AcDb2dVertex
 10
120.4659181475297
 20
-259.6950495939915
 30
0.0
  0
VERTEX
  5
106
330
6F
100
AcDbEntity
  8
Défaut
 62
     5
420
      255
100
AcDbVertex
100
AcDb2dVertex
 10
121.1327116754736
 20
-258.7212547730723
 30
0.0
  0
VERTEX
  5
107
330
6F
100
AcDbEntity
  8
Défaut
 62
     5
420
      255
100
AcDbVertex
100
AcDb2dVertex
 10
121.7653062236565
 20
-257.7249043830155
 30
0.0
  0
VERTEX
  5
108
330
6F
100
AcDbEntity
  8
Défaut
 62
     5
420
      255
100
AcDbVertex
100
AcDb2dVertex
 10
122.3629395649189
 20
-256.7071989484381
 30
0.0
  0
VERTEX
  5
109
330
6F
100
AcDbEntity
  8
Défaut
 62
     5
420
      255
100
AcDbVertex
100
AcDb2dVertex
 10
122.9248915976328
 20
-255.6693647251223
 30
0.0
  0
VERTEX
  5
10A
330
6F
100
AcDbEntity
  8
Défaut
 62
     5
420
      255
100
AcDbVertex
100
AcDb2dVertex
 10
123.4504852133678
 20
-254.6126522224729
 30
0.0
  0
VERTEX
  5
10B
330
6F
100
AcDbEntity
  8
Défaut
 62
     5
420
      255
100
AcDbVertex
100
AcDb2dVertex
 10
123.939087112754
 20
-253.538334696751
 30
0.0
  0
VERTEX
  5
10C
330
6F
100
AcDbEntity
  8
Défaut
 62
     5
420
      255
100
AcDbVertex
100
AcDb2dVertex
 10
124.3901085685585
 20
-252.4477066168994
 30
0.0
  0
VERTEX
  5
10D
330
6F
100
AcDbEntity
  8
Défaut
 62
     5
420
      255
100
AcDbVertex
100
AcDb2dVertex
 10
124.8030061350562
 20
-251.342082104808
 30
0.0
  0
VERTEX
  5
10E
330
6F
100
AcDbEntity
  8
Défaut
 62
     5
420
      255
100
AcDbVertex
100
AcDb2dVertex
 10
125.1772823028387
 20
-250.2227933518998
 30
0.0
  0
VERTEX
  5
10F
330
6F
100
AcDbEntity
  8
Défaut
 62
     5
420
      255
100
AcDbVertex
100
AcDb2dVertex
 10
125.5124860982754
 20
-249.0911890139433
 30
0.0
  0
VERTEX
  5
110
330
6F
100
AcDbEntity
  8
Défaut
 62
     5
420
      255
100
AcDbVertex
100
AcDb2dVertex
 10
125.8082136269009
 20
-247.9486325860283
 30
0.0
  0
VERTEX
  5
111
330
6F
100
AcDbEntity
  8
Défaut
 62
     5
420
      255
100
AcDbVertex
100
AcDb2dVertex
 10
126.0641085600766
 20
-246.7965007596596
 30
0.0
  0
VERTEX
  5
112
330
6F
100
AcDbEntity
  8
Défaut
 62
     5
420
      255
100
AcDbVertex
100
AcDb2dVertex
 10
126.2798625643391
 20
-245.6361817639511
 30
0.0
  0
VERTEX
  5
113
330
6F
100
AcDbEntity
  8
Défaut
 62
     5
420
      255
100
AcDbVertex
100
AcDb2dVertex
 10
126.4552156729178
 20
-244.4690736929189
 30
0.0
  0
VERTEX
  5
114
330
6F
100
AcDbEntity
  8
Défaut
 62
     5
420
      255
100
AcDbVertex
100
AcDb2dVertex
 10
126.5899565989746
 20
-243.2965828208852
 30
0.0
  0
VERTEX
  5
115
330
6F
100
AcDbEntity
  8
Défaut
 62
     5
420
      255
100
AcDbVertex
100
AcDb2dVertex
 10
126.6839229901882
 20
-242.1201219080287
 30
0.0
  0
VERTEX
  5
116
330
6F
100
AcDbEntity
  8
Défaut
 62
     5
420
      255
100
AcDbVertex
100
AcDb2dVertex
 10
126.7370016243761
 20
-240.9411084981178
 30
0.0
  0
VERTEX
  5
117
330
6F
100
AcDbEntity
  8
Défaut
 62
     5
420
      255
100
AcDbVertex
100
AcDb2dVertex
 10
126.7491285459181
 20
-239.7609632104812
 30
0.0
  0
VERTEX
  5
118
330
6F
100
AcDbEntity
  8
Défaut
 62
     5
420
      255
100
AcDbVertex
100
AcDb2dVertex
 10
126.7202891428184
 20
-238.5811080282721
 30
0.0
  0
VERTEX
  5
119
330
6F
100
AcDbEntity
  8
Défaut
 62
     5
420
      255
100
AcDbVertex
100
AcDb2dVertex
 10
126.6505181643115
 20
-237.4029645850891
 30
0.0
  0
VERTEX
  5
11A
330
6F
100
AcDbEntity
  8
Défaut
 62
     5
420
      255
100
AcDbVertex
100
AcDb2dVertex
 10
126.5398996789922
 20
-236.2279524520187
 30
0.0
  0
VERTEX
  5
11B
330
6F
100
AcDbEntity
  8
Défaut
 62
     5
420
      255
100
AcDbVertex
100
AcDb2dVertex
 10
126.3885669735195
 20
-235.0574874271627
 30
0.0
  0
VERTEX
  5
11C
330
6F
100
AcDbEntity
  8
Défaut
 62
     5
420
      255
100
AcDbVertex
100
AcDb2dVertex
 10
126.1967023920166
 20
-233.8929798297114
 30
0.0
  0
VERTEX
  5
11D
330
6F
100
AcDbEntity
  8
Défaut
 62
     5
420
      255
100
AcDbVertex
100
AcDb2dVertex
 10
125.9645371163604
 20
-232.7358328006194
 30
0.0
  0
VERTEX
  5
11E
330
6F
100
AcDbEntity
  8
Défaut
 62
     5
420
      255
100
AcDbVertex
100
AcDb2dVertex
 10
125.6923508876253
 20
-231.5874406119297
 30
0.0
  0
VERTEX
  5
11F
330
6F
100
AcDbEntity
  8
Défaut
 62
     5
420
      255
100
AcDbVertex
100
AcDb2dVertex
 10
125.380471669017
 20
-230.449186986784
 30
0.0
  0
VERTEX
  5
120
330
6F
100
AcDbEntity
  8
Défaut
 62
     5
420
      255
100
AcDbVertex
100
AcDb2dVertex
 10
125.0292752507025
 20
-229.3224434321452
 30
0.0
  0
VERTEX
  5
121
330
6F
100
AcDbEntity
  8
Défaut
 62
     5
420
      255
100
AcDbVertex
100
AcDb2dVertex
 10
124.6391847970121
 20
-228.2085675862375
 30
0.0
  0
VERTEX
  5
122
330
6F
100
AcDbEntity
  8
Défaut
 62
     5
420
      255
100
AcDbVertex
100
AcDb2dVertex
 10
124.2106703365593
 20
-227.1089015826984
 30
0.0
  0
VERTEX
  5
123
330
6F
100
AcDbEntity
  8
Défaut
 62
     5
420
      255
100
AcDbVertex
100
AcDb2dVertex
 10
123.7442481958932
 20
-226.0247704334118
 30
0.0
  0
VERTEX
  5
124
330
6F
100
AcDbEntity
  8
Défaut
 62
     5
420
      255
100
AcDbVertex
100
AcDb2dVertex
 10
123.2404803773647
 20
-224.9574804319727
 30
0.0
  0
SEQEND
  5
125
330
6F
100
AcDbEntity
  8
Défaut
 62
     5
420
      255
  0
POLYLINE
  5
126
330
1F
100
AcDbEntity
  8
Défaut
 62
     5
420
      255
100
AcDb2dPolyline
 66
     1
 10
0.0
 20
0.0
 30
0.0
  0
VERTEX
  5
127
330
126
100
AcDbEntity
  8
Défaut
 62
     5
420
      255
100
AcDbVertex
100
AcDb2dVertex
 10
24.17370576048739
 20
-199.9987596500432
 30
0.0
  0
VERTEX
  5
128
330
126
100
AcDbEntity
  8
Défaut
 62
     5
420
      255
100
AcDbVertex
100
AcDb2dVertex
 10
33.99725673995266
 20
-217.1899738641075
 30
0.0
  0
SEQEND
  5
129
330
126
100
AcDbEntity
  8
Défaut
 62
     5
420
      255
  0
POLYLINE
  5
12A
330
1F
100
AcDbEntity
  8
Défaut
 62
     5
420
      255
100
AcDb2dPolyline
 66
     1
 10
0.0
 20
0.0
 30
0.0
  0
VERTEX
  5
12B
330
12A
100
AcDbEntity
  8
Défaut
 62
     5
420
      255
100
AcDbVertex
100
AcDb2dVertex
 10
33.99725673995266
 20
-217.1899738641075
 30
0.0
  0
VERTEX
  5
12C
330
12A
100
AcDbEntity
  8
Défaut
 62
     5
420
      255
100
AcDbVertex
100
AcDb2dVertex
 10
30.69793279987977
 20
-219.0753018298635
 30
0.0
  0
SEQEND
  5
12D
330
12A
100
AcDbEntity
  8
Défaut
 62
     5
420
      255
  0
POLYLINE
  5
12E
330
1F
100
AcDbEntity
  8
Défaut
 62
     5
420
      255
100
AcDb2dPolyline
 66
     1
 10
0.0
 20
0.0
 30
0.0
  0
VERTEX
  5
12F
330
12E
100
AcDbEntity
  8
Défaut
 62
     5
420
      255
100
AcDbVertex
100
AcDb2dVertex
 10
30.69793279987977
 20
-219.0753018298635
 30
0.0
  0
VERTEX
  5
130
330
12E
100
AcDbEntity
  8
Défaut
 62
     5
420
      255
100
AcDbVertex
100
AcDb2dVertex
 10
67.94343041379477
 20
-284.2549226542148
 30
0.0
  0
SEQEND
  5
131
330
12E
100
AcDbEntity
  8
Défaut
 62
     5
420
      255
  0
POLYLINE
  5
132
330
1F
100
AcDbEntity
  8
Défaut
 62
     5
420
      255
100
AcDb2dPolyline
 66
     1
 10
0.0
 20
0.0
 30
0.0
  0
VERTEX
  5
133
330
132
100
AcDbEntity
  8
Défaut
 62
     5
420
      255
100
AcDbVertex
100
AcDb2dVertex
 10
67.94343041379477
 20
-284.2549226542148
 30
0.0
  0
VERTEX
  5
134
330
132
100
AcDbEntity
  8
Défaut
 62
     5
420
      255
100
AcDbVertex
100
AcDb2dVertex
 10
82.84998103787558
 20
-284.2549226542148
 30
0.0
  0
SEQEND
  5
135
330
132
100
AcDbEntity
  8
Défaut
 62
     5
420
      255
  0
POLYLINE
  5
136
330
1F
100
AcDbEntity
  8
Défaut
 62
     5
420
      255
100
AcDb2dPolyline
 66
     1
 10
0.0
 20
0.0
 30
0.0
  0
VERTEX
  5
137
330
136
100
AcDbEntity
  8
Défaut
 62
     5
420
      255
100
AcDbVertex
100
AcDb2dVertex
 10
82.84998103787564
 20
-284.2549226542148
 30
0.0
  0
VERTEX
  5
138
330
136
100
AcDbEntity
  8
Défaut
 62
     5
420
      255
100
AcDbVertex
100
AcDb2dVertex
 10
82.84998103787564
 20
-280.4549226542148
 30
0.0
  0
SEQEND
  5
139
330
136
100
AcDbEntity
  8
Défaut
 62
     5
420
      255
  0
POLYLINE
  5
13A
330
1F
100
AcDbEntity
  8
Défaut
 62
     5
420
      255
100
AcDb2dPolyline
 66
     1
 10
0.0
 20
0.0
 30
0.0
  0
VERTEX
  5
13B
330
13A
100
AcDbEntity
  8
Défaut
 62
     5
420
      255
100
AcDbVertex
100
AcDb2dVertex
 10
82.84998103787564
 20
-280.4549226542148
 30
0.0
  0
VERTEX
  5
13C
330
13A
100
AcDbEntity
  8
Défaut
 62
     5
420
      255
100
AcDbVertex
100
AcDb2dVertex
 10
102.6499810378756
 20
-280.4549226542148
 30
0.0
  0
SEQEND
  5
13D
330
13A
100
AcDbEntity
  8
Défaut
 62
     5
420
      255
  0
POLYLINE
  5
13E
330
1F
100
AcDbEntity
  8
Défaut
 62
     5
420
      255
100
AcDb2dPolyline
 66
     1
 10
0.0
 20
0.0
 30
0.0
  0
VERTEX
  5
13F
330
13E
100
AcDbEntity
  8
Défaut
 62
     5
420
      255
100
AcDbVertex
100
AcDb2dVertex
 10
102.6499810378756
 20
-280.4549226542148
 30
0.0
  0
VERTEX
  5
140
330
13E
100
AcDbEntity
  8
Défaut
 62
     5
420
      255
100
AcDbVertex
100
AcDb2dVertex
 10
102.6499810378756
 20
-284.2549226542148
 30
0.0
  0
SEQEND
  5
141
330
13E
100
AcDbEntity
  8
Défaut
 62
     5
420
      255
  0
POLYLINE
  5
142
330
1F
100
AcDbEntity
  8
Défaut
 62
     5
420
      255
100
AcDb2dPolyline
 66
     1
 10
0.0
 20
0.0
 30
0.0
  0
VERTEX
  5
143
330
142
100
AcDbEntity
  8
Défaut
 62
     5
420
      255
100
AcDbVertex
100
AcDb2dVertex
 10
102.6499810378756
 20
-284.2549226542148
 30
0.0
  0
VERTEX
  5
144
330
142
100
AcDbEntity
  8
Défaut
 62
     5
420
      255
100
AcDbVertex
100
AcDb2dVertex
 10
117.5565316619566
 20
-284.2549226542149
 30
0.0
  0
SEQEND
  5
145
330
142
100
AcDbEntity
  8
Défaut
 62
     5
420
      255
  0
POLYLINE
  5
146
330
1F
100
AcDbEntity
  8
Défaut
 62
     5
420
      255
100
AcDb2dPolyline
 66
     1
 10
0.0
 20
0.0
 30
0.0
  0
VERTEX
  5
147
330
146
100
AcDbEntity
  8
Défaut
 62
     5
420
      255
100
AcDbVertex
100
AcDb2dVertex
 10
117.5565316619566
 20
-284.2549226542149
 30
0.0
  0
VERTEX
  5
148
330
146
100
AcDbEntity
  8
Défaut
 62
     5
420
      255
100
AcDbVertex
100
AcDb2dVertex
 10
154.8020292758716
 20
-219.0753018298635
 30
0.0
  0
SEQEND
  5
149
330
146
100
AcDbEntity
  8
Défaut
 62
     5
420
      255
  0
POLYLINE
  5
14A
330
1F
100
AcDbEntity
  8
Défaut
 62
     5
420
      255
100
AcDb2dPolyline
 66
     1
 10
0.0
 20
0.0
 30
0.0
  0
VERTEX
  5
14B
330
14A
100
AcDbEntity
  8
Défaut
 62
     5
420
      255
100
AcDbVertex
100
AcDb2dVertex
 10
154.8020292758716
 20
-219.0753018298635
 30
0.0
  0
VERTEX
  5
14C
330
14A
100
AcDbEntity
  8
Défaut
 62
     5
420
      255
100
AcDbVertex
100
AcDb2dVertex
 10
151.5027053357986
 20
-217.1899738641075
 30
0.0
  0
SEQEND
  5
14D
330
14A
100
AcDbEntity
  8
Défaut
 62
     5
420
      255
  0
POLYLINE
  5
14E
330
1F
100
AcDbEntity
  8
Défaut
 62
     5
420
      255
100
AcDb2dPolyline
 66
     1
 10
0.0
 20
0.0
 30
0.0
  0
VERTEX
  5
14F
330
14E
100
AcDbEntity
  8
Défaut
 62
     5
420
      255
100
AcDbVertex
100
AcDb2dVertex
 10
151.5027053357986
 20
-217.1899738641075
 30
0.0
  0
VERTEX
  5
150
330
14E
100
AcDbEntity
  8
Défaut
 62
     5
420
      255
100
AcDbVertex
100
AcDb2dVertex
 10
161.3262563152639
 20
-199.9987596500432
 30
0.0
  0
SEQEND
  5
151
330
14E
100
AcDbEntity
  8
Défaut
 62
     5
420
      255
  0
POLYLINE
  5
152
330
1F
100
AcDbEntity
  8
Défaut
 62
     5
420
      255
100
AcDb2dPolyline
 66
     1
 10
0.0
 20
0.0
 30
0.0
  0
VERTEX
  5
153
330
152
100
AcDbEntity
  8
Défaut
 62
     5
420
      255
100
AcDbVertex
100
AcDb2dVertex
 10
161.3262563152639
 20
-199.9987596500432
 30
0.0
  0
VERTEX
  5
154
330
152
100
AcDbEntity
  8
Défaut
 62
     5
420
      255
100
AcDbVertex
100
AcDb2dVertex
 10
164.6255802553369
 20
-201.8840876157992
 30
0.0
  0
SEQEND
  5
155
330
152
100
AcDbEntity
  8
Défaut
 62
     5
420
      255
  0
POLYLINE
  5
156
330
1F
100
AcDbEntity
  8
Défaut
 62
     5
420
      255
100
AcDb2dPolyline
 66
     1
 10
0.0
 20
0.0
 30
0.0
  0
VERTEX
  5
157
330
156
100
AcDbEntity
  8
Défaut
 62
     5
420
      255
100
AcDbVertex
100
AcDb2dVertex
 10
164.6255802553369
 20
-201.8840876157992
 30
0.0
  0
VERTEX
  5
158
330
156
100
AcDbEntity
  8
Défaut
 62
     5
420
      255
100
AcDbVertex
100
AcDb2dVertex
 10
167.8911148219261
 20
-196.1694021242682
 30
0.0
  0
SEQEND
  5
159
330
156
100
AcDbEntity
  8
Défaut
 62
     5
420
      255
  0
POLYLINE
  5
15A
330
1F
100
AcDbEntity
  8
Défaut
 62
     5
420
      255
100
AcDb2dPolyline
 66
     1
 10
0.0
 20
0.0
 30
0.0
  0
VERTEX
  5
15B
330
15A
100
AcDbEntity
  8
Défaut
 62
     5
420
      255
100
AcDbVertex
100
AcDb2dVertex
 10
167.8911148219261
 20
-196.1694021242682
 30
0.0
  0
VERTEX
  5
15C
330
15A
100
AcDbEntity
  8
Défaut
 62
     5
420
      255
100
AcDbVertex
100
AcDb2dVertex
 10
167.8911148219262
 20
-192.3694021242682
 30
0.0
  0
SEQEND
  5
15D
330
15A
100
AcDbEntity
  8
Défaut
 62
     5
420
      255
  0
POLYLINE
  5
15E
330
1F
100
AcDbEntity
  8
Défaut
 62
     5
420
      255
100
AcDb2dPolyline
 66
     1
 10
0.0
 20
0.0
 30
0.0
  0
VERTEX
  5
15F
330
15E
100
AcDbEntity
  8
Défaut
 62
     5
420
      255
100
AcDbVertex
100
AcDb2dVertex
 10
167.8911148219262
 20
-192.3694021242682
 30
0.0
  0
VERTEX
  5
160
330
15E
100
AcDbEntity
  8
Défaut
 62
     5
420
      255
100
AcDbVertex
100
AcDb2dVertex
 10
139.8911148219262
 20
-192.3694021242682
 30
0.0
  0
SEQEND
  5
161
330
15E
100
AcDbEntity
  8
Défaut
 62
     5
420
      255
  0
POLYLINE
  5
162
330
1F
100
AcDbEntity
  8
Défaut
 62
     5
420
      255
100
AcDb2dPolyline
 66
     1
 10
0.0
 20
0.0
 30
0.0
  0
VERTEX
  5
163
330
162
100
AcDbEntity
  8
Défaut
 62
     5
420
      255
100
AcDbVertex
100
AcDb2dVertex
 10
139.8911148219262
 20
-192.3694021242682
 30
0.0
  0
VERTEX
  5
164
330
162
100
AcDbEntity
  8
Défaut
 62
     5
420
      255
100
AcDbVertex
100
AcDb2dVertex
 10
139.8911148219262
 20
-196.1694021242682
 30
0.0
  0
SEQEND
  5
165
330
162
100
AcDbEntity
  8
Défaut
 62
     5
420
      255
  0
POLYLINE
  5
166
330
1F
100
AcDbEntity
  8
Défaut
 62
     5
420
      255
100
AcDb2dPolyline
 66
     1
 10
0.0
 20
0.0
 30
0.0
  0
VERTEX
  5
167
330
166
100
AcDbEntity
  8
Défaut
 62
     5
420
      255
100
AcDbVertex
100
AcDb2dVertex
 10
139.8911148219262
 20
-196.1694021242682
 30
0.0
  0
VERTEX
  5
168
330
166
100
AcDbEntity
  8
Défaut
 62
     5
420
      255
100
AcDbVertex
100
AcDb2dVertex
 10
106.7499810378757
 20
-196.1694021242682
 30
0.0
  0
SEQEND
  5
169
330
166
100
AcDbEntity
  8
Défaut
 62
     5
420
      255
  0
POLYLINE
  5
16A
330
1F
100
AcDbEntity
  8
Défaut
 62
     5
420
      255
100
AcDb2dPolyline
 66
     1
 10
0.0
 20
0.0
 30
0.0
  0
VERTEX
  5
16B
330
16A
100
AcDbEntity
  8
Défaut
 62
     5
420
      255
100
AcDbVertex
100
AcDb2dVertex
 10
106.7499810378757
 20
-196.1694021242682
 30
0.0
  0
VERTEX
  5
16C
330
16A
100
AcDbEntity
  8
Défaut
 62
     5
420
      255
100
AcDbVertex
100
AcDb2dVertex
 10
106.7499810378757
 20
-192.3694021242682
 30
0.0
  0
SEQEND
  5
16D
330
16A
100
AcDbEntity
  8
Défaut
 62
     5
420
      255
  0
POLYLINE
  5
16E
330
1F
100
AcDbEntity
  8
Défaut
 62
     5
420
      255
100
AcDb2dPolyline
 66
     1
 10
0.0
 20
0.0
 30
0.0
  0
VERTEX
  5
16F
330
16E
100
AcDbEntity
  8
Défaut
 62
     5
420
      255
100
AcDbVertex
100
AcDb2dVertex
 10
106.7499810378757
 20
-192.3694021242682
 30
0.0
  0
VERTEX
  5
170
330
16E
100
AcDbEntity
  8
Défaut
 62
     5
420
      255
100
AcDbVertex
100
AcDb2dVertex
 10
78.74998103787573
 20
-192.3694021242682
 30
0.0
  0
SEQEND
  5
171
330
16E
100
AcDbEntity
  8
Défaut
 62
     5
420
      255
  0
POLYLINE
  5
172
330
1F
100
AcDbEntity
  8
Défaut
 62
     5
420
      255
100
AcDb2dPolyline
 66
     1
 10
0.0
 20
0.0
 30
0.0
  0
VERTEX
  5
173
330
172
100
AcDbEntity
  8
Défaut
 62
     5
420
      255
100
AcDbVertex
100
AcDb2dVertex
 10
78.74998103787573
 20
-192.3694021242682
 30
0.0
  0
VERTEX
  5
174
330
172
100
AcDbEntity
  8
Défaut
 62
     5
420
      255
100
AcDbVertex
100
AcDb2dVertex
 10
78.74998103787573
 20
-196.1694021242682
 30
0.0
  0
SEQEND
  5
175
330
172
100
AcDbEntity
  8
Défaut
 62
     5
420
      255
  0
POLYLINE
  5
176
330
1F
100
AcDbEntity
  8
Défaut
 62
     5
420
      255
100
AcDb2dPolyline
 66
     1
 10
0.0
 20
0.0
 30
0.0
  0
VERTEX
  5
177
330
176
100
AcDbEntity
  8
Défaut
 62
     5
420
      255
100
AcDbVertex
100
AcDb2dVertex
 10
78.74998103787573
 20
-196.1694021242682
 30
0.0
  0
VERTEX
  5
178
330
176
100
AcDbEntity
  8
Défaut
 62
     5
420
      255
100
AcDbVertex
100
AcDb2dVertex
 10
45.60884725382527
 20
-196.1694021242682
 30
0.0
  0
SEQEND
  5
179
330
176
100
AcDbEntity
  8
Défaut
 62
     5
420
      255
  0
POLYLINE
  5
17A
330
1F
100
AcDbEntity
  8
Défaut
 62
     5
420
      255
100
AcDb2dPolyline
 66
     1
 10
0.0
 20
0.0
 30
0.0
  0
VERTEX
  5
17B
330
17A
100
AcDbEntity
  8
Défaut
 62
     5
420
      255
100
AcDbVertex
100
AcDb2dVertex
 10
45.60884725382527
 20
-196.1694021242682
 30
0.0
  0
VERTEX
  5
17C
330
17A
100
AcDbEntity
  8
Défaut
 62
     5
420
      255
100
AcDbVertex
100
AcDb2dVertex
 10
45.60884725382527
 20
-192.3694021242682
 30
0.0
  0
SEQEND
  5
17D
330
17A
100
AcDbEntity
  8
Défaut
 62
     5
420
      255
  0
POLYLINE
  5
17E
330
1F
100
AcDbEntity
  8
Défaut
 62
     5
420
      255
100
AcDb2dPolyline
 66
     1
 10
0.0
 20
0.0
 30
0.0
  0
VERTEX
  5
17F
330
17E
100
AcDbEntity
  8
Défaut
 62
     5
420
      255
100
AcDbVertex
100
AcDb2dVertex
 10
45.60884725382527
 20
-192.3694021242682
 30
0.0
  0
VERTEX
  5
180
330
17E
100
AcDbEntity
  8
Défaut
 62
     5
420
      255
100
AcDbVertex
100
AcDb2dVertex
 10
17.60884725382527
 20
-192.3694021242682
 30
0.0
  0
SEQEND
  5
181
330
17E
100
AcDbEntity
  8
Défaut
 62
     5
420
      255
  0
POLYLINE
  5
182
330
1F
100
AcDbEntity
  8
Défaut
 62
     5
420
      255
100
AcDb2dPolyline
 66
     1
 10
0.0
 20
0.0
 30
0.0
  0
VERTEX
  5
183
330
182
100
AcDbEntity
  8
Défaut
 62
     5
420
      255
100
AcDbVertex
100
AcDb2dVertex
 10
17.60884725382527
 20
-192.3694021242682
 30
0.0
  0
VERTEX
  5
184
330
182
100
AcDbEntity
  8
Défaut
 62
     5
420
      255
100
AcDbVertex
100
AcDb2dVertex
 10
17.60884725382527
 20
-196.1694021242682
 30
0.0
  0
SEQEND
  5
185
330
182
100
AcDbEntity
  8
Défaut
 62
     5
420
      255
  0
POLYLINE
  5
186
330
1F
100
AcDbEntity
  8
Défaut
 62
     5
420
      255
100
AcDb2dPolyline
 66
     1
 10
0.0
 20
0.0
 30
0.0
  0
VERTEX
  5
187
330
186
100
AcDbEntity
  8
Défaut
 62
     5
420
      255
100
AcDbVertex
100
AcDb2dVertex
 10
17.60884725382527
 20
-196.1694021242682
 30
0.0
  0
VERTEX
  5
188
330
186
100
AcDbEntity
  8
Défaut
 62
     5
420
      255
100
AcDbVertex
100
AcDb2dVertex
 10
20.87438182041444
 20
-201.8840876157993
 30
0.0
  0
SEQEND
  5
189
330
186
100
AcDbEntity
  8
Défaut
 62
     5
420
      255
  0
POLYLINE
  5
18A
330
1F
100
AcDbEntity
  8
Défaut
 62
     5
420
      255
100
AcDb2dPolyline
 66
     1
 10
0.0
 20
0.0
 30
0.0
  0
VERTEX
  5
18B
330
18A
100
AcDbEntity
  8
Défaut
 62
     5
420
      255
100
AcDbVertex
100
AcDb2dVertex
 10
20.8743818204145
 20
-201.8840876157992
 30
0.0
  0
VERTEX
  5
18C
330
18A
100
AcDbEntity
  8
Défaut
 62
     5
420
      255
100
AcDbVertex
100
AcDb2dVertex
 10
24.17370576048739
 20
-199.9987596500432
 30
0.0
  0
SEQEND
  5
18D
330
18A
100
AcDbEntity
  8
Défaut
 62
     5
420
      255
  0
POLYLINE
  5
18E
330
1F
100
AcDbEntity
  8
Défaut
 62
     5
420
      255
100
AcDb2dPolyline
 66
     1
 10
0.0
 20
0.0
 30
0.0
 70
     1
  0
VERTEX
  5
18F
330
18E
100
AcDbEntity
  8
Défaut
 62
     5
420
      255
100
AcDbVertex
100
AcDb2dVertex
 10
338.9970257925448
 20
-139.2285858670563
 30
0.0
  0
VERTEX
  5
190
330
18E
100
AcDbEntity
  8
Défaut
 62
     5
420
      255
100
AcDbVertex
100
AcDb2dVertex
 10
338.9807593440248
 20
-138.2915033612264
 30
0.0
  0
VERTEX
  5
191
330
18E
100
AcDbEntity
  8
Défaut
 62
     5
420
      255
100
AcDbVertex
100
AcDb2dVertex
 10
338.9319795982684
 20
-137.3555499668291
 30
0.0
  0
VERTEX
  5
192
330
18E
100
AcDbEntity
  8
Défaut
 62
     5
420
      255
100
AcDbVertex
100
AcDb2dVertex
 10
338.8507453310697
 20
-136.4218534348057
 30
0.0
  0
VERTEX
  5
193
330
18E
100
AcDbEntity
  8
Défaut
 62
     5
420
      255
100
AcDbVertex
100
AcDb2dVertex
 10
338.7371544233937
 20
-135.4915387967539
 30
0.0
  0
VERTEX
  5
194
330
18E
100
AcDbEntity
  8
Défaut
 62
     5
420
      255
100
AcDbVertex
100
AcDb2dVertex
 10
338.5913437434369
 20
-134.5657270093531
 30
0.0
  0
VERTEX
  5
195
330
18E
100
AcDbEntity
  8
Défaut
 62
     5
420
      255
100
AcDbVertex
100
AcDb2dVertex
 10
338.4134889817117
 20
-133.6455336036977
 30
0.0
  0
VERTEX
  5
196
330
18E
100
AcDbEntity
  8
Défaut
 62
     5
420
      255
100
AcDbVertex
100
AcDb2dVertex
 10
338.2038044393533
 20
-132.7320673411702
 30
0.0
  0
VERTEX
  5
197
330
18E
100
AcDbEntity
  8
Défaut
 62
     5
420
      255
100
AcDbVertex
100
AcDb2dVertex
 10
337.9625427699037
 20
-131.8264288774695
 30
0.0
  0
VERTEX
  5
198
330
18E
100
AcDbEntity
  8
Défaut
 62
     5
420
      255
100
AcDbVertex
100
AcDb2dVertex
 10
337.6899946748831
 20
-130.9297094364063
 30
0.0
  0
VERTEX
  5
199
330
18E
100
AcDbEntity
  8
Défaut
 62
     5
420
      255
100
AcDbVertex
100
AcDb2dVertex
 10
337.386488553518
 20
-130.0429894950641
 30
0.0
  0
VERTEX
  5
19A
330
18E
100
AcDbEntity
  8
Défaut
 62
     5
420
      255
100
AcDbVertex
100
AcDb2dVertex
 10
337.0523901070454
 20
-129.1673374819079
 30
0.0
  0
VERTEX
  5
19B
330
18E
100
AcDbEntity
  8
Défaut
 62
     5
420
      255
100
AcDbVertex
100
AcDb2dVertex
 10
336.6881018980712
 20
-128.3038084894113
 30
0.0
  0
VERTEX
  5
19C
330
18E
100
AcDbEntity
  8
Défaut
 62
     5
420
      255
100
AcDbVertex
100
AcDb2dVertex
 10
336.2940628655138
 20
-127.4534430027521
 30
0.0
  0
VERTEX
  5
19D
330
18E
100
AcDbEntity
  8
Défaut
 62
     5
420
      255
100
AcDbVertex
100
AcDb2dVertex
 10
335.8707477957166
 20
-126.6172656461091
 30
0.0
  0
VERTEX
  5
19E
330
18E
100
AcDbEntity
  8
Défaut
 62
     5
420
      255
100
AcDbVertex
100
AcDb2dVertex
 10
335.4186667503679
 20
-125.7962839480692
 30
0.0
  0
VERTEX
  5
19F
330
18E
100
AcDbEntity
  8
Défaut
 62
     5
420
      255
100
AcDbVertex
100
AcDb2dVertex
 10
334.938364451916
 20
-124.9914871276346
 30
0.0
  0
VERTEX
  5
1A0
330
18E
100
AcDbEntity
  8
Défaut
 62
     5
420
      255
100
AcDbVertex
100
AcDb2dVertex
 10
334.4304196272208
 20
-124.2038449022902
 30
0.0
  0
VERTEX
  5
1A1
330
18E
100
AcDbEntity
  8
Défaut
 62
     5
420
      255
100
AcDbVertex
100
AcDb2dVertex
 10
333.8954443102339
 20
-123.4343063195703
 30
0.0
  0
VERTEX
  5
1A2
330
18E
100
AcDbEntity
  8
Défaut
 62
     5
420
      255
100
AcDbVertex
100
AcDb2dVertex
 10
333.3340831045441
 20
-122.6837986135296
 30
0.0
  0
VERTEX
  5
1A3
330
18E
100
AcDbEntity
  8
Défaut
 62
     5
420
      255
100
AcDbVertex
100
AcDb2dVertex
 10
332.7470124066814
 20
-121.9532260874989
 30
0.0
  0
VERTEX
  5
1A4
330
18E
100
AcDbEntity
  8
Défaut
 62
     5
420
      255
100
AcDbVertex
100
AcDb2dVertex
 10
332.1349395911114
 20
-121.2434690244695
 30
0.0
  0
VERTEX
  5
1A5
330
18E
100
AcDbEntity
  8
Défaut
 62
     5
420
      255
100
AcDbVertex
100
AcDb2dVertex
 10
331.498602157904
 20
-120.5553826264213
 30
0.0
  0
VERTEX
  5
1A6
330
18E
100
AcDbEntity
  8
Défaut
 62
     5
420
      255
100
AcDbVertex
100
AcDb2dVertex
 10
330.8387668441036
 20
-119.8897959838706
 30
0.0
  0
VERTEX
  5
1A7
330
18E
100
AcDbEntity
  8
Défaut
 62
     5
420
      255
100
AcDbVertex
100
AcDb2dVertex
 10
330.1562286998704
 20
-119.247511076881
 30
0.0
  0
VERTEX
  5
1A8
330
18E
100
AcDbEntity
  8
Défaut
 62
     5
420
      255
100
AcDbVertex
100
AcDb2dVertex
 10
329.4518101305071
 20
-118.6293018087395
 30
0.0
  0
VERTEX
  5
1A9
330
18E
100
AcDbEntity
  8
Défaut
 62
     5
420
      255
100
AcDbVertex
100
AcDb2dVertex
 10
328.7263599055245
 20
-118.0359130734634
 30
0.0
  0
VERTEX
  5
1AA
330
18E
100
AcDbEntity
  8
Défaut
 62
     5
420
      255
100
AcDbVertex
100
AcDb2dVertex
 10
327.9807521359402
 20
-117.4680598582612
 30
0.0
  0
VERTEX
  5
1AB
330
18E
100
AcDbEntity
  8
Défaut
 62
     5
420
      255
100
AcDbVertex
100
AcDb2dVertex
 10
327.2158852210431
 20
-116.9264263820287
 30
0.0
  0
VERTEX
  5
1AC
330
18E
100
AcDbEntity
  8
Défaut
 62
     5
420
      255
100
AcDbVertex
100
AcDb2dVertex
 10
326.4326807658922
 20
-116.4116652709182
 30
0.0
  0
VERTEX
  5
1AD
330
18E
100
AcDbEntity
  8
Défaut
 62
     5
420
      255
100
AcDbVertex
100
AcDb2dVertex
 10
325.6320824708541
 20
-115.9243967719753
 30
0.0
  0
VERTEX
  5
1AE
330
18E
100
AcDbEntity
  8
Défaut
 62
     5
420
      255
100
AcDbVertex
100
AcDb2dVertex
 10
324.8150549945179
 20
-115.4652080057891
 30
0.0
  0
VERTEX
  5
1AF
330
18E
100
AcDbEntity
  8
Défaut
 62
     5
420
      255
100
AcDbVertex
100
AcDb2dVertex
 10
323.9825827913564
 20
-115.0346522590578
 30
0.0
  0
VERTEX
  5
1B0
330
18E
100
AcDbEntity
  8
Défaut
 62
     5
420
      255
100
AcDbVertex
100
AcDb2dVertex
 10
323.1356689255352
 20
-114.6332483179214
 30
0.0
  0
VERTEX
  5
1B1
330
18E
100
AcDbEntity
  8
Défaut
 62
     5
420
      255
100
AcDbVertex
100
AcDb2dVertex
 10
322.2753338622989
 20
-114.2614798428646
 30
0.0
  0
VERTEX
  5
1B2
330
18E
100
AcDbEntity
  8
Défaut
 62
     5
420
      255
100
AcDbVertex
100
AcDb2dVertex
 10
321.4026142383893
 20
-113.9197947859439
 30
0.0
  0
VERTEX
  5
1B3
330
18E
100
AcDbEntity
  8
Défaut
 62
     5
420
      255
100
AcDbVertex
100
AcDb2dVertex
 10
320.5185616129793
 20
-113.6086048510397
 30
0.0
  0
VERTEX
  5
1B4
330
18E
100
AcDbEntity
  8
Défaut
 62
     5
420
      255
100
AcDbVertex
100
AcDb2dVertex
 10
319.624241200626
 20
-113.3282849977859
 30
0.0
  0
VERTEX
  5
1B5
330
18E
100
AcDbEntity
  8
Défaut
 62
     5
420
      255
100
AcDbVertex
100
AcDb2dVertex
 10
318.7207305877701
 20
-113.0791729897724
 30
0.0
  0
VERTEX
  5
1B6
330
18E
100
AcDbEntity
  8
Défaut
 62
     5
420
      255
100
AcDbVertex
100
AcDb2dVertex
 10
317.8091184343278
 20
-112.8615689875659
 30
0.0
  0
VERTEX
  5
1B7
330
18E
100
AcDbEntity
  8
Défaut
 62
     5
420
      255
100
AcDbVertex
100
AcDb2dVertex
 10
316.890503161941
 20
-112.6757351870407
 30
0.0
  0
VERTEX
  5
1B8
330
18E
100
AcDbEntity
  8
Défaut
 62
     5
420
      255
100
AcDbVertex
100
AcDb2dVertex
 10
315.9659916304644
 20
-112.5218955034522
 30
0.0
  0
VERTEX
  5
1B9
330
18E
100
AcDbEntity
  8
Défaut
 62
     5
420
      255
100
AcDbVertex
100
AcDb2dVertex
 10
315.0366978042855
 20
-112.4002353016369
 30
0.0
  0
VERTEX
  5
1BA
330
18E
100
AcDbEntity
  8
Défaut
 62
     5
420
      255
100
AcDbVertex
100
AcDb2dVertex
 10
314.1037414100846
 20
-112.3109011726623
 30
0.0
  0
VERTEX
  5
1BB
330
18E
100
AcDbEntity
  8
Défaut
 62
     5
420
      255
100
AcDbVertex
100
AcDb2dVertex
 10
313.1682465876513
 20
-112.2540007571958
 30
0.0
  0
VERTEX
  5
1BC
330
18E
100
AcDbEntity
  8
Défaut
 62
     5
420
      255
100
AcDbVertex
100
AcDb2dVertex
 10
312.2313405353831
 20
-112.2296026158061
 30
0.0
  0
VERTEX
  5
1BD
330
18E
100
AcDbEntity
  8
Défaut
 62
     5
420
      255
100
AcDbVertex
100
AcDb2dVertex
 10
311.2941521521
 20
-112.2377361463534
 30
0.0
  0
VERTEX
  5
1BE
330
18E
100
AcDbEntity
  8
Défaut
 62
     5
420
      255
100
AcDbVertex
100
AcDb2dVertex
 10
310.3578106768086
 20
-112.2783915485669
 30
0.0
  0
VERTEX
  5
1BF
330
18E
100
AcDbEntity
  8
Défaut
 62
     5
420
      255
100
AcDbVertex
100
AcDb2dVertex
 10
309.4234443280575
 20
-112.3515198358533
 30
0.0
  0
VERTEX
  5
1C0
330
18E
100
AcDbEntity
  8
Défaut
 62
     5
420
      255
100
AcDbVertex
100
AcDb2dVertex
 10
308.4921789445216
 20
-112.4570328943224
 30
0.0
  0
VERTEX
  5
1C1
330
18E
100
AcDbEntity
  8
Défaut
 62
     5
420
      255
100
AcDbVertex
100
AcDb2dVertex
 10
307.565136628454
 20
-112.5948035889567
 30
0.0
  0
VERTEX
  5
1C2
330
18E
100
AcDbEntity
  8
Défaut
 62
     5
420
      255
100
AcDbVertex
100
AcDb2dVertex
 10
306.6434343936408
 20
-112.7646659167999
 30
0.0
  0
VERTEX
  5
1C3
330
18E
100
AcDbEntity
  8
Défaut
 62
     5
420
      255
100
AcDbVertex
100
AcDb2dVertex
 10
305.728182819486
 20
-112.966415206977
 30
0.0
  0
VERTEX
  5
1C4
330
18E
100
AcDbEntity
  8
Défaut
 62
     5
420
      255
100
AcDbVertex
100
AcDb2dVertex
 10
304.8204847128497
 20
-113.1998083673072
 30
0.0
  0
VERTEX
  5
1C5
330
18E
100
AcDbEntity
  8
Défaut
 62
     5
420
      255
100
AcDbVertex
100
AcDb2dVertex
 10
303.9214337792523
 20
-113.4645641772105
 30
0.0
  0
VERTEX
  5
1C6
330
18E
100
AcDbEntity
  8
Défaut
 62
     5
420
      255
100
AcDbVertex
100
AcDb2dVertex
 10
303.032113305044
 20
-113.7603636265573
 30
0.0
  0
VERTEX
  5
1C7
330
18E
100
AcDbEntity
  8
Défaut
 62
     5
420
      255
100
AcDbVertex
100
AcDb2dVertex
 10
302.1535948521293
 20
-114.08685030005
 30
0.0
  0
VERTEX
  5
1C8
330
18E
100
AcDbEntity
  8
Défaut
 62
     5
420
      255
100
AcDbVertex
100
AcDb2dVertex
 10
301.2869369668186
 20
-114.4436308066764
 30
0.0
  0
VERTEX
  5
1C9
330
18E
100
AcDbEntity
  8
Défaut
 62
     5
420
      255
100
AcDbVertex
100
AcDb2dVertex
 10
300.4331839043618
 20
-114.8302752537146
 30
0.0
  0
VERTEX
  5
1CA
330
18E
100
AcDbEntity
  8
Défaut
 62
     5
420
      255
100
AcDbVertex
100
AcDb2dVertex
 10
299.5933643707025
 20
-115.2463177647208
 30
0.0
  0
VERTEX
  5
1CB
330
18E
100
AcDbEntity
  8
Défaut
 62
     5
420
      255
100
AcDbVertex
100
AcDb2dVertex
 10
298.7684902829675
 20
-115.6912570408736
 30
0.0
  0
VERTEX
  5
1CC
330
18E
100
AcDbEntity
  8
Défaut
 62
     5
420
      255
100
AcDbVertex
100
AcDb2dVertex
 10
297.9595555501853
 20
-116.1645569650004
 30
0.0
  0
VERTEX
  5
1CD
330
18E
100
AcDbEntity
  8
Défaut
 62
     5
420
      255
100
AcDbVertex
100
AcDb2dVertex
 10
297.167534875703
 20
-116.6656472475568
 30
0.0
  0
VERTEX
  5
1CE
330
18E
100
AcDbEntity
  8
Défaut
 62
     5
420
      255
100
AcDbVertex
100
AcDb2dVertex
 10
296.3933825827448
 20
-117.1939241137808
 30
0.0
  0
VERTEX
  5
1CF
330
18E
100
AcDbEntity
  8
Défaut
 62
     5
420
      255
100
AcDbVertex
100
AcDb2dVertex
 10
295.6380314645271
 20
-117.7487510311949
 30
0.0
  0
VERTEX
  5
1D0
330
18E
100
AcDbEntity
  8
Défaut
 62
     5
420
      255
100
AcDbVertex
100
AcDb2dVertex
 10
294.9023916603151
 20
-118.3294594765776
 30
0.0
  0
VERTEX
  5
1D1
330
18E
100
AcDbEntity
  8
Défaut
 62
     5
420
      255
100
AcDbVertex
100
AcDb2dVertex
 10
294.1873495587756
 20
-118.935349741482
 30
0.0
  0
VERTEX
  5
1D2
330
18E
100
AcDbEntity
  8
Défaut
 62
     5
420
      255
100
AcDbVertex
100
AcDb2dVertex
 10
293.4937667299483
 20
-119.5656917753302
 30
0.0
  0
VERTEX
  5
1D3
330
18E
100
AcDbEntity
  8
Défaut
 62
     5
420
      255
100
AcDbVertex
100
AcDb2dVertex
 10
292.8224788871206
 20
-120.2197260650671
 30
0.0
  0
VERTEX
  5
1D4
330
18E
100
AcDbEntity
  8
Défaut
 62
     5
420
      255
100
AcDbVertex
100
AcDb2dVertex
 10
292.1742948798581
 20
-120.8966645503145
 30
0.0
  0
VERTEX
  5
1D5
330
18E
100
AcDbEntity
  8
Défaut
 62
     5
420
      255
100
AcDbVertex
100
AcDb2dVertex
 10
291.5499957194043
 20
-121.5956915729228
 30
0.0
  0
VERTEX
  5
1D6
330
18E
100
AcDbEntity
  8
Défaut
 62
     5
420
      255
100
AcDbVertex
100
AcDb2dVertex
 10
290.9503336376225
 20
-122.3159648597751
 30
0.0
  0
VERTEX
  5
1D7
330
18E
100
AcDbEntity
  8
Défaut
 62
     5
420
      255
100
AcDbVertex
100
AcDb2dVertex
 10
290.376031180615
 20
-123.056616537661
 30
0.0
  0
VERTEX
  5
1D8
330
18E
100
AcDbEntity
  8
Défaut
 62
     5
420
      255
100
AcDbVertex
100
AcDb2dVertex
 10
289.8277803381118
 20
-123.816754178996
 30
0.0
  0
VERTEX
  5
1D9
330
18E
100
AcDbEntity
  8
Défaut
 62
     5
420
      255
100
AcDbVertex
100
AcDb2dVertex
 10
289.3062417096761
 20
-124.5954618771275
 30
0.0
  0
VERTEX
  5
1DA
330
18E
100
AcDbEntity
  8
Défaut
 62
     5
420
      255
100
AcDbVertex
100
AcDb2dVertex
 10
288.8120437087338
 20
-125.3918013499309
 30
0.0
  0
VERTEX
  5
1DB
330
18E
100
AcDbEntity
  8
Défaut
 62
     5
420
      255
100
AcDbVertex
100
AcDb2dVertex
 10
288.3457818053845
 20
-126.204813070366
 30
0.0
  0
VERTEX
  5
1DC
330
18E
100
AcDbEntity
  8
Défaut
 62
     5
420
      255
100
AcDbVertex
100
AcDb2dVertex
 10
287.9080178089055
 20
-127.0335174226333
 30
0.0
  0
VERTEX
  5
1DD
330
18E
100
AcDbEntity
  8
Défaut
 62
     5
420
      255
100
AcDbVertex
100
AcDb2dVertex
 10
287.4992791908165
 20
-127.8769158825338
 30
0.0
  0
VERTEX
  5
1DE
330
18E
100
AcDbEntity
  8
Défaut
 62
     5
420
      255
100
AcDbVertex
100
AcDb2dVertex
 10
287.1200584493166
 20
-128.7339922206136
 30
0.0
  0
VERTEX
  5
1DF
330
18E
100
AcDbEntity
  8
Défaut
 62
     5
420
      255
100
AcDbVertex
100
AcDb2dVertex
 10
286.7708125158628
 20
-129.6037137266406
 30
0.0
  0
VERTEX
  5
1E0
330
18E
100
AcDbEntity
  8
Défaut
 62
     5
420
      255
100
AcDbVertex
100
AcDb2dVertex
 10
286.451962204603
 20
-130.4850324539404
 30
0.0
  0
VERTEX
  5
1E1
330
18E
100
AcDbEntity
  8
Défaut
 62
     5
420
      255
100
AcDbVertex
100
AcDb2dVertex
 10
286.163891705328
 20
-131.3768864820904
 30
0.0
  0
VERTEX
  5
1E2
330
18E
100
AcDbEntity
  8
Défaut
 62
     5
420
      255
100
AcDbVertex
100
AcDb2dVertex
 10
285.9069481205522
 20
-132.2782011964508
 30
0.0
  0
VERTEX
  5
1E3
330
18E
100
AcDbEntity
  8
Défaut
 62
     5
420
      255
100
AcDbVertex
100
AcDb2dVertex
 10
285.6814410472826
 20
-133.1878905829918
 30
0.0
  0
VERTEX
  5
1E4
330
18E
100
AcDbEntity
  8
Défaut
 62
     5
420
      255
100
AcDbVertex
100
AcDb2dVertex
 10
285.4876422039783
 20
-134.104858536856
 30
0.0
  0
VERTEX
  5
1E5
330
18E
100
AcDbEntity
  8
Défaut
 62
     5
420
      255
100
AcDbVertex
100
AcDb2dVertex
 10
285.3257851031512
 20
-135.0280001830792
 30
0.0
  0
VERTEX
  5
1E6
330
18E
100
AcDbEntity
  8
Défaut
 62
     5
420
      255
100
AcDbVertex
100
AcDb2dVertex
 10
285.196064770001
 20
-135.9562032078789
 30
0.0
  0
VERTEX
  5
1E7
330
18E
100
AcDbEntity
  8
Défaut
 62
     5
420
      255
100
AcDbVertex
100
AcDb2dVertex
 10
285.0986375074256
 20
-136.8883491989055
 30
0.0
  0
VERTEX
  5
1E8
330
18E
100
AcDbEntity
  8
Défaut
 62
     5
420
      255
100
AcDbVertex
100
AcDb2dVertex
 10
285.0336207076879
 20
-137.8233149928423
 30
0.0
  0
VERTEX
  5
1E9
330
18E
100
AcDbEntity
  8
Défaut
 62
     5
420
      255
100
AcDbVertex
100
AcDb2dVertex
 10
285.0010927109679
 20
-138.7599740287295
 30
0.0
  0
VERTEX
  5
1EA
330
18E
100
AcDbEntity
  8
Défaut
 62
     5
420
      255
100
AcDbVertex
100
AcDb2dVertex
 10
285.0010927109679
 20
-139.6971977053831
 30
0.0
  0
VERTEX
  5
1EB
330
18E
100
AcDbEntity
  8
Défaut
 62
     5
420
      255
100
AcDbVertex
100
AcDb2dVertex
 10
285.0336207076879
 20
-140.6338567412704
 30
0.0
  0
VERTEX
  5
1EC
330
18E
100
AcDbEntity
  8
Défaut
 62
     5
420
      255
100
AcDbVertex
100
AcDb2dVertex
 10
285.0986375074256
 20
-141.5688225352071
 30
0.0
  0
VERTEX
  5
1ED
330
18E
100
AcDbEntity
  8
Défaut
 62
     5
420
      255
100
AcDbVertex
100
AcDb2dVertex
 10
285.196064770001
 20
-142.5009685262337
 30
0.0
  0
VERTEX
  5
1EE
330
18E
100
AcDbEntity
  8
Défaut
 62
     5
420
      255
100
AcDbVertex
100
AcDb2dVertex
 10
285.3257851031512
 20
-143.4291715510334
 30
0.0
  0
VERTEX
  5
1EF
330
18E
100
AcDbEntity
  8
Défaut
 62
     5
420
      255
100
AcDbVertex
100
AcDb2dVertex
 10
285.4876422039783
 20
-144.3523131972567
 30
0.0
  0
VERTEX
  5
1F0
330
18E
100
AcDbEntity
  8
Défaut
 62
     5
420
      255
100
AcDbVertex
100
AcDb2dVertex
 10
285.6814410472825
 20
-145.2692811511209
 30
0.0
  0
VERTEX
  5
1F1
330
18E
100
AcDbEntity
  8
Défaut
 62
     5
420
      255
100
AcDbVertex
100
AcDb2dVertex
 10
285.9069481205522
 20
-146.1789705376619
 30
0.0
  0
VERTEX
  5
1F2
330
18E
100
AcDbEntity
  8
Défaut
 62
     5
420
      255
100
AcDbVertex
100
AcDb2dVertex
 10
286.163891705328
 20
-147.0802852520222
 30
0.0
  0
VERTEX
  5
1F3
330
18E
100
AcDbEntity
  8
Défaut
 62
     5
420
      255
100
AcDbVertex
100
AcDb2dVertex
 10
286.451962204603
 20
-147.9721392801722
 30
0.0
  0
VERTEX
  5
1F4
330
18E
100
AcDbEntity
  8
Défaut
 62
     5
420
      255
100
AcDbVertex
100
AcDb2dVertex
 10
286.7708125158628
 20
-148.8534580074721
 30
0.0
  0
VERTEX
  5
1F5
330
18E
100
AcDbEntity
  8
Défaut
 62
     5
420
      255
100
AcDbVertex
100
AcDb2dVertex
 10
287.1200584493166
 20
-149.7231795134991
 30
0.0
  0
VERTEX
  5
1F6
330
18E
100
AcDbEntity
  8
Défaut
 62
     5
420
      255
100
AcDbVertex
100
AcDb2dVertex
 10
287.4992791908165
 20
-150.5802558515788
 30
0.0
  0
VERTEX
  5
1F7
330
18E
100
AcDbEntity
  8
Défaut
 62
     5
420
      255
100
AcDbVertex
100
AcDb2dVertex
 10
287.9080178089055
 20
-151.4236543114793
 30
0.0
  0
VERTEX
  5
1F8
330
18E
100
AcDbEntity
  8
Défaut
 62
     5
420
      255
100
AcDbVertex
100
AcDb2dVertex
 10
288.3457818053845
 20
-152.2523586637466
 30
0.0
  0
VERTEX
  5
1F9
330
18E
100
AcDbEntity
  8
Défaut
 62
     5
420
      255
100
AcDbVertex
100
AcDb2dVertex
 10
288.8120437087338
 20
-153.0653703841818
 30
0.0
  0
VERTEX
  5
1FA
330
18E
100
AcDbEntity
  8
Défaut
 62
     5
420
      255
100
AcDbVertex
100
AcDb2dVertex
 10
289.306241709676
 20
-153.8617098569851
 30
0.0
  0
VERTEX
  5
1FB
330
18E
100
AcDbEntity
  8
Défaut
 62
     5
420
      255
100
AcDbVertex
100
AcDb2dVertex
 10
289.8277803381118
 20
-154.6404175551166
 30
0.0
  0
VERTEX
  5
1FC
330
18E
100
AcDbEntity
  8
Défaut
 62
     5
420
      255
100
AcDbVertex
100
AcDb2dVertex
 10
290.376031180615
 20
-155.4005551964516
 30
0.0
  0
VERTEX
  5
1FD
330
18E
100
AcDbEntity
  8
Défaut
 62
     5
420
      255
100
AcDbVertex
100
AcDb2dVertex
 10
290.9503336376225
 20
-156.1412068743375
 30
0.0
  0
VERTEX
  5
1FE
330
18E
100
AcDbEntity
  8
Défaut
 62
     5
420
      255
100
AcDbVertex
100
AcDb2dVertex
 10
291.5499957194043
 20
-156.8614801611898
 30
0.0
  0
VERTEX
  5
1FF
330
18E
100
AcDbEntity
  8
Défaut
 62
     5
420
      255
100
AcDbVertex
100
AcDb2dVertex
 10
292.1742948798581
 20
-157.5605071837981
 30
0.0
  0
VERTEX
  5
200
330
18E
100
AcDbEntity
  8
Défaut
 62
     5
420
      255
100
AcDbVertex
100
AcDb2dVertex
 10
292.8224788871206
 20
-158.2374456690456
 30
0.0
  0
VERTEX
  5
201
330
18E
100
AcDbEntity
  8
Défaut
 62
     5
420
      255
100
AcDbVertex
100
AcDb2dVertex
 10
293.4937667299483
 20
-158.8914799587824
 30
0.0
  0
VERTEX
  5
202
330
18E
100
AcDbEntity
  8
Défaut
 62
     5
420
      255
100
AcDbVertex
100
AcDb2dVertex
 10
294.1873495587756
 20
-159.5218219926306
 30
0.0
  0
VERTEX
  5
203
330
18E
100
AcDbEntity
  8
Défaut
 62
     5
420
      255
100
AcDbVertex
100
AcDb2dVertex
 10
294.902391660315
 20
-160.127712257535
 30
0.0
  0
VERTEX
  5
204
330
18E
100
AcDbEntity
  8
Défaut
 62
     5
420
      255
100
AcDbVertex
100
AcDb2dVertex
 10
295.6380314645271
 20
-160.7084207029177
 30
0.0
  0
VERTEX
  5
205
330
18E
100
AcDbEntity
  8
Défaut
 62
     5
420
      255
100
AcDbVertex
100
AcDb2dVertex
 10
296.3933825827448
 20
-161.2632476203318
 30
0.0
  0
VERTEX
  5
206
330
18E
100
AcDbEntity
  8
Défaut
 62
     5
420
      255
100
AcDbVertex
100
AcDb2dVertex
 10
297.1675348757029
 20
-161.7915244865559
 30
0.0
  0
VERTEX
  5
207
330
18E
100
AcDbEntity
  8
Défaut
 62
     5
420
      255
100
AcDbVertex
100
AcDb2dVertex
 10
297.9595555501853
 20
-162.2926147691122
 30
0.0
  0
VERTEX
  5
208
330
18E
100
AcDbEntity
  8
Défaut
 62
     5
420
      255
100
AcDbVertex
100
AcDb2dVertex
 10
298.7684902829675
 20
-162.7659146932391
 30
0.0
  0
VERTEX
  5
209
330
18E
100
AcDbEntity
  8
Défaut
 62
     5
420
      255
100
AcDbVertex
100
AcDb2dVertex
 10
299.5933643707025
 20
-163.2108539693918
 30
0.0
  0
VERTEX
  5
20A
330
18E
100
AcDbEntity
  8
Défaut
 62
     5
420
      255
100
AcDbVertex
100
AcDb2dVertex
 10
300.4331839043617
 20
-163.626896480398
 30
0.0
  0
VERTEX
  5
20B
330
18E
100
AcDbEntity
  8
Défaut
 62
     5
420
      255
100
AcDbVertex
100
AcDb2dVertex
 10
301.2869369668186
 20
-164.0135409274363
 30
0.0
  0
VERTEX
  5
20C
330
18E
100
AcDbEntity
  8
Défaut
 62
     5
420
      255
100
AcDbVertex
100
AcDb2dVertex
 10
302.1535948521293
 20
-164.3703214340626
 30
0.0
  0
VERTEX
  5
20D
330
18E
100
AcDbEntity
  8
Défaut
 62
     5
420
      255
100
AcDbVertex
100
AcDb2dVertex
 10
303.032113305044
 20
-164.6968081075554
 30
0.0
  0
VERTEX
  5
20E
330
18E
100
AcDbEntity
  8
Défaut
 62
     5
420
      255
100
AcDbVertex
100
AcDb2dVertex
 10
303.9214337792523
 20
-164.9926075569022
 30
0.0
  0
VERTEX
  5
20F
330
18E
100
AcDbEntity
  8
Défaut
 62
     5
420
      255
100
AcDbVertex
100
AcDb2dVertex
 10
304.8204847128497
 20
-165.2573633668055
 30
0.0
  0
VERTEX
  5
210
330
18E
100
AcDbEntity
  8
Défaut
 62
     5
420
      255
100
AcDbVertex
100
AcDb2dVertex
 10
305.7281828194859
 20
-165.4907565271356
 30
0.0
  0
VERTEX
  5
211
330
18E
100
AcDbEntity
  8
Défaut
 62
     5
420
      255
100
AcDbVertex
100
AcDb2dVertex
 10
306.6434343936408
 20
-165.6925058173128
 30
0.0
  0
VERTEX
  5
212
330
18E
100
AcDbEntity
  8
Défaut
 62
     5
420
      255
100
AcDbVertex
100
AcDb2dVertex
 10
307.565136628454
 20
-165.862368145156
 30
0.0
  0
VERTEX
  5
213
330
18E
100
AcDbEntity
  8
Défaut
 62
     5
420
      255
100
AcDbVertex
100
AcDb2dVertex
 10
308.4921789445215
 20
-166.0001388397903
 30
0.0
  0
VERTEX
  5
214
330
18E
100
AcDbEntity
  8
Défaut
 62
     5
420
      255
100
AcDbVertex
100
AcDb2dVertex
 10
309.4234443280575
 20
-166.1056518982593
 30
0.0
  0
VERTEX
  5
215
330
18E
100
AcDbEntity
  8
Défaut
 62
     5
420
      255
100
AcDbVertex
100
AcDb2dVertex
 10
310.3578106768086
 20
-166.1787801855458
 30
0.0
  0
VERTEX
  5
216
330
18E
100
AcDbEntity
  8
Défaut
 62
     5
420
      255
100
AcDbVertex
100
AcDb2dVertex
 10
311.2941521521
 20
-166.2194355877592
 30
0.0
  0
VERTEX
  5
217
330
18E
100
AcDbEntity
  8
Défaut
 62
     5
420
      255
100
AcDbVertex
100
AcDb2dVertex
 10
312.2313405353831
 20
-166.2275691183065
 30
0.0
  0
VERTEX
  5
218
330
18E
100
AcDbEntity
  8
Défaut
 62
     5
420
      255
100
AcDbVertex
100
AcDb2dVertex
 10
313.1682465876512
 20
-166.2031709769169
 30
0.0
  0
VERTEX
  5
219
330
18E
100
AcDbEntity
  8
Défaut
 62
     5
420
      255
100
AcDbVertex
100
AcDb2dVertex
 10
314.1037414100846
 20
-166.1462705614503
 30
0.0
  0
VERTEX
  5
21A
330
18E
100
AcDbEntity
  8
Défaut
 62
     5
420
      255
100
AcDbVertex
100
AcDb2dVertex
 10
315.0366978042854
 20
-166.0569364324758
 30
0.0
  0
VERTEX
  5
21B
330
18E
100
AcDbEntity
  8
Défaut
 62
     5
420
      255
100
AcDbVertex
100
AcDb2dVertex
 10
315.9659916304644
 20
-165.9352762306605
 30
0.0
  0
VERTEX
  5
21C
330
18E
100
AcDbEntity
  8
Défaut
 62
     5
420
      255
100
AcDbVertex
100
AcDb2dVertex
 10
316.890503161941
 20
-165.781436547072
 30
0.0
  0
VERTEX
  5
21D
330
18E
100
AcDbEntity
  8
Défaut
 62
     5
420
      255
100
AcDbVertex
100
AcDb2dVertex
 10
317.8091184343278
 20
-165.5956027465467
 30
0.0
  0
VERTEX
  5
21E
330
18E
100
AcDbEntity
  8
Défaut
 62
     5
420
      255
100
AcDbVertex
100
AcDb2dVertex
 10
318.72073058777
 20
-165.3779987443403
 30
0.0
  0
VERTEX
  5
21F
330
18E
100
AcDbEntity
  8
Défaut
 62
     5
420
      255
100
AcDbVertex
100
AcDb2dVertex
 10
319.624241200626
 20
-165.1288867363267
 30
0.0
  0
VERTEX
  5
220
330
18E
100
AcDbEntity
  8
Défaut
 62
     5
420
      255
100
AcDbVertex
100
AcDb2dVertex
 10
320.5185616129793
 20
-164.8485668830729
 30
0.0
  0
VERTEX
  5
221
330
18E
100
AcDbEntity
  8
Défaut
 62
     5
420
      255
100
AcDbVertex
100
AcDb2dVertex
 10
321.4026142383893
 20
-164.5373769481688
 30
0.0
  0
VERTEX
  5
222
330
18E
100
AcDbEntity
  8
Défaut
 62
     5
420
      255
100
AcDbVertex
100
AcDb2dVertex
 10
322.2753338622989
 20
-164.195691891248
 30
0.0
  0
VERTEX
  5
223
330
18E
100
AcDbEntity
  8
Défaut
 62
     5
420
      255
100
AcDbVertex
100
AcDb2dVertex
 10
323.1356689255352
 20
-163.8239234161912
 30
0.0
  0
VERTEX
  5
224
330
18E
100
AcDbEntity
  8
Défaut
 62
     5
420
      255
100
AcDbVertex
100
AcDb2dVertex
 10
323.9825827913564
 20
-163.4225194750548
 30
0.0
  0
VERTEX
  5
225
330
18E
100
AcDbEntity
  8
Défaut
 62
     5
420
      255
100
AcDbVertex
100
AcDb2dVertex
 10
324.8150549945179
 20
-162.9919637283236
 30
0.0
  0
VERTEX
  5
226
330
18E
100
AcDbEntity
  8
Défaut
 62
     5
420
      255
100
AcDbVertex
100
AcDb2dVertex
 10
325.6320824708541
 20
-162.5327749621374
 30
0.0
  0
VERTEX
  5
227
330
18E
100
AcDbEntity
  8
Défaut
 62
     5
420
      255
100
AcDbVertex
100
AcDb2dVertex
 10
326.4326807658922
 20
-162.0455064631944
 30
0.0
  0
VERTEX
  5
228
330
18E
100
AcDbEntity
  8
Défaut
 62
     5
420
      255
100
AcDbVertex
100
AcDb2dVertex
 10
327.2158852210431
 20
-161.530745352084
 30
0.0
  0
VERTEX
  5
229
330
18E
100
AcDbEntity
  8
Défaut
 62
     5
420
      255
100
AcDbVertex
100
AcDb2dVertex
 10
327.9807521359402
 20
-160.9891118758514
 30
0.0
  0
VERTEX
  5
22A
330
18E
100
AcDbEntity
  8
Défaut
 62
     5
420
      255
100
AcDbVertex
100
AcDb2dVertex
 10
328.7263599055245
 20
-160.4212586606493
 30
0.0
  0
VERTEX
  5
22B
330
18E
100
AcDbEntity
  8
Défaut
 62
     5
420
      255
100
AcDbVertex
100
AcDb2dVertex
 10
329.4518101305071
 20
-159.8278699253732
 30
0.0
  0
VERTEX
  5
22C
330
18E
100
AcDbEntity
  8
Défaut
 62
     5
420
      255
100
AcDbVertex
100
AcDb2dVertex
 10
330.1562286998704
 20
-159.2096606572316
 30
0.0
  0
VERTEX
  5
22D
330
18E
100
AcDbEntity
  8
Défaut
 62
     5
420
      255
100
AcDbVertex
100
AcDb2dVertex
 10
330.8387668441036
 20
-158.567375750242
 30
0.0
  0
VERTEX
  5
22E
330
18E
100
AcDbEntity
  8
Défaut
 62
     5
420
      255
100
AcDbVertex
100
AcDb2dVertex
 10
331.498602157904
 20
-157.9017891076914
 30
0.0
  0
VERTEX
  5
22F
330
18E
100
AcDbEntity
  8
Défaut
 62
     5
420
      255
100
AcDbVertex
100
AcDb2dVertex
 10
332.1349395911114
 20
-157.2137027096432
 30
0.0
  0
VERTEX
  5
230
330
18E
100
AcDbEntity
  8
Défaut
 62
     5
420
      255
100
AcDbVertex
100
AcDb2dVertex
 10
332.7470124066814
 20
-156.5039456466138
 30
0.0
  0
VERTEX
  5
231
330
18E
100
AcDbEntity
  8
Défaut
 62
     5
420
      255
100
AcDbVertex
100
AcDb2dVertex
 10
333.3340831045441
 20
-155.773373120583
 30
0.0
  0
VERTEX
  5
232
330
18E
100
AcDbEntity
  8
Défaut
 62
     5
420
      255
100
AcDbVertex
100
AcDb2dVertex
 10
333.8954443102339
 20
-155.0228654145423
 30
0.0
  0
VERTEX
  5
233
330
18E
100
AcDbEntity
  8
Défaut
 62
     5
420
      255
100
AcDbVertex
100
AcDb2dVertex
 10
334.4304196272208
 20
-154.2533268318224
 30
0.0
  0
VERTEX
  5
234
330
18E
100
AcDbEntity
  8
Défaut
 62
     5
420
      255
100
AcDbVertex
100
AcDb2dVertex
 10
334.938364451916
 20
-153.4656846064781
 30
0.0
  0
VERTEX
  5
235
330
18E
100
AcDbEntity
  8
Défaut
 62
     5
420
      255
100
AcDbVertex
100
AcDb2dVertex
 10
335.4186667503679
 20
-152.6608877860434
 30
0.0
  0
VERTEX
  5
236
330
18E
100
AcDbEntity
  8
Défaut
 62
     5
420
      255
100
AcDbVertex
100
AcDb2dVertex
 10
335.8707477957166
 20
-151.8399060880036
 30
0.0
  0
VERTEX
  5
237
330
18E
100
AcDbEntity
  8
Défaut
 62
     5
420
      255
100
AcDbVertex
100
AcDb2dVertex
 10
336.2940628655138
 20
-151.0037287313606
 30
0.0
  0
VERTEX
  5
238
330
18E
100
AcDbEntity
  8
Défaut
 62
     5
420
      255
100
AcDbVertex
100
AcDb2dVertex
 10
336.6881018980712
 20
-150.1533632447014
 30
0.0
  0
VERTEX
  5
239
330
18E
100
AcDbEntity
  8
Défaut
 62
     5
420
      255
100
AcDbVertex
100
AcDb2dVertex
 10
337.0523901070454
 20
-149.2898342522047
 30
0.0
  0
VERTEX
  5
23A
330
18E
100
AcDbEntity
  8
Défaut
 62
     5
420
      255
100
AcDbVertex
100
AcDb2dVertex
 10
337.386488553518
 20
-148.4141822390485
 30
0.0
  0
VERTEX
  5
23B
330
18E
100
AcDbEntity
  8
Défaut
 62
     5
420
      255
100
AcDbVertex
100
AcDb2dVertex
 10
337.6899946748831
 20
-147.5274622977063
 30
0.0
  0
VERTEX
  5
23C
330
18E
100
AcDbEntity
  8
Défaut
 62
     5
420
      255
100
AcDbVertex
100
AcDb2dVertex
 10
337.9625427699037
 20
-146.6307428566432
 30
0.0
  0
VERTEX
  5
23D
330
18E
100
AcDbEntity
  8
Défaut
 62
     5
420
      255
100
AcDbVertex
100
AcDb2dVertex
 10
338.2038044393533
 20
-145.7251043929425
 30
0.0
  0
VERTEX
  5
23E
330
18E
100
AcDbEntity
  8
Défaut
 62
     5
420
      255
100
AcDbVertex
100
AcDb2dVertex
 10
338.4134889817117
 20
-144.811638130415
 30
0.0
  0
VERTEX
  5
23F
330
18E
100
AcDbEntity
  8
Défaut
 62
     5
420
      255
100
AcDbVertex
100
AcDb2dVertex
 10
338.5913437434369
 20
-143.8914447247596
 30
0.0
  0
VERTEX
  5
240
330
18E
100
AcDbEntity
  8
Défaut
 62
     5
420
      255
100
AcDbVertex
100
AcDb2dVertex
 10
338.7371544233937
 20
-142.9656329373587
 30
0.0
  0
VERTEX
  5
241
330
18E
100
AcDbEntity
  8
Défaut
 62
     5
420
      255
100
AcDbVertex
100
AcDb2dVertex
 10
338.8507453310697
 20
-142.0353182993071
 30
0.0
  0
VERTEX
  5
242
330
18E
100
AcDbEntity
  8
Défaut
 62
     5
420
      255
100
AcDbVertex
100
AcDb2dVertex
 10
338.9319795982684
 20
-141.1016217672836
 30
0.0
  0
VERTEX
  5
243
330
18E
100
AcDbEntity
  8
Défaut
 62
     5
420
      255
100
AcDbVertex
100
AcDb2dVertex
 10
338.9807593440248
 20
-140.1656683728863
 30
0.0
  0
SEQEND
  5
244
330
18E
100
AcDbEntity
  8
Défaut
 62
     5
420
      255
  0
POLYLINE
  5
245
330
1F
100
AcDbEntity
  8
Défaut
 62
     5
420
      255
100
AcDb2dPolyline
 66
     1
 10
0.0
 20
0.0
 30
0.0
  0
VERTEX
  5
246
330
245
100
AcDbEntity
  8
Défaut
 62
     5
420
      255
100
AcDbVertex
100
AcDb2dVertex
 10
243.4207505151567
 20
-179.2315563819774
 30
0.0
  0
VERTEX
  5
247
330
245
100
AcDbEntity
  8
Défaut
 62
     5
420
      255
100
AcDbVertex
100
AcDb2dVertex
 10
253.2443014946219
 20
-162.0403421679131
 30
0.0
  0
SEQEND
  5
248
330
245
100
AcDbEntity
  8
Défaut
 62
     5
420
      255
  0
POLYLINE
  5
249
330
1F
100
AcDbEntity
  8
Défaut
 62
     5
420
      255
100
AcDb2dPolyline
 66
     1
 10
0.0
 20
0.0
 30
0.0
  0
VERTEX
  5
24A
330
249
100
AcDbEntity
  8
Défaut
 62
     5
420
      255
100
AcDbVertex
100
AcDb2dVertex
 10
253.2443014946219
 20
-162.0403421679131
 30
0.0
  0
VERTEX
  5
24B
330
249
100
AcDbEntity
  8
Défaut
 62
     5
420
      255
100
AcDbVertex
100
AcDb2dVertex
 10
249.944977554549
 20
-160.1550142021571
 30
0.0
  0
SEQEND
  5
24C
330
249
100
AcDbEntity
  8
Défaut
 62
     5
420
      255
  0
POLYLINE
  5
24D
330
1F
100
AcDbEntity
  8
Défaut
 62
     5
420
      255
100
AcDb2dPolyline
 66
     1
 10
0.0
 20
0.0
 30
0.0
  0
VERTEX
  5
24E
330
24D
100
AcDbEntity
  8
Défaut
 62
     5
420
      255
100
AcDbVertex
100
AcDb2dVertex
 10
249.944977554549
 20
-160.1550142021571
 30
0.0
  0
VERTEX
  5
24F
330
24D
100
AcDbEntity
  8
Défaut
 62
     5
420
      255
100
AcDbVertex
100
AcDb2dVertex
 10
287.190475168464
 20
-94.9753933778058
 30
0.0
  0
SEQEND
  5
250
330
24D
100
AcDbEntity
  8
Défaut
 62
     5
420
      255
  0
POLYLINE
  5
251
330
1F
100
AcDbEntity
  8
Défaut
 62
     5
420
      255
100
AcDb2dPolyline
 66
     1
 10
0.0
 20
0.0
 30
0.0
  0
VERTEX
  5
252
330
251
100
AcDbEntity
  8
Défaut
 62
     5
420
      255
100
AcDbVertex
100
AcDb2dVertex
 10
287.190475168464
 20
-94.9753933778058
 30
0.0
  0
VERTEX
  5
253
330
251
100
AcDbEntity
  8
Défaut
 62
     5
420
      255
100
AcDbVertex
100
AcDb2dVertex
 10
302.097025792545
 20
-94.9753933778058
 30
0.0
  0
SEQEND
  5
254
330
251
100
AcDbEntity
  8
Défaut
 62
     5
420
      255
  0
POLYLINE
  5
255
330
1F
100
AcDbEntity
  8
Défaut
 62
     5
420
      255
100
AcDb2dPolyline
 66
     1
 10
0.0
 20
0.0
 30
0.0
  0
VERTEX
  5
256
330
255
100
AcDbEntity
  8
Défaut
 62
     5
420
      255
100
AcDbVertex
100
AcDb2dVertex
 10
302.097025792545
 20
-94.9753933778058
 30
0.0
  0
VERTEX
  5
257
330
255
100
AcDbEntity
  8
Défaut
 62
     5
420
      255
100
AcDbVertex
100
AcDb2dVertex
 10
302.097025792545
 20
-98.77539337780576
 30
0.0
  0
SEQEND
  5
258
330
255
100
AcDbEntity
  8
Défaut
 62
     5
420
      255
  0
POLYLINE
  5
259
330
1F
100
AcDbEntity
  8
Défaut
 62
     5
420
      255
100
AcDb2dPolyline
 66
     1
 10
0.0
 20
0.0
 30
0.0
  0
VERTEX
  5
25A
330
259
100
AcDbEntity
  8
Défaut
 62
     5
420
      255
100
AcDbVertex
100
AcDb2dVertex
 10
302.097025792545
 20
-98.77539337780576
 30
0.0
  0
VERTEX
  5
25B
330
259
100
AcDbEntity
  8
Défaut
 62
     5
420
      255
100
AcDbVertex
100
AcDb2dVertex
 10
321.8970257925449
 20
-98.77539337780576
 30
0.0
  0
SEQEND
  5
25C
330
259
100
AcDbEntity
  8
Défaut
 62
     5
420
      255
  0
POLYLINE
  5
25D
330
1F
100
AcDbEntity
  8
Défaut
 62
     5
420
      255
100
AcDb2dPolyline
 66
     1
 10
0.0
 20
0.0
 30
0.0
  0
VERTEX
  5
25E
330
25D
100
AcDbEntity
  8
Défaut
 62
     5
420
      255
100
AcDbVertex
100
AcDb2dVertex
 10
321.8970257925449
 20
-98.77539337780576
 30
0.0
  0
VERTEX
  5
25F
330
25D
100
AcDbEntity
  8
Défaut
 62
     5
420
      255
100
AcDbVertex
100
AcDb2dVertex
 10
321.8970257925449
 20
-94.9753933778058
 30
0.0
  0
SEQEND
  5
260
330
25D
100
AcDbEntity
  8
Défaut
 62
     5
420
      255
  0
POLYLINE
  5
261
330
1F
100
AcDbEntity
  8
Défaut
 62
     5
420
      255
100
AcDb2dPolyline
 66
     1
 10
0.0
 20
0.0
 30
0.0
  0
VERTEX
  5
262
330
261
100
AcDbEntity
  8
Défaut
 62
     5
420
      255
100
AcDbVertex
100
AcDb2dVertex
 10
321.8970257925449
 20
-94.9753933778058
 30
0.0
  0
VERTEX
  5
263
330
261
100
AcDbEntity
  8
Défaut
 62
     5
420
      255
100
AcDbVertex
100
AcDb2dVertex
 10
336.8035764166259
 20
-94.9753933778058
 30
0.0
  0
SEQEND
  5
264
330
261
100
AcDbEntity
  8
Défaut
 62
     5
420
      255
  0
POLYLINE
  5
265
330
1F
100
AcDbEntity
  8
Défaut
 62
     5
420
      255
100
AcDb2dPolyline
 66
     1
 10
0.0
 20
0.0
 30
0.0
  0
VERTEX
  5
266
330
265
100
AcDbEntity
  8
Défaut
 62
     5
420
      255
100
AcDbVertex
100
AcDb2dVertex
 10
336.8035764166259
 20
-94.9753933778058
 30
0.0
  0
VERTEX
  5
267
330
265
100
AcDbEntity
  8
Défaut
 62
     5
420
      255
100
AcDbVertex
100
AcDb2dVertex
 10
374.0490740305409
 20
-160.1550142021571
 30
0.0
  0
SEQEND
  5
268
330
265
100
AcDbEntity
  8
Défaut
 62
     5
420
      255
  0
POLYLINE
  5
269
330
1F
100
AcDbEntity
  8
Défaut
 62
     5
420
      255
100
AcDb2dPolyline
 66
     1
 10
0.0
 20
0.0
 30
0.0
  0
VERTEX
  5
26A
330
269
100
AcDbEntity
  8
Défaut
 62
     5
420
      255
100
AcDbVertex
100
AcDb2dVertex
 10
374.0490740305409
 20
-160.1550142021571
 30
0.0
  0
VERTEX
  5
26B
330
269
100
AcDbEntity
  8
Défaut
 62
     5
420
      255
100
AcDbVertex
100
AcDb2dVertex
 10
370.749750090468
 20
-162.0403421679131
 30
0.0
  0
SEQEND
  5
26C
330
269
100
AcDbEntity
  8
Défaut
 62
     5
420
      255
  0
POLYLINE
  5
26D
330
1F
100
AcDbEntity
  8
Défaut
 62
     5
420
      255
100
AcDb2dPolyline
 66
     1
 10
0.0
 20
0.0
 30
0.0
  0
VERTEX
  5
26E
330
26D
100
AcDbEntity
  8
Défaut
 62
     5
420
      255
100
AcDbVertex
100
AcDb2dVertex
 10
370.749750090468
 20
-162.0403421679131
 30
0.0
  0
VERTEX
  5
26F
330
26D
100
AcDbEntity
  8
Défaut
 62
     5
420
      255
100
AcDbVertex
100
AcDb2dVertex
 10
380.5733010699332
 20
-179.2315563819774
 30
0.0
  0
SEQEND
  5
270
330
26D
100
AcDbEntity
  8
Défaut
 62
     5
420
      255
  0
POLYLINE
  5
271
330
1F
100
AcDbEntity
  8
Défaut
 62
     5
420
      255
100
AcDb2dPolyline
 66
     1
 10
0.0
 20
0.0
 30
0.0
  0
VERTEX
  5
272
330
271
100
AcDbEntity
  8
Défaut
 62
     5
420
      255
100
AcDbVertex
100
AcDb2dVertex
 10
380.5733010699332
 20
-179.2315563819774
 30
0.0
  0
VERTEX
  5
273
330
271
100
AcDbEntity
  8
Défaut
 62
     5
420
      255
100
AcDbVertex
100
AcDb2dVertex
 10
383.8726250100061
 20
-177.3462284162214
 30
0.0
  0
SEQEND
  5
274
330
271
100
AcDbEntity
  8
Défaut
 62
     5
420
      255
  0
POLYLINE
  5
275
330
1F
100
AcDbEntity
  8
Défaut
 62
     5
420
      255
100
AcDb2dPolyline
 66
     1
 10
0.0
 20
0.0
 30
0.0
  0
VERTEX
  5
276
330
275
100
AcDbEntity
  8
Défaut
 62
     5
420
      255
100
AcDbVertex
100
AcDb2dVertex
 10
383.8726250100061
 20
-177.3462284162214
 30
0.0
  0
VERTEX
  5
277
330
275
100
AcDbEntity
  8
Défaut
 62
     5
420
      255
100
AcDbVertex
100
AcDb2dVertex
 10
387.1381595765953
 20
-183.0609139077524
 30
0.0
  0
SEQEND
  5
278
330
275
100
AcDbEntity
  8
Défaut
 62
     5
420
      255
  0
POLYLINE
  5
279
330
1F
100
AcDbEntity
  8
Défaut
 62
     5
420
      255
100
AcDb2dPolyline
 66
     1
 10
0.0
 20
0.0
 30
0.0
  0
VERTEX
  5
27A
330
279
100
AcDbEntity
  8
Défaut
 62
     5
420
      255
100
AcDbVertex
100
AcDb2dVertex
 10
387.1381595765953
 20
-183.0609139077524
 30
0.0
  0
VERTEX
  5
27B
330
279
100
AcDbEntity
  8
Défaut
 62
     5
420
      255
100
AcDbVertex
100
AcDb2dVertex
 10
387.1381595765953
 20
-186.8609139077524
 30
0.0
  0
SEQEND
  5
27C
330
279
100
AcDbEntity
  8
Défaut
 62
     5
420
      255
  0
POLYLINE
  5
27D
330
1F
100
AcDbEntity
  8
Défaut
 62
     5
420
      255
100
AcDb2dPolyline
 66
     1
 10
0.0
 20
0.0
 30
0.0
  0
VERTEX
  5
27E
330
27D
100
AcDbEntity
  8
Défaut
 62
     5
420
      255
100
AcDbVertex
100
AcDb2dVertex
 10
387.1381595765953
 20
-186.8609139077524
 30
0.0
  0
VERTEX
  5
27F
330
27D
100
AcDbEntity
  8
Défaut
 62
     5
420
      255
100
AcDbVertex
100
AcDb2dVertex
 10
359.1381595765953
 20
-186.8609139077524
 30
0.0
  0
SEQEND
  5
280
330
27D
100
AcDbEntity
  8
Défaut
 62
     5
420
      255
  0
POLYLINE
  5
281
330
1F
100
AcDbEntity
  8
Défaut
 62
     5
420
      255
100
AcDb2dPolyline
 66
     1
 10
0.0
 20
0.0
 30
0.0
  0
VERTEX
  5
282
330
281
100
AcDbEntity
  8
Défaut
 62
     5
420
      255
100
AcDbVertex
100
AcDb2dVertex
 10
359.1381595765953
 20
-186.8609139077524
 30
0.0
  0
VERTEX
  5
283
330
281
100
AcDbEntity
  8
Défaut
 62
     5
420
      255
100
AcDbVertex
100
AcDb2dVertex
 10
359.1381595765953
 20
-183.0609139077524
 30
0.0
  0
SEQEND
  5
284
330
281
100
AcDbEntity
  8
Défaut
 62
     5
420
      255
  0
POLYLINE
  5
285
330
1F
100
AcDbEntity
  8
Défaut
 62
     5
420
      255
100
AcDb2dPolyline
 66
     1
 10
0.0
 20
0.0
 30
0.0
  0
VERTEX
  5
286
330
285
100
AcDbEntity
  8
Défaut
 62
     5
420
      255
100
AcDbVertex
100
AcDb2dVertex
 10
359.1381595765953
 20
-183.0609139077524
 30
0.0
  0
VERTEX
  5
287
330
285
100
AcDbEntity
  8
Défaut
 62
     5
420
      255
100
AcDbVertex
100
AcDb2dVertex
 10
325.9970257925449
 20
-183.0609139077524
 30
0.0
  0
SEQEND
  5
288
330
285
100
AcDbEntity
  8
Défaut
 62
     5
420
      255
  0
POLYLINE
  5
289
330
1F
100
AcDbEntity
  8
Défaut
 62
     5
420
      255
100
AcDb2dPolyline
 66
     1
 10
0.0
 20
0.0
 30
0.0
  0
VERTEX
  5
28A
330
289
100
AcDbEntity
  8
Défaut
 62
     5
420
      255
100
AcDbVertex
100
AcDb2dVertex
 10
325.9970257925449
 20
-183.0609139077524
 30
0.0
  0
VERTEX
  5
28B
330
289
100
AcDbEntity
  8
Défaut
 62
     5
420
      255
100
AcDbVertex
100
AcDb2dVertex
 10
325.9970257925449
 20
-186.8609139077524
 30
0.0
  0
SEQEND
  5
28C
330
289
100
AcDbEntity
  8
Défaut
 62
     5
420
      255
  0
POLYLINE
  5
28D
330
1F
100
AcDbEntity
  8
Défaut
 62
     5
420
      255
100
AcDb2dPolyline
 66
     1
 10
0.0
 20
0.0
 30
0.0
  0
VERTEX
  5
28E
330
28D
100
AcDbEntity
  8
Défaut
 62
     5
420
      255
100
AcDbVertex
100
AcDb2dVertex
 10
325.9970257925449
 20
-186.8609139077524
 30
0.0
  0
VERTEX
  5
28F
330
28D
100
AcDbEntity
  8
Défaut
 62
     5
420
      255
100
AcDbVertex
100
AcDb2dVertex
 10
297.9970257925449
 20
-186.8609139077524
 30
0.0
  0
SEQEND
  5
290
330
28D
100
AcDbEntity
  8
Défaut
 62
     5
420
      255
  0
POLYLINE
  5
291
330
1F
100
AcDbEntity
  8
Défaut
 62
     5
420
      255
100
AcDb2dPolyline
 66
     1
 10
0.0
 20
0.0
 30
0.0
  0
VERTEX
  5
292
330
291
100
AcDbEntity
  8
Défaut
 62
     5
420
      255
100
AcDbVertex
100
AcDb2dVertex
 10
297.9970257925449
 20
-186.8609139077524
 30
0.0
  0
VERTEX
  5
293
330
291
100
AcDbEntity
  8
Défaut
 62
     5
420
      255
100
AcDbVertex
100
AcDb2dVertex
 10
297.9970257925449
 20
-183.0609139077524
 30
0.0
  0
SEQEND
  5
294
330
291
100
AcDbEntity
  8
Défaut
 62
     5
420
      255
  0
POLYLINE
  5
295
330
1F
100
AcDbEntity
  8
Défaut
 62
     5
420
      255
100
AcDb2dPolyline
 66
     1
 10
0.0
 20
0.0
 30
0.0
  0
VERTEX
  5
296
330
295
100
AcDbEntity
  8
Défaut
 62
     5
420
      255
100
AcDbVertex
100
AcDb2dVertex
 10
297.9970257925451
 20
-183.0609139077524
 30
0.0
  0
VERTEX
  5
297
330
295
100
AcDbEntity
  8
Défaut
 62
     5
420
      255
100
AcDbVertex
100
AcDb2dVertex
 10
264.8558920084944
 20
-183.0609139077524
 30
0.0
  0
SEQEND
  5
298
330
295
100
AcDbEntity
  8
Défaut
 62
     5
420
      255
  0
POLYLINE
  5
299
330
1F
100
AcDbEntity
  8
Défaut
 62
     5
420
      255
100
AcDb2dPolyline
 66
     1
 10
0.0
 20
0.0
 30
0.0
  0
VERTEX
  5
29A
330
299
100
AcDbEntity
  8
Défaut
 62
     5
420
      255
100
AcDbVertex
100
AcDb2dVertex
 10
264.8558920084944
 20
-183.0609139077524
 30
0.0
  0
VERTEX
  5
29B
330
299
100
AcDbEntity
  8
Défaut
 62
     5
420
      255
100
AcDbVertex
100
AcDb2dVertex
 10
264.8558920084945
 20
-186.8609139077524
 30
0.0
  0
SEQEND
  5
29C
330
299
100
AcDbEntity
  8
Défaut
 62
     5
420
      255
  0
POLYLINE
  5
29D
330
1F
100
AcDbEntity
  8
Défaut
 62
     5
420
      255
100
AcDb2dPolyline
 66
     1
 10
0.0
 20
0.0
 30
0.0
  0
VERTEX
  5
29E
330
29D
100
AcDbEntity
  8
Défaut
 62
     5
420
      255
100
AcDbVertex
100
AcDb2dVertex
 10
264.8558920084945
 20
-186.8609139077524
 30
0.0
  0
VERTEX
  5
29F
330
29D
100
AcDbEntity
  8
Défaut
 62
     5
420
      255
100
AcDbVertex
100
AcDb2dVertex
 10
236.8558920084945
 20
-186.8609139077524
 30
0.0
  0
SEQEND
  5
2A0
330
29D
100
AcDbEntity
  8
Défaut
 62
     5
420
      255
  0
POLYLINE
  5
2A1
330
1F
100
AcDbEntity
  8
Défaut
 62
     5
420
      255
100
AcDb2dPolyline
 66
     1
 10
0.0
 20
0.0
 30
0.0
  0
VERTEX
  5
2A2
330
2A1
100
AcDbEntity
  8
Défaut
 62
     5
420
      255
100
AcDbVertex
100
AcDb2dVertex
 10
236.8558920084945
 20
-186.8609139077524
 30
0.0
  0
VERTEX
  5
2A3
330
2A1
100
AcDbEntity
  8
Défaut
 62
     5
420
      255
100
AcDbVertex
100
AcDb2dVertex
 10
236.8558920084945
 20
-183.0609139077524
 30
0.0
  0
SEQEND
  5
2A4
330
2A1
100
AcDbEntity
  8
Défaut
 62
     5
420
      255
  0
POLYLINE
  5
2A5
330
1F
100
AcDbEntity
  8
Défaut
 62
     5
420
      255
100
AcDb2dPolyline
 66
     1
 10
0.0
 20
0.0
 30
0.0
  0
VERTEX
  5
2A6
330
2A5
100
AcDbEntity
  8
Défaut
 62
     5
420
      255
100
AcDbVertex
100
AcDb2dVertex
 10
236.8558920084945
 20
-183.0609139077524
 30
0.0
  0
VERTEX
  5
2A7
330
2A5
100
AcDbEntity
  8
Défaut
 62
     5
420
      255
100
AcDbVertex
100
AcDb2dVertex
 10
240.1214265750837
 20
-177.3462284162214
 30
0.0
  0
SEQEND
  5
2A8
330
2A5
100
AcDbEntity
  8
Défaut
 62
     5
420
      255
  0
POLYLINE
  5
2A9
330
1F
100
AcDbEntity
  8
Défaut
 62
     5
420
      255
100
AcDb2dPolyline
 66
     1
 10
0.0
 20
0.0
 30
0.0
  0
VERTEX
  5
2AA
330
2A9
100
AcDbEntity
  8
Défaut
 62
     5
420
      255
100
AcDbVertex
100
AcDb2dVertex
 10
240.1214265750837
 20
-177.3462284162214
 30
0.0
  0
VERTEX
  5
2AB
330
2A9
100
AcDbEntity
  8
Défaut
 62
     5
420
      255
100
AcDbVertex
100
AcDb2dVertex
 10
243.4207505151567
 20
-179.2315563819774
 30
0.0
  0
SEQEND
  5
2AC
330
2A9
100
AcDbEntity
  8
Défaut
 62
     5
420
      255
  0
POLYLINE
  5
2AD
330
1F
100
AcDbEntity
  8
Défaut
 62
     3
420
    65280
100
AcDb2dPolyline
 66
     1
 10
0.0
 20
0.0
 30
0.0
 70
     1
  0
VERTEX
  5
2AE
330
2AD
100
AcDbEntity
  8
Défaut
 62
     3
420
    65280
100
AcDbVertex
100
AcDb2dVertex
 10
235.5594965521342
 20
-14.77508284806862
 30
0.0
  0
VERTEX
  5
2AF
330
2AD
100
AcDbEntity
  8
Défaut
 62
     3
420
    65280
100
AcDbVertex
100
AcDb2dVertex
 10
385.5594965521342
 20
-14.77508284806862
 30
0.0
  0
VERTEX
  5
2B0
330
2AD
100
AcDbEntity
  8
Défaut
 62
     3
420
    65280
100
AcDbVertex
100
AcDb2dVertex
 10
385.5594965521342
 20
-34.77508284806862
 30
0.0
  0
VERTEX
  5
2B1
330
2AD
100
AcDbEntity
  8
Défaut
 62
     3
420
    65280
100
AcDbVertex
100
AcDb2dVertex
 10
235.5594965521342
 20
-34.77508284806862
 30
0.0
  0
SEQEND
  5
2B2
330
2AD
100
AcDbEntity
  8
Défaut
 62
     3
420
    65280
  0
HATCH
  5
2B3
330
1F
100
AcDbEntity
  8
Défaut
100
AcDbHatch
 10
0.0
 20
0.0
 30
0.0
210
0.0
220
0.0
230
1.0
  2
SOLID
 70
     1
 71
     0
 91
        1
 92
        2
 72
     0
 73
     1
 93
        4
 10
251.0594965521342
 20
-14.77508284806862
 10
251.0594965521342
 20
-34.77508284806862
 10
252.0594965521342
 20
-34.77508284806862
 10
252.0594965521342
 20
-14.77508284806862
 97
        0
 75
     0
 76
     1
 98
        0
  0
HATCH
  5
2B4
330
1F
100
AcDbEntity
  8
Défaut
100
AcDbHatch
 10
0.0
 20
0.0
 30
0.0
210
0.0
220
0.0
230
1.0
  2
SOLID
 70
     1
 71
     0
 91
        1
 92
        2
 72
     0
 73
     1
 93
        4
 10
277.0594965521342
 20
-14.77508284806862
 10
277.0594965521342
 20
-34.77508284806862
 10
278.0594965521342
 20
-34.77508284806862
 10
278.0594965521342
 20
-14.77508284806862
 97
        0
 75
     0
 76
     1
 98
        0
  0
HATCH
  5
2B5
330
1F
100
AcDbEntity
  8
Défaut
100
AcDbHatch
 10
0.0
 20
0.0
 30
0.0
210
0.0
220
0.0
230
1.0
  2
SOLID
 70
     1
 71
     0
 91
        1
 92
        2
 72
     0
 73
     1
 93
        4
 10
302.0594965521342
 20
-14.77508284806862
 10
302.0594965521342
 20
-34.77508284806862
 10
303.0594965521342
 20
-34.77508284806862
 10
303.0594965521342
 20
-14.77508284806862
 97
        0
 75
     0
 76
     1
 98
        0
  0
HATCH
  5
2B6
330
1F
100
AcDbEntity
  8
Défaut
100
AcDbHatch
 10
0.0
 20
0.0
 30
0.0
210
0.0
220
0.0
230
1.0
  2
SOLID
 70
     1
 71
     0
 91
        1
 92
        2
 72
     0
 73
     1
 93
        4
 10
327.0594965521342
 20
-14.77508284806862
 10
327.0594965521342
 20
-34.77508284806862
 10
328.0594965521342
 20
-34.77508284806862
 10
328.0594965521342
 20
-14.77508284806862
 97
        0
 75
     0
 76
     1
 98
        0
  0
HATCH
  5
2B7
330
1F
100
AcDbEntity
  8
Défaut
100
AcDbHatch
 10
0.0
 20
0.0
 30
0.0
210
0.0
220
0.0
230
1.0
  2
SOLID
 70
     1
 71
     0
 91
        1
 92
        2
 72
     0
 73
     1
 93
        4
 10
355.0594965521342
 20
-14.77508284806862
 10
355.0594965521342
 20
-34.77508284806862
 10
356.0594965521342
 20
-34.77508284806862
 10
356.0594965521342
 20
-14.77508284806862
 97
        0
 75
     0
 76
     1
 98
        0
  0
POLYLINE
  5
2B8
330
1F
100
AcDbEntity
  8
Défaut
 62
     3
420
    65280
100
AcDb2dPolyline
 66
     1
 10
0.0
 20
0.0
 30
0.0
 70
     1
  0
VERTEX
  5
2B9
330
2B8
100
AcDbEntity
  8
Défaut
 62
     3
420
    65280
100
AcDbVertex
100
AcDb2dVertex
 10
235.5594965521342
 20
-41.20435143070353
 30
0.0
  0
VERTEX
  5
2BA
330
2B8
100
AcDbEntity
  8
Défaut
 62
     3
420
    65280
100
AcDbVertex
100
AcDb2dVertex
 10
385.5594965521342
 20
-41.20435143070353
 30
0.0
  0
VERTEX
  5
2BB
330
2B8
100
AcDbEntity
  8
Défaut
 62
     3
420
    65280
100
AcDbVertex
100
AcDb2dVertex
 10
385.5594965521342
 20
-61.20435143070353
 30
0.0
  0
VERTEX
  5
2BC
330
2B8
100
AcDbEntity
  8
Défaut
 62
     3
420
    65280
100
AcDbVertex
100
AcDb2dVertex
 10
235.5594965521342
 20
-61.20435143070353
 30
0.0
  0
SEQEND
  5
2BD
330
2B8
100
AcDbEntity
  8
Défaut
 62
     3
420
    65280
  0
POLYLINE
  5
2BE
330
1F
100
AcDbEntity
  8
Défaut
 62
     3
420
    65280
100
AcDb2dPolyline
 66
     1
 10
0.0
 20
0.0
 30
0.0
 70
     1
  0
VERTEX
  5
2BF
330
2BE
100
AcDbEntity
  8
Défaut
 62
     3
420
    65280
100
AcDbVertex
100
AcDb2dVertex
 10
235.5594965521342
 20
-69.05421045977488
 30
0.0
  0
VERTEX
  5
2C0
330
2BE
100
AcDbEntity
  8
Défaut
 62
     3
420
    65280
100
AcDbVertex
100
AcDb2dVertex
 10
385.5594965521342
 20
-69.05421045977488
 30
0.0
  0
VERTEX
  5
2C1
330
2BE
100
AcDbEntity
  8
Défaut
 62
     3
420
    65280
100
AcDbVertex
100
AcDb2dVertex
 10
385.5594965521342
 20
-89.05421045977488
 30
0.0
  0
VERTEX
  5
2C2
330
2BE
100
AcDbEntity
  8
Défaut
 62
     3
420
    65280
100
AcDbVertex
100
AcDb2dVertex
 10
235.5594965521342
 20
-89.05421045977488
 30
0.0
  0
SEQEND
  5
2C3
330
2BE
100
AcDbEntity
  8
Défaut
 62
     3
420
    65280
  0
POLYLINE
  5
2C4
330
1F
100
AcDbEntity
  8
Défaut
 62
     5
420
      255
100
AcDb2dPolyline
 66
     1
 10
0.0
 20
0.0
 30
0.0
  0
VERTEX
  5
2C5
330
2C4
100
AcDbEntity
  8
Défaut
 62
     5
420
      255
100
AcDbVertex
100
AcDb2dVertex
 10
222.1677344291689
 20
-12.48113674407006
 30
0.0
  0
VERTEX
  5
2C6
330
2C4
100
AcDbEntity
  8
Défaut
 62
     5
420
      255
100
AcDbVertex
100
AcDb2dVertex
 10
15.01455190822406
 20
-12.48113674407006
 30
0.0
  0
SEQEND
  5
2C7
330
2C4
100
AcDbEntity
  8
Défaut
 62
     5
420
      255
  0
POLYLINE
  5
2C8
330
1F
100
AcDbEntity
  8
Défaut
 62
     5
420
      255
100
AcDb2dPolyline
 66
     1
 10
0.0
 20
0.0
 30
0.0
  0
VERTEX
  5
2C9
330
2C8
100
AcDbEntity
  8
Défaut
 62
     5
420
      255
100
AcDbVertex
100
AcDb2dVertex
 10
15.01455190822406
 20
-12.48113674407006
 30
0.0
  0
VERTEX
  5
2CA
330
2C8
100
AcDbEntity
  8
Défaut
 62
     5
420
      255
100
AcDbVertex
100
AcDb2dVertex
 10
15.01455190822406
 20
-182.4811367440701
 30
0.0
  0
SEQEND
  5
2CB
330
2C8
100
AcDbEntity
  8
Défaut
 62
     5
420
      255
  0
POLYLINE
  5
2CC
330
1F
100
AcDbEntity
  8
Défaut
 62
     5
420
      255
100
AcDb2dPolyline
 66
     1
 10
0.0
 20
0.0
 30
0.0
  0
VERTEX
  5
2CD
330
2CC
100
AcDbEntity
  8
Défaut
 62
     5
420
      255
100
AcDbVertex
100
AcDb2dVertex
 10
15.01455190822406
 20
-182.4811367440701
 30
0.0
  0
VERTEX
  5
2CE
330
2CC
100
AcDbEntity
  8
Défaut
 62
     5
420
      255
100
AcDbVertex
100
AcDb2dVertex
 10
222.1677344291689
 20
-182.4811367440701
 30
0.0
  0
SEQEND
  5
2CF
330
2CC
100
AcDbEntity
  8
Défaut
 62
     5
420
      255
  0
POLYLINE
  5
2D0
330
1F
100
AcDbEntity
  8
Défaut
 62
     5
420
      255
100
AcDb2dPolyline
 66
     1
 10
0.0
 20
0.0
 30
0.0
  0
VERTEX
  5
2D1
330
2D0
100
AcDbEntity
  8
Défaut
 62
     5
420
      255
100
AcDbVertex
100
AcDb2dVertex
 10
222.1677344291689
 20
-182.4811367440701
 30
0.0
  0
VERTEX
  5
2D2
330
2D0
100
AcDbEntity
  8
Défaut
 62
     5
420
      255
100
AcDbVertex
100
AcDb2dVertex
 10
222.1677344291689
 20
-12.48113674407006
 30
0.0
  0
SEQEND
  5
2D3
330
2D0
100
AcDbEntity
  8
Défaut
 62
     5
420
      255
  0
POLYLINE
  5
2D4
330
1F
100
AcDbEntity
  8
Défaut
 62
     5
420
      255
100
AcDb2dPolyline
 66
     1
 10
0.0
 20
0.0
 30
0.0
 70
     1
  0
VERTEX
  5
2D5
330
2D4
100
AcDbEntity
  8
Défaut
 62
     5
420
      255
100
AcDbVertex
100
AcDb2dVertex
 10
189.7911431686965
 20
-144.4394728976925
 30
0.0
  0
VERTEX
  5
2D6
330
2D4
100
AcDbEntity
  8
Défaut
 62
     5
420
      255
100
AcDbVertex
100
AcDb2dVertex
 10
189.7911431686965
 20
-172.4394728976925
 30
0.0
  0
VERTEX
  5
2D7
330
2D4
100
AcDbEntity
  8
Défaut
 62
     5
420
      255
100
AcDbVertex
100
AcDb2dVertex
 10
193.5911431686965
 20
-172.4394728976925
 30
0.0
  0
VERTEX
  5
2D8
330
2D4
100
AcDbEntity
  8
Défaut
 62
     5
420
      255
100
AcDbVertex
100
AcDb2dVertex
 10
193.5911431686965
 20
-144.4394728976925
 30
0.0
  0
SEQEND
  5
2D9
330
2D4
100
AcDbEntity
  8
Défaut
 62
     5
420
      255
  0
POLYLINE
  5
2DA
330
1F
100
AcDbEntity
  8
Défaut
 62
     5
420
      255
100
AcDb2dPolyline
 66
     1
 10
0.0
 20
0.0
 30
0.0
 70
     1
  0
VERTEX
  5
2DB
330
2DA
100
AcDbEntity
  8
Défaut
 62
     5
420
      255
100
AcDbVertex
100
AcDb2dVertex
 10
189.7911431686965
 20
-83.29833911364204
 30
0.0
  0
VERTEX
  5
2DC
330
2DA
100
AcDbEntity
  8
Défaut
 62
     5
420
      255
100
AcDbVertex
100
AcDb2dVertex
 10
189.7911431686965
 20
-111.298339113642
 30
0.0
  0
VERTEX
  5
2DD
330
2DA
100
AcDbEntity
  8
Défaut
 62
     5
420
      255
100
AcDbVertex
100
AcDb2dVertex
 10
193.5911431686965
 20
-111.298339113642
 30
0.0
  0
VERTEX
  5
2DE
330
2DA
100
AcDbEntity
  8
Défaut
 62
     5
420
      255
100
AcDbVertex
100
AcDb2dVertex
 10
193.5911431686965
 20
-83.29833911364204
 30
0.0
  0
SEQEND
  5
2DF
330
2DA
100
AcDbEntity
  8
Défaut
 62
     5
420
      255
  0
POLYLINE
  5
2E0
330
1F
100
AcDbEntity
  8
Défaut
 62
     5
420
      255
100
AcDb2dPolyline
 66
     1
 10
0.0
 20
0.0
 30
0.0
 70
     1
  0
VERTEX
  5
2E1
330
2E0
100
AcDbEntity
  8
Défaut
 62
     5
420
      255
100
AcDbVertex
100
AcDb2dVertex
 10
189.7911431686965
 20
-22.15720532959159
 30
0.0
  0
VERTEX
  5
2E2
330
2E0
100
AcDbEntity
  8
Défaut
 62
     5
420
      255
100
AcDbVertex
100
AcDb2dVertex
 10
189.7911431686965
 20
-50.15720532959159
 30
0.0
  0
VERTEX
  5
2E3
330
2E0
100
AcDbEntity
  8
Défaut
 62
     5
420
      255
100
AcDbVertex
100
AcDb2dVertex
 10
193.5911431686965
 20
-50.15720532959159
 30
0.0
  0
VERTEX
  5
2E4
330
2E0
100
AcDbEntity
  8
Défaut
 62
     5
420
      255
100
AcDbVertex
100
AcDb2dVertex
 10
193.5911431686965
 20
-22.15720532959159
 30
0.0
  0
SEQEND
  5
2E5
330
2E0
100
AcDbEntity
  8
Défaut
 62
     5
420
      255
  0
POLYLINE
  5
2E6
330
1F
100
AcDbEntity
  8
Défaut
 62
     5
420
      255
100
AcDb2dPolyline
 66
     1
 10
0.0
 20
0.0
 30
0.0
 70
     1
  0
VERTEX
  5
2E7
330
2E6
100
AcDbEntity
  8
Défaut
 62
     5
420
      255
100
AcDbVertex
100
AcDb2dVertex
 10
43.59114316869653
 20
-22.15720532959159
 30
0.0
  0
VERTEX
  5
2E8
330
2E6
100
AcDbEntity
  8
Défaut
 62
     5
420
      255
100
AcDbVertex
100
AcDb2dVertex
 10
43.59114316869653
 20
-50.15720532959159
 30
0.0
  0
VERTEX
  5
2E9
330
2E6
100
AcDbEntity
  8
Défaut
 62
     5
420
      255
100
AcDbVertex
100
AcDb2dVertex
 10
47.39114316869654
 20
-50.15720532959159
 30
0.0
  0
VERTEX
  5
2EA
330
2E6
100
AcDbEntity
  8
Défaut
 62
     5
420
      255
100
AcDbVertex
100
AcDb2dVertex
 10
47.39114316869654
 20
-22.15720532959159
 30
0.0
  0
SEQEND
  5
2EB
330
2E6
100
AcDbEntity
  8
Défaut
 62
     5
420
      255
  0
POLYLINE
  5
2EC
330
1F
100
AcDbEntity
  8
Défaut
 62
     5
420
      255
100
AcDb2dPolyline
 66
     1
 10
0.0
 20
0.0
 30
0.0
 70
     1
  0
VERTEX
  5
2ED
330
2EC
100
AcDbEntity
  8
Défaut
 62
     5
420
      255
100
AcDbVertex
100
AcDb2dVertex
 10
43.59114316869653
 20
-83.29833911364204
 30
0.0
  0
VERTEX
  5
2EE
330
2EC
100
AcDbEntity
  8
Défaut
 62
     5
420
      255
100
AcDbVertex
100
AcDb2dVertex
 10
43.59114316869653
 20
-111.298339113642
 30
0.0
  0
VERTEX
  5
2EF
330
2EC
100
AcDbEntity
  8
Défaut
 62
     5
420
      255
100
AcDbVertex
100
AcDb2dVertex
 10
47.39114316869654
 20
-111.298339113642
 30
0.0
  0
VERTEX
  5
2F0
330
2EC
100
AcDbEntity
  8
Défaut
 62
     5
420
      255
100
AcDbVertex
100
AcDb2dVertex
 10
47.39114316869654
 20
-83.29833911364204
 30
0.0
  0
SEQEND
  5
2F1
330
2EC
100
AcDbEntity
  8
Défaut
 62
     5
420
      255
  0
POLYLINE
  5
2F2
330
1F
100
AcDbEntity
  8
Défaut
 62
     5
420
      255
100
AcDb2dPolyline
 66
     1
 10
0.0
 20
0.0
 30
0.0
 70
     1
  0
VERTEX
  5
2F3
330
2F2
100
AcDbEntity
  8
Défaut
 62
     5
420
      255
100
AcDbVertex
100
AcDb2dVertex
 10
43.59114316869653
 20
-144.4394728976925
 30
0.0
  0
VERTEX
  5
2F4
330
2F2
100
AcDbEntity
  8
Défaut
 62
     5
420
      255
100
AcDbVertex
100
AcDb2dVertex
 10
43.59114316869653
 20
-172.4394728976925
 30
0.0
  0
VERTEX
  5
2F5
330
2F2
100
AcDbEntity
  8
Défaut
 62
     5
420
      255
100
AcDbVertex
100
AcDb2dVertex
 10
47.39114316869654
 20
-172.4394728976925
 30
0.0
  0
VERTEX
  5
2F6
330
2F2
100
AcDbEntity
  8
Défaut
 62
     5
420
      255
100
AcDbVertex
100
AcDb2dVertex
 10
47.39114316869654
 20
-144.4394728976925
 30
0.0
  0
SEQEND
  5
2F7
330
2F2
100
AcDbEntity
  8
Défaut
 62
     5
420
      255
  0
POLYLINE
  5
2F8
330
1F
100
AcDbEntity
  8
Défaut
 62
     2
420
 16776960
100
AcDb2dPolyline
 66
     1
 10
0.0
 20
0.0
 30
0.0
 70
     1
  0
VERTEX
  5
2F9
330
2F8
100
AcDbEntity
  8
Défaut
 62
     2
420
 16776960
100
AcDbVertex
100
AcDb2dVertex
 10
1.603806528567702
 20
0.0041061702040111
 30
0.0
  0
VERTEX
  5
2FA
330
2F8
100
AcDbEntity
  8
Défaut
 62
     2
420
 16776960
100
AcDbVertex
100
AcDb2dVertex
 10
721.6038065285678
 20
0.0041061702040111
 30
0.0
  0
VERTEX
  5
2FB
330
2F8
100
AcDbEntity
  8
Défaut
 62
     2
420
 16776960
100
AcDbVertex
100
AcDb2dVertex
 10
721.6038065285678
 20
-429.995893829796
 30
0.0
  0
VERTEX
  5
2FC
330
2F8
100
AcDbEntity
  8
Défaut
 62
     2
420
 16776960
100
AcDbVertex
100
AcDb2dVertex
 10
1.603806528567702
 20
-429.995893829796
 30
0.0
  0
SEQEND
  5
2FD
330
2F8
100
AcDbEntity
  8
Défaut
 62
     2
420
 16776960
  0
POLYLINE
  5
2FE
330
1F
100
AcDbEntity
  8
Défaut
 62
     5
420
      255
100
AcDb2dPolyline
 66
     1
 10
0.0
 20
0.0
 30
0.0
  0
VERTEX
  5
2FF
330
2FE
100
AcDbEntity
  8
Défaut
 62
     5
420
      255
100
AcDbVertex
100
AcDb2dVertex
 10
238.3371922935052
 20
-229.681482834301
 30
0.0
  0
VERTEX
  5
300
330
2FE
100
AcDbEntity
  8
Défaut
 62
     5
420
      255
100
AcDbVertex
100
AcDb2dVertex
 10
239.9371922935052
 20
-229.681482834301
 30
0.0
  0
SEQEND
  5
301
330
2FE
100
AcDbEntity
  8
Défaut
 62
     5
420
      255
  0
POLYLINE
  5
302
330
1F
100
AcDbEntity
  8
Défaut
 62
     5
420
      255
100
AcDb2dPolyline
 66
     1
 10
0.0
 20
0.0
 30
0.0
  0
VERTEX
  5
303
330
302
100
AcDbEntity
  8
Défaut
 62
     5
420
      255
100
AcDbVertex
100
AcDb2dVertex
 10
239.9371922935052
 20
-229.681482834301
 30
0.0
  0
VERTEX
  5
304
330
302
100
AcDbEntity
  8
Défaut
 62
     5
420
      255
100
AcDbVertex
100
AcDb2dVertex
 10
239.9371922935052
 20
-258.681482834301
 30
0.0
  0
SEQEND
  5
305
330
302
100
AcDbEntity
  8
Défaut
 62
     5
420
      255
  0
POLYLINE
  5
306
330
1F
100
AcDbEntity
  8
Défaut
 62
     5
420
      255
100
AcDb2dPolyline
 66
     1
 10
0.0
 20
0.0
 30
0.0
  0
VERTEX
  5
307
330
306
100
AcDbEntity
  8
Défaut
 62
     5
420
      255
100
AcDbVertex
100
AcDb2dVertex
 10
239.9371922935052
 20
-258.681482834301
 30
0.0
  0
VERTEX
  5
308
330
306
100
AcDbEntity
  8
Défaut
 62
     5
420
      255
100
AcDbVertex
100
AcDb2dVertex
 10
276.9371922935052
 20
-258.681482834301
 30
0.0
  0
SEQEND
  5
309
330
306
100
AcDbEntity
  8
Défaut
 62
     5
420
      255
  0
POLYLINE
  5
30A
330
1F
100
AcDbEntity
  8
Défaut
 62
     5
420
      255
100
AcDb2dPolyline
 66
     1
 10
0.0
 20
0.0
 30
0.0
  0
VERTEX
  5
30B
330
30A
100
AcDbEntity
  8
Défaut
 62
     5
420
      255
100
AcDbVertex
100
AcDb2dVertex
 10
276.9371922935052
 20
-258.681482834301
 30
0.0
  0
VERTEX
  5
30C
330
30A
100
AcDbEntity
  8
Défaut
 62
     5
420
      255
100
AcDbVertex
100
AcDb2dVertex
 10
276.9371922935052
 20
-254.681482834301
 30
0.0
  0
SEQEND
  5
30D
330
30A
100
AcDbEntity
  8
Défaut
 62
     5
420
      255
  0
POLYLINE
  5
30E
330
1F
100
AcDbEntity
  8
Défaut
 62
     5
420
      255
100
AcDb2dPolyline
 66
     1
 10
0.0
 20
0.0
 30
0.0
  0
VERTEX
  5
30F
330
30E
100
AcDbEntity
  8
Défaut
 62
     5
420
      255
100
AcDbVertex
100
AcDb2dVertex
 10
276.9371922935052
 20
-254.681482834301
 30
0.0
  0
VERTEX
  5
310
330
30E
100
AcDbEntity
  8
Défaut
 62
     5
420
      255
100
AcDbVertex
100
AcDb2dVertex
 10
243.9371922935052
 20
-254.681482834301
 30
0.0
  0
SEQEND
  5
311
330
30E
100
AcDbEntity
  8
Défaut
 62
     5
420
      255
  0
POLYLINE
  5
312
330
1F
100
AcDbEntity
  8
Défaut
 62
     5
420
      255
100
AcDb2dPolyline
 66
     1
 10
0.0
 20
0.0
 30
0.0
  0
VERTEX
  5
313
330
312
100
AcDbEntity
  8
Défaut
 62
     5
420
      255
100
AcDbVertex
100
AcDb2dVertex
 10
243.9371922935052
 20
-254.681482834301
 30
0.0
  0
VERTEX
  5
314
330
312
100
AcDbEntity
  8
Défaut
 62
     5
420
      255
100
AcDbVertex
100
AcDb2dVertex
 10
243.9371922935052
 20
-225.681482834301
 30
0.0
  0
SEQEND
  5
315
330
312
100
AcDbEntity
  8
Défaut
 62
     5
420
      255
  0
POLYLINE
  5
316
330
1F
100
AcDbEntity
  8
Défaut
 62
     5
420
      255
100
AcDb2dPolyline
 66
     1
 10
0.0
 20
0.0
 30
0.0
  0
VERTEX
  5
317
330
316
100
AcDbEntity
  8
Défaut
 62
     5
420
      255
100
AcDbVertex
100
AcDb2dVertex
 10
243.9371922935052
 20
-225.681482834301
 30
0.0
  0
VERTEX
  5
318
330
316
100
AcDbEntity
  8
Défaut
 62
     5
420
      255
100
AcDbVertex
100
AcDb2dVertex
 10
173.9371922935052
 20
-225.681482834301
 30
0.0
  0
SEQEND
  5
319
330
316
100
AcDbEntity
  8
Défaut
 62
     5
420
      255
  0
POLYLINE
  5
31A
330
1F
100
AcDbEntity
  8
Défaut
 62
     5
420
      255
100
AcDb2dPolyline
 66
     1
 10
0.0
 20
0.0
 30
0.0
  0
VERTEX
  5
31B
330
31A
100
AcDbEntity
  8
Défaut
 62
     5
420
      255
100
AcDbVertex
100
AcDb2dVertex
 10
173.9371922935052
 20
-225.681482834301
 30
0.0
  0
VERTEX
  5
31C
330
31A
100
AcDbEntity
  8
Défaut
 62
     5
420
      255
100
AcDbVertex
100
AcDb2dVertex
 10
173.9371922935052
 20
-229.6814828343009
 30
0.0
  0
SEQEND
  5
31D
330
31A
100
AcDbEntity
  8
Défaut
 62
     5
420
      255
  0
POLYLINE
  5
31E
330
1F
100
AcDbEntity
  8
Défaut
 62
     5
420
      255
100
AcDb2dPolyline
 66
     1
 10
0.0
 20
0.0
 30
0.0
  0
VERTEX
  5
31F
330
31E
100
AcDbEntity
  8
Défaut
 62
     5
420
      255
100
AcDbVertex
100
AcDb2dVertex
 10
173.9371922935052
 20
-229.681482834301
 30
0.0
  0
VERTEX
  5
320
330
31E
100
AcDbEntity
  8
Défaut
 62
     5
420
      255
100
AcDbVertex
100
AcDb2dVertex
 10
238.3371922935052
 20
-229.681482834301
 30
0.0
  0
SEQEND
  5
321
330
31E
100
AcDbEntity
  8
Défaut
 62
     5
420
      255
  0
ENDSEC
  0
SECTION
  2
OBJECTS
  0
DICTIONARY
  5
C
330
0
100
AcDbDictionary
281
     1
  3
ACAD_DETAILVIEWSTYLE
350
367
  3
ACAD_GROUP
350
D
  3
ACAD_LAYOUT
350
1A
  3
ACAD_MATERIAL
350
43
  3
ACAD_MLEADERSTYLE
350
6B
  3
ACAD_MLINESTYLE
350
17
  3
ACAD_PLOTSETTINGS
350
19
  3
ACAD_PLOTSTYLENAME
350
E
  3
ACAD_SCALELIST
350
47
  3
ACAD_SECTIONVIEWSTYLE
350
368
  3
ACAD_TABLESTYLE
350
69
  3
ACAD_VISUALSTYLE
350
2A
  3
ACDB_RECOMPOSE_DATA
350
364
  3
AcDbVariableDictionary
350
324
  0
DICTIONARY
  5
322
330
8
100
AcDbDictionary
280
     1
281
     1
  3
ACAD_XREC_ROUNDTRIP
360
323
  0
DICTIONARY
  5
367
102
{ACAD_REACTORS
330
C
102
}
330
C
100
AcDbDictionary
281
     1
  0
DICTIONARY
  5
D
102
{ACAD_REACTORS
330
C
102
}
330
C
100
AcDbDictionary
281
     1
  0
DICTIONARY
  5
1A
102
{ACAD_REACTORS
330
C
102
}
330
C
100
AcDbDictionary
281
     1
  3
Layout1
350
1E
  3
Layout2
350
26
  3
Model
350
22
  0
DICTIONARY
  5
43
102
{ACAD_REACTORS
330
C
102
}
330
C
100
AcDbDictionary
281
     1
  3
ByBlock
350
45
  3
ByLayer
350
44
  3
Global
350
46
  0
DICTIONARY
  5
6B
102
{ACAD_REACTORS
330
C
102
}
330
C
100
AcDbDictionary
281
     1
  3
Standard
350
6C
  0
DICTIONARY
  5
17
102
{ACAD_REACTORS
330
C
102
}
330
C
100
AcDbDictionary
281
     1
  3
Standard
350
18
  0
DICTIONARY
  5
19
102
{ACAD_REACTORS
330
C
102
}
330
C
100
AcDbDictionary
281
     1
  0
ACDBDICTIONARYWDFLT
  5
E
102
{ACAD_REACTORS
330
C
102
}
330
C
100
AcDbDictionary
281
     1
  3
Normal
350
F
100
AcDbDictionaryWithDefault
340
F
  0
DICTIONARY
  5
47
102
{ACAD_REACTORS
330
C
102
}
330
C
100
AcDbDictionary
281
     1
  3
A0
350
48
  3
A1
350
49
  3
A2
350
4A
  3
A3
350
4B
  3
A4
350
4C
  3
A5
350
4D
  3
A6
350
4E
  3
A7
350
4F
  3
A8
350
50
  3
A9
350
51
  3
B0
350
52
  3
B1
350
53
  3
B2
350
54
  3
B3
350
55
  3
B4
350
56
  3
B5
350
57
  3
B6
350
58
  3
B7
350
59
  3
B8
350
5A
  3
B9
350
5B
  3
C0
350
5C
  3
C1
350
5D
  3
C2
350
5E
  3
C3
350
5F
  3
C4
350
60
  3
C5
350
61
  3
C6
350
62
  3
C7
350
63
  3
C8
350
64
  3
C9
350
65
  3
D0
350
66
  3
D1
350
67
  3
D2
350
68
  0
DICTIONARY
  5
368
102
{ACAD_REACTORS
330
C
102
}
330
C
100
AcDbDictionary
281
     1
  0
DICTIONARY
  5
69
102
{ACAD_REACTORS
330
C
102
}
330
C
100
AcDbDictionary
281
     1
  3
Standard
350
6A
  0
DICTIONARY
  5
2A
102
{ACAD_REACTORS
330
C
102
}
330
C
100
AcDbDictionary
281
     1
  3
2dWireframe
350
2F
  3
Basic
350
32
  3
Brighten
350
36
  3
ColorChange
350
3A
  3
Conceptual
350
34
  3
Dim
350
35
  3
EdgeColorOff
350
3D
  3
Facepattern
350
39
  3
Flat
350
2B
  3
FlatWithEdges
350
2C
  3
Gouraud
350
2D
  3
GouraudWithEdges
350
2E
  3
Hidden
350
31
  3
JitterOff
350
3B
  3
Linepattern
350
38
  3
OverhangOff
350
3C
  3
Realistic
350
33
  3
Shaded
350
42
  3
Shaded with edges
350
41
  3
Shades of Gray
350
3E
  3
Sketchy
350
3F
  3
Thicken
350
37
  3
Wireframe
350
30
  3
X-Ray
350
40
  0
XRECORD
  5
364
102
{ACAD_REACTORS
330
C
102
}
330
C
100
AcDbXrecord
280
     1
 90
        1
330
6A
  0
DICTIONARY
  5
324
102
{ACAD_REACTORS
330
C
102
}
330
C
100
AcDbDictionary
281
     1
  3
CANNOSCALE
350
325
  3
CMLEADERSTYLE
350
366
  3
CTABLESTYLE
350
365
  3
MSLTSCALE
350
326
  3
XCLIPFRAME
350
327
  0
XRECORD
  5
323
102
{ACAD_REACTORS
330
322
102
}
330
322
100
AcDbXrecord
280
     1
102
VTR_0.000_0.000_1.000_1.000_GRIDDISPLAY
 70
     3
102
VTR_0.000_0.000_1.000_1.000_GRIDMAJOR
 70
     5
102
VTR_0.000_0.000_1.000_1.000_DEFAULTLIGHTING
280
     1
102
VTR_0.000_0.000_1.000_1.000_DEFAULTLIGHTINGTYPE
 70
     1
102
VTR_0.000_0.000_1.000_1.000_BRIGHTNESS
141
0.0
102
VTR_0.000_0.000_1.000_1.000_CONTRAST
142
0.0
  0
LAYOUT
  5
1E
102
{ACAD_REACTORS
330
1A
102
}
330
1A
100
AcDbPlotSettings
  1

  2
none_device
  4

  6

 40
0.0
 41
0.0
 42
0.0
 43
0.0
 44
0.0
 45
0.0
 46
0.0
 47
0.0
 48
0.0
 49
0.0
140
0.0
141
0.0
142
1.0
143
1.0
 70
   688
 72
     0
 73
     0
 74
     5
  7

 75
    16
 76
     0
 77
     2
 78
   300
147
1.0
148
0.0
149
0.0
100
AcDbLayout
  1
Layout1
 70
     1
 71
     1
 10
0.0
 20
0.0
 11
12.0
 21
9.0
 12
0.0
 22
0.0
 32
0.0
 14
1.000000000000000E+20
 24
1.000000000000000E+20
 34
1.000000000000000E+20
 15
-1.000000000000000E+20
 25
-1.000000000000000E+20
 35
-1.000000000000000E+20
146
0.0
 13
0.0
 23
0.0
 33
0.0
 16
1.0
 26
0.0
 36
0.0
 17
0.0
 27
1.0
 37
0.0
 76
     0
330
1B
  0
LAYOUT
  5
26
102
{ACAD_REACTORS
330
1A
102
}
330
1A
100
AcDbPlotSettings
  1

  2
none_device
  4

  6

 40
0.0
 41
0.0
 42
0.0
 43
0.0
 44
0.0
 45
0.0
 46
0.0
 47
0.0
 48
0.0
 49
0.0
140
0.0
141
0.0
142
1.0
143
1.0
 70
   688
 72
     0
 73
     0
 74
     5
  7

 75
    16
 76
     0
 77
     2
 78
   300
147
1.0
148
0.0
149
0.0
100
AcDbLayout
  1
Layout2
 70
     1
 71
     2
 10
0.0
 20
0.0
 11
0.0
 21
0.0
 12
0.0
 22
0.0
 32
0.0
 14
0.0
 24
0.0
 34
0.0
 15
0.0
 25
0.0
 35
0.0
146
0.0
 13
0.0
 23
0.0
 33
0.0
 16
1.0
 26
0.0
 36
0.0
 17
0.0
 27
1.0
 37
0.0
 76
     0
330
23
  0
LAYOUT
  5
22
102
{ACAD_REACTORS
330
1A
102
}
330
1A
100
AcDbPlotSettings
  1

  2
none_device
  4
Letter_(8.50_x_11.00_Inches)
  6

 40
6.35
 41
6.35
 42
6.35000508
 43
6.35000508
 44
215.9
 45
279.4
 46
0.0
 47
0.0
 48
0.0
 49
0.0
140
0.0
141
0.0
142
1.0
143
1.0
 70
  1712
 72
     0
 73
     0
 74
     0
  7

 75
     0
 76
     0
 77
     2
 78
   300
147
1.0
148
0.0
149
0.0
100
AcDbLayout
  1
Model
 70
     1
 71
     0
 10
0.0
 20
0.0
 11
12.0
 21
9.0
 12
0.0
 22
0.0
 32
0.0
 14
1.603806528567702
 24
-429.995893829796
 34
0.0
 15
721.6038065285678
 25
0.0041061702040111
 35
0.0
146
0.0
 13
0.0
 23
0.0
 33
0.0
 16
1.0
 26
0.0
 36
0.0
 17
0.0
 27
1.0
 37
0.0
 76
     0
330
1F
331
29
  0
MATERIAL
  5
45
102
{ACAD_REACTORS
330
43
102
}
102
{ACAD_XDICTIONARY
360
35A
102
}
330
43
100
AcDbMaterial
  1
ByBlock
  0
MATERIAL
  5
44
102
{ACAD_REACTORS
330
43
102
}
102
{ACAD_XDICTIONARY
360
358
102
}
330
43
100
AcDbMaterial
  1
ByLayer
  0
MATERIAL
  5
46
102
{ACAD_REACTORS
330
43
102
}
102
{ACAD_XDICTIONARY
360
35C
102
}
330
43
100
AcDbMaterial
  1
Global
  0
MLEADERSTYLE
  5
6C
102
{ACAD_REACTORS
330
6B
102
}
102
{ACAD_XDICTIONARY
360
362
102
}
330
6B
100
AcDbMLeaderStyle
170
     2
171
     1
172
     0
 90
        2
 40
0.0
 41
0.0
173
     1
 91
-1056964608
340
14
 92
       -2
290
     1
 42
0.09
291
     1
 43
0.36
  3
Standard
341
0
 44
0.18
300

342
11
174
     1
178
     6
175
     1
176
     0
 93
-1056964608
 45
0.18
292
     0
297
     0
 46
0.18
343
0
 94
-1056964608
 47
1.0
 49
1.0
140
1.0
293
     1
141
0.0
294
     1
177
     0
142
1.0
295
     0
296
     0
143
0.125
1001
ACAD_MLEADERVER
1070
     2
  0
MLINESTYLE
  5
18
102
{ACAD_REACTORS
330
17
102
}
330
17
100
AcDbMlineStyle
  2
Standard
 70
     0
  3

 62
   256
 51
90.0
 52
90.0
 71
     2
 49
0.5
 62
   256
  6
BYLAYER
 49
-0.5
 62
   256
  6
BYLAYER
  0
ACDBPLACEHOLDER
  5
F
102
{ACAD_REACTORS
330
E
102
}
330
E
  0
SCALE
  5
48
102
{ACAD_REACTORS
330
47
102
}
330
47
100
AcDbScale
 70
     0
300
1:1
140
1.0
141
1.0
290
     1
  0
SCALE
  5
49
102
{ACAD_REACTORS
330
47
102
}
330
47
100
AcDbScale
 70
     0
300
1:2
140
1.0
141
2.0
290
     0
  0
SCALE
  5
4A
102
{ACAD_REACTORS
330
47
102
}
330
47
100
AcDbScale
 70
     0
300
1:4
140
1.0
141
4.0
290
     0
  0
SCALE
  5
4B
102
{ACAD_REACTORS
330
47
102
}
330
47
100
AcDbScale
 70
     0
300
1:5
140
1.0
141
5.0
290
     0
  0
SCALE
  5
4C
102
{ACAD_REACTORS
330
47
102
}
330
47
100
AcDbScale
 70
     0
300
1:8
140
1.0
141
8.0
290
     0
  0
SCALE
  5
4D
102
{ACAD_REACTORS
330
47
102
}
330
47
100
AcDbScale
 70
     0
300
1:10
140
1.0
141
10.0
290
     0
  0
SCALE
  5
4E
102
{ACAD_REACTORS
330
47
102
}
330
47
100
AcDbScale
 70
     0
300
1:16
140
1.0
141
16.0
290
     0
  0
SCALE
  5
4F
102
{ACAD_REACTORS
330
47
102
}
330
47
100
AcDbScale
 70
     0
300
1:20
140
1.0
141
20.0
290
     0
  0
SCALE
  5
50
102
{ACAD_REACTORS
330
47
102
}
330
47
100
AcDbScale
 70
     0
300
1:30
140
1.0
141
30.0
290
     0
  0
SCALE
  5
51
102
{ACAD_REACTORS
330
47
102
}
330
47
100
AcDbScale
 70
     0
300
1:40
140
1.0
141
40.0
290
     0
  0
SCALE
  5
52
102
{ACAD_REACTORS
330
47
102
}
330
47
100
AcDbScale
 70
     0
300
1:50
140
1.0
141
50.0
290
     0
  0
SCALE
  5
53
102
{ACAD_REACTORS
330
47
102
}
330
47
100
AcDbScale
 70
     0
300
1:100
140
1.0
141
100.0
290
     0
  0
SCALE
  5
54
102
{ACAD_REACTORS
330
47
102
}
330
47
100
AcDbScale
 70
     0
300
2:1
140
2.0
141
1.0
290
     0
  0
SCALE
  5
55
102
{ACAD_REACTORS
330
47
102
}
330
47
100
AcDbScale
 70
     0
300
4:1
140
4.0
141
1.0
290
     0
  0
SCALE
  5
56
102
{ACAD_REACTORS
330
47
102
}
330
47
100
AcDbScale
 70
     0
300
8:1
140
8.0
141
1.0
290
     0
  0
SCALE
  5
57
102
{ACAD_REACTORS
330
47
102
}
330
47
100
AcDbScale
 70
     0
300
10:1
140
10.0
141
1.0
290
     0
  0
SCALE
  5
58
102
{ACAD_REACTORS
330
47
102
}
330
47
100
AcDbScale
 70
     0
300
100:1
140
100.0
141
1.0
290
     0
  0
SCALE
  5
59
102
{ACAD_REACTORS
330
47
102
}
330
47
100
AcDbScale
 70
     0
300
1/128" = 1'-0"
140
0.0078125
141
12.0
290
     0
  0
SCALE
  5
5A
102
{ACAD_REACTORS
330
47
102
}
330
47
100
AcDbScale
 70
     0
300
1/64" = 1'-0"
140
0.015625
141
12.0
290
     0
  0
SCALE
  5
5B
102
{ACAD_REACTORS
330
47
102
}
330
47
100
AcDbScale
 70
     0
300
1/32" = 1'-0"
140
0.03125
141
12.0
290
     0
  0
SCALE
  5
5C
102
{ACAD_REACTORS
330
47
102
}
330
47
100
AcDbScale
 70
     0
300
1/16" = 1'-0"
140
0.0625
141
12.0
290
     0
  0
SCALE
  5
5D
102
{ACAD_REACTORS
330
47
102
}
330
47
100
AcDbScale
 70
     0
300
3/32" = 1'-0"
140
0.09375
141
12.0
290
     0
  0
SCALE
  5
5E
102
{ACAD_REACTORS
330
47
102
}
330
47
100
AcDbScale
 70
     0
300
1/8" = 1'-0"
140
0.125
141
12.0
290
     0
  0
SCALE
  5
5F
102
{ACAD_REACTORS
330
47
102
}
330
47
100
AcDbScale
 70
     0
300
3/16" = 1'-0"
140
0.1875
141
12.0
290
     0
  0
SCALE
  5
60
102
{ACAD_REACTORS
330
47
102
}
330
47
100
AcDbScale
 70
     0
300
1/4" = 1'-0"
140
0.25
141
12.0
290
     0
  0
SCALE
  5
61
102
{ACAD_REACTORS
330
47
102
}
330
47
100
AcDbScale
 70
     0
300
3/8" = 1'-0"
140
0.375
141
12.0
290
     0
  0
SCALE
  5
62
102
{ACAD_REACTORS
330
47
102
}
330
47
100
AcDbScale
 70
     0
300
1/2" = 1'-0"
140
0.5
141
12.0
290
     0
  0
SCALE
  5
63
102
{ACAD_REACTORS
330
47
102
}
330
47
100
AcDbScale
 70
     0
300
3/4" = 1'-0"
140
0.75
141
12.0
290
     0
  0
SCALE
  5
64
102
{ACAD_REACTORS
330
47
102
}
330
47
100
AcDbScale
 70
     0
300
1" = 1'-0"
140
1.0
141
12.0
290
     0
  0
SCALE
  5
65
102
{ACAD_REACTORS
330
47
102
}
330
47
100
AcDbScale
 70
     0
300
1-1/2" = 1'-0"
140
1.5
141
12.0
290
     0
  0
SCALE
  5
66
102
{ACAD_REACTORS
330
47
102
}
330
47
100
AcDbScale
 70
     0
300
3" = 1'-0"
140
3.0
141
12.0
290
     0
  0
SCALE
  5
67
102
{ACAD_REACTORS
330
47
102
}
330
47
100
AcDbScale
 70
     0
300
6" = 1'-0"
140
6.0
141
12.0
290
     0
  0
SCALE
  5
68
102
{ACAD_REACTORS
330
47
102
}
330
47
100
AcDbScale
 70
     0
300
1'-0" = 1'-0"
140
12.0
141
12.0
290
     0
  0
TABLESTYLE
  5
6A
102
{ACAD_REACTORS
330
69
102
}
102
{ACAD_XDICTIONARY
360
35E
102
}
330
69
100
AcDbTableStyle
  3
Standard
 70
     0
 71
     0
 40
0.06
 41
0.06
280
     0
281
     0
  7
Standard
140
0.18
170
     2
 62
     0
 63
   257
283
     0
274
    -2
284
     1
 64
     0
275
    -2
285
     1
 65
     0
276
    -2
286
     1
 66
     0
277
    -2
287
     1
 67
     0
278
    -2
288
     1
 68
     0
279
    -2
289
     1
 69
     0
  7
Standard
140
0.25
170
     5
 62
     0
 63
   257
283
     0
274
    -2
284
     1
 64
     0
275
    -2
285
     1
 65
     0
276
    -2
286
     1
 66
     0
277
    -2
287
     1
 67
     0
278
    -2
288
     1
 68
     0
279
    -2
289
     1
 69
     0
  7
Standard
140
0.18
170
     5
 62
     0
 63
   257
283
     0
274
    -2
284
     1
 64
     0
275
    -2
285
     1
 65
     0
276
    -2
286
     1
 66
     0
277
    -2
287
     1
 67
     0
278
    -2
288
     1
 68
     0
279
    -2
289
     1
 69
     0
  0
VISUALSTYLE
  5
2F
102
{ACAD_REACTORS
330
2A
102
}
102
{ACAD_XDICTIONARY
360
330
102
}
330
2A
100
AcDbVisualStyle
  2
2dWireframe
 70
     4
 71
     0
 72
     2
 73
     0
 90
        0
 40
0.6
 41
30.0
 62
     5
 63
     7
421
 16777215
 74
     1
 91
        4
 64
     7
 65
   257
 75
     1
175
     1
 42
1.0
 92
        0
 66
   257
 43
1.0
 76
     1
 77
     6
 78
     2
 67
     7
 79
     5
170
     0
171
     0
290
     0
174
     0
 93
        1
 44
0.0
173
     0
291
     0
 45
0.0
1001
ACAD
1000
AcDbSavedByObjectVersion
1070
     0
  0
VISUALSTYLE
  5
32
102
{ACAD_REACTORS
330
2A
102
}
102
{ACAD_XDICTIONARY
360
336
102
}
330
2A
100
AcDbVisualStyle
  2
Basic
 70
     7
 71
     1
 72
     0
 73
     1
 90
        0
 40
0.6
 41
30.0
 62
     5
 63
     7
421
 16777215
 74
     0
 91
        4
 64
     7
 65
   257
 75
     1
175
     1
 42
1.0
 92
        8
 66
     7
 43
1.0
 76
     1
 77
     6
 78
     2
 67
     7
 79
     5
170
     0
171
     0
290
     0
174
     0
 93
        1
 44
0.0
173
     0
291
     1
 45
0.0
1001
ACAD
1000
AcDbSavedByObjectVersion
1070
     0
  0
VISUALSTYLE
  5
36
102
{ACAD_REACTORS
330
2A
102
}
102
{ACAD_XDICTIONARY
360
33E
102
}
330
2A
100
AcDbVisualStyle
  2
Brighten
 70
    12
 71
     2
 72
     2
 73
     0
 90
        0
 40
0.6
 41
30.0
 62
     5
 63
     7
421
 16777215
 74
     1
 91
        4
 64
     7
 65
   257
 75
     1
175
     1
 42
1.0
 92
        8
 66
     7
 43
1.0
 76
     1
 77
     6
 78
     2
 67
     7
 79
     5
170
     0
171
     0
290
     0
174
     0
 93
        1
 44
50.0
173
     0
291
     1
 45
0.0
1001
ACAD
1000
AcDbSavedByObjectVersion
1070
     0
  0
VISUALSTYLE
  5
3A
102
{ACAD_REACTORS
330
2A
102
}
102
{ACAD_XDICTIONARY
360
346
102
}
330
2A
100
AcDbVisualStyle
  2
ColorChange
 70
    16
 71
     2
 72
     2
 73
     3
 90
        0
 40
0.6
 41
30.0
 62
     5
 63
     8
421
  8421504
 74
     1
 91
        4
 64
     7
 65
   257
 75
     1
175
     1
 42
1.0
 92
        8
 66
     8
424
  8421504
 43
1.0
 76
     1
 77
     6
 78
     2
 67
     7
 79
     5
170
     0
171
     0
290
     0
174
     0
 93
        1
 44
0.0
173
     0
291
     1
 45
0.0
1001
ACAD
1000
AcDbSavedByObjectVersion
1070
     0
  0
VISUALSTYLE
  5
34
102
{ACAD_REACTORS
330
2A
102
}
102
{ACAD_XDICTIONARY
360
33A
102
}
330
2A
100
AcDbVisualStyle
  2
Conceptual
 70
     9
 71
     3
 72
     2
 73
     0
 90
        0
 40
0.6
 41
30.0
 62
     5
 63
     7
421
 16777215
 74
     2
 91
        2
 64
     7
 65
   257
 75
     1
175
     1
 42
179.0
 92
        8
 66
     7
 43
1.0
 76
     1
 77
     6
 78
     2
 67
     7
 79
     3
170
     0
171
     0
290
     0
174
     0
 93
        1
 44
0.0
173
     0
291
     0
 45
0.0
1001
ACAD
1000
AcDbSavedByObjectVersion
1070
     0
  0
VISUALSTYLE
  5
35
102
{ACAD_REACTORS
330
2A
102
}
102
{ACAD_XDICTIONARY
360
33C
102
}
330
2A
100
AcDbVisualStyle
  2
Dim
 70
    11
 71
     2
 72
     2
 73
     0
 90
        0
 40
0.6
 41
30.0
 62
     5
 63
     7
421
 16777215
 74
     1
 91
        4
 64
     7
 65
   257
 75
     1
175
     1
 42
1.0
 92
        8
 66
     7
 43
1.0
 76
     1
 77
     6
 78
     2
 67
     7
 79
     5
170
     0
171
     0
290
     0
174
     0
 93
        1
 44
-50.0
173
     0
291
     1
 45
0.0
1001
ACAD
1000
AcDbSavedByObjectVersion
1070
     0
  0
VISUALSTYLE
  5
3D
102
{ACAD_REACTORS
330
2A
102
}
102
{ACAD_XDICTIONARY
360
34C
102
}
330
2A
100
AcDbVisualStyle
  2
EdgeColorOff
 70
    22
 71
     2
 72
     2
 73
     0
 90
        0
 40
0.6
 41
30.0
 62
     5
 63
     7
421
 16777215
 74
     1
 91
        4
 64
     7
 65
   257
 75
     1
175
     1
 42
1.0
 92
        8
 66
     7
 43
1.0
 76
     1
 77
     6
 78
     2
 67
     7
 79
     5
170
     0
171
     0
290
     0
174
     0
 93
        1
 44
0.0
173
     0
291
     1
 45
0.0
1001
ACAD
1000
AcDbSavedByObjectVersion
1070
     0
  0
VISUALSTYLE
  5
39
102
{ACAD_REACTORS
330
2A
102
}
102
{ACAD_XDICTIONARY
360
344
102
}
330
2A
100
AcDbVisualStyle
  2
Facepattern
 70
    15
 71
     2
 72
     2
 73
     0
 90
        0
 40
0.6
 41
30.0
 62
     5
 63
     7
421
 16777215
 74
     1
 91
        4
 64
     7
 65
   257
 75
     1
175
     1
 42
1.0
 92
        8
 66
     7
 43
1.0
 76
     1
 77
     6
 78
     2
 67
     7
 79
     5
170
     0
171
     0
290
     0
174
     0
 93
        1
 44
0.0
173
     0
291
     1
 45
0.0
1001
ACAD
1000
AcDbSavedByObjectVersion
1070
     0
  0
VISUALSTYLE
  5
2B
102
{ACAD_REACTORS
330
2A
102
}
102
{ACAD_XDICTIONARY
360
328
102
}
330
2A
100
AcDbVisualStyle
  2
Flat
 70
     0
 71
     2
 72
     1
 73
     1
 90
        2
 40
0.6
 41
30.0
 62
     5
 63
     7
421
 16777215
 74
     0
 91
        0
 64
     7
 65
   257
 75
     1
175
     1
 42
1.0
 92
        8
 66
     7
 43
1.0
 76
     1
 77
     6
 78
     2
 67
     7
 79
     5
170
     0
171
     0
290
     0
174
     0
 93
       13
 44
0.0
173
     0
291
     1
 45
0.0
1001
ACAD
1000
AcDbSavedByObjectVersion
1070
     0
  0
VISUALSTYLE
  5
2C
102
{ACAD_REACTORS
330
2A
102
}
102
{ACAD_XDICTIONARY
360
32A
102
}
330
2A
100
AcDbVisualStyle
  2
FlatWithEdges
 70
     1
 71
     2
 72
     1
 73
     1
 90
        2
 40
0.6
 41
30.0
 62
     5
 63
     7
421
 16777215
 74
     1
 91
        0
 64
     7
 65
   257
 75
     1
175
     1
 42
1.0
 92
        0
 66
   257
 43
1.0
 76
     1
 77
     6
 78
     2
 67
     7
 79
     5
170
     0
171
     0
290
     0
174
     0
 93
       13
 44
0.0
173
     0
291
     1
 45
0.0
1001
ACAD
1000
AcDbSavedByObjectVersion
1070
     0
  0
VISUALSTYLE
  5
2D
102
{ACAD_REACTORS
330
2A
102
}
102
{ACAD_XDICTIONARY
360
32C
102
}
330
2A
100
AcDbVisualStyle
  2
Gouraud
 70
     2
 71
     2
 72
     2
 73
     1
 90
        2
 40
0.6
 41
30.0
 62
     5
 63
     7
421
 16777215
 74
     0
 91
        0
 64
     7
 65
   257
 75
     1
175
     1
 42
1.0
 92
        0
 66
     7
 43
1.0
 76
     1
 77
     6
 78
     2
 67
     7
 79
     5
170
     0
171
     0
290
     0
174
     0
 93
       13
 44
0.0
173
     0
291
     1
 45
0.0
1001
ACAD
1000
AcDbSavedByObjectVersion
1070
     0
  0
VISUALSTYLE
  5
2E
102
{ACAD_REACTORS
330
2A
102
}
102
{ACAD_XDICTIONARY
360
32E
102
}
330
2A
100
AcDbVisualStyle
  2
GouraudWithEdges
 70
     3
 71
     2
 72
     2
 73
     1
 90
        2
 40
0.6
 41
30.0
 62
     5
 63
     7
421
 16777215
 74
     1
 91
        0
 64
     7
 65
   257
 75
     1
175
     1
 42
1.0
 92
        0
 66
   257
 43
1.0
 76
     1
 77
     6
 78
     2
 67
     7
 79
     5
170
     0
171
     0
290
     0
174
     0
 93
       13
 44
0.0
173
     0
291
     1
 45
0.0
1001
ACAD
1000
AcDbSavedByObjectVersion
1070
     0
  0
VISUALSTYLE
  5
31
102
{ACAD_REACTORS
330
2A
102
}
102
{ACAD_XDICTIONARY
360
334
102
}
330
2A
100
AcDbVisualStyle
  2
Hidden
 70
     6
 71
     1
 72
     2
 73
     2
 90
        0
 40
0.6
 41
30.0
 62
     5
 63
     7
421
 16777215
 74
     2
 91
        2
 64
     7
 65
   257
 75
     2
175
     1
 42
40.0
 92
        0
 66
   257
 43
1.0
 76
     1
 77
     6
 78
     2
 67
     7
 79
     3
170
     0
171
     0
290
     0
174
     0
 93
        1
 44
0.0
173
     0
291
     0
 45
0.0
1001
ACAD
1000
AcDbSavedByObjectVersion
1070
     0
  0
VISUALSTYLE
  5
3B
102
{ACAD_REACTORS
330
2A
102
}
102
{ACAD_XDICTIONARY
360
348
102
}
330
2A
100
AcDbVisualStyle
  2
JitterOff
 70
    20
 71
     2
 72
     2
 73
     0
 90
        0
 40
0.6
 41
30.0
 62
     5
 63
     7
421
 16777215
 74
     1
 91
        4
 64
     7
 65
   257
 75
     1
175
     1
 42
1.0
 92
       10
 66
     7
 43
1.0
 76
     1
 77
     6
 78
     2
 67
     7
 79
     5
170
     0
171
     0
290
     0
174
     0
 93
        1
 44
0.0
173
     0
291
     1
 45
0.0
1001
ACAD
1000
AcDbSavedByObjectVersion
1070
     0
  0
VISUALSTYLE
  5
38
102
{ACAD_REACTORS
330
2A
102
}
102
{ACAD_XDICTIONARY
360
342
102
}
330
2A
100
AcDbVisualStyle
  2
Linepattern
 70
    14
 71
     2
 72
     2
 73
     0
 90
        0
 40
0.6
 41
30.0
 62
     5
 63
     7
421
 16777215
 74
     1
 91
        4
 64
     7
 65
   257
 75
     7
175
     7
 42
1.0
 92
        8
 66
     7
 43
1.0
 76
     1
 77
     6
 78
     2
 67
     7
 79
     5
170
     0
171
     0
290
     0
174
     0
 93
        1
 44
0.0
173
     0
291
     1
 45
0.0
1001
ACAD
1000
AcDbSavedByObjectVersion
1070
     0
  0
VISUALSTYLE
  5
3C
102
{ACAD_REACTORS
330
2A
102
}
102
{ACAD_XDICTIONARY
360
34A
102
}
330
2A
100
AcDbVisualStyle
  2
OverhangOff
 70
    21
 71
     2
 72
     2
 73
     0
 90
        0
 40
0.6
 41
30.0
 62
     5
 63
     7
421
 16777215
 74
     1
 91
        4
 64
     7
 65
   257
 75
     1
175
     1
 42
1.0
 92
        9
 66
     7
 43
1.0
 76
     1
 77
     6
 78
     2
 67
     7
 79
     5
170
     0
171
     0
290
     0
174
     0
 93
        1
 44
0.0
173
     0
291
     1
 45
0.0
1001
ACAD
1000
AcDbSavedByObjectVersion
1070
     0
  0
VISUALSTYLE
  5
33
102
{ACAD_REACTORS
330
2A
102
}
102
{ACAD_XDICTIONARY
360
338
102
}
330
2A
100
AcDbVisualStyle
  2
Realistic
 70
     8
 71
     2
 72
     3
 73
     0
 90
        2
 40
0.6
 41
30.0
 62
     5
 63
     7
421
 16777215
 74
     0
 91
        0
 64
     7
 65
   257
 75
     1
175
     1
 42
1.0
 92
        8
 66
   257
 43
1.0
 76
     1
 77
     6
 78
     2
 67
     7
 79
     3
170
     0
171
     0
290
     0
174
     0
 93
       13
 44
0.0
173
     0
291
     0
 45
0.0
1001
ACAD
1000
AcDbSavedByObjectVersion
1070
     0
  0
VISUALSTYLE
  5
42
102
{ACAD_REACTORS
330
2A
102
}
102
{ACAD_XDICTIONARY
360
356
102
}
330
2A
100
AcDbVisualStyle
  2
Shaded
 70
    27
 71
     2
 72
     2
 73
     1
 90
        2
 40
0.6
 41
30.0
 62
     5
 63
     7
421
 16777215
 74
     0
 91
        4
 64
     7
 65
   257
 75
     1
175
     1
 42
1.0
 92
        8
 66
   257
 43
1.0
 76
     1
 77
     6
 78
     2
 67
     8
425
  7895160
 79
     3
170
     0
171
     0
290
     0
174
     0
 93
        5
 44
0.0
173
     0
291
     0
 45
0.0
1001
ACAD
1000
AcDbSavedByObjectVersion
1070
     0
  0
VISUALSTYLE
  5
41
102
{ACAD_REACTORS
330
2A
102
}
102
{ACAD_XDICTIONARY
360
354
102
}
330
2A
100
AcDbVisualStyle
  2
Shaded with edges
 70
    26
 71
     2
 72
     2
 73
     1
 90
        2
 40
0.6
 41
30.0
 62
     5
 63
     7
421
 16777215
 74
     1
 91
       10
 64
     7
 65
   257
 75
     2
175
     1
 42
1.0
 92
        8
 66
   257
 43
1.0
 76
     1
 77
     6
 78
     2
 67
     7
 79
     3
170
     0
171
     0
290
     0
174
     0
 93
        5
 44
0.0
173
     0
291
     0
 45
0.0
1001
ACAD
1000
AcDbSavedByObjectVersion
1070
     0
  0
VISUALSTYLE
  5
3E
102
{ACAD_REACTORS
330
2A
102
}
102
{ACAD_XDICTIONARY
360
34E
102
}
330
2A
100
AcDbVisualStyle
  2
Shades of Gray
 70
    23
 71
     2
 72
     2
 73
     3
 90
        0
 40
0.6
 41
30.0
 62
     5
 63
     7
421
 16777215
 74
     2
 91
        2
 64
     7
 65
     7
 75
     1
175
     1
 42
40.0
 92
        8
 66
     7
 43
1.0
 76
     1
 77
     6
 78
     2
 67
     7
 79
     3
170
     0
171
     0
290
     0
174
     0
 93
        1
 44
0.0
173
     0
291
     0
 45
0.0
1001
ACAD
1000
AcDbSavedByObjectVersion
1070
     0
  0
VISUALSTYLE
  5
3F
102
{ACAD_REACTORS
330
2A
102
}
102
{ACAD_XDICTIONARY
360
350
102
}
330
2A
100
AcDbVisualStyle
  2
Sketchy
 70
    24
 71
     1
 72
     2
 73
     2
 90
        0
 40
0.6
 41
30.0
 62
     5
 63
     7
421
 16777215
 74
     2
 91
        2
 64
     7
 65
     7
 75
     1
175
     1
 42
40.0
 92
       11
 66
     7
 43
1.0
 76
     1
 77
     6
 78
     2
 67
     7
 79
     6
170
     0
171
     0
290
     0
174
     0
 93
        1
 44
0.0
173
     0
291
     0
 45
0.0
1001
ACAD
1000
AcDbSavedByObjectVersion
1070
     0
  0
VISUALSTYLE
  5
37
102
{ACAD_REACTORS
330
2A
102
}
102
{ACAD_XDICTIONARY
360
340
102
}
330
2A
100
AcDbVisualStyle
  2
Thicken
 70
    13
 71
     2
 72
     2
 73
     0
 90
        0
 40
0.6
 41
30.0
 62
     5
 63
     7
421
 16777215
 74
     1
 91
        4
 64
     7
 65
   257
 75
     1
175
     1
 42
1.0
 92
       12
 66
     7
 43
1.0
 76
     1
 77
     6
 78
     2
 67
     7
 79
     5
170
     0
171
     0
290
     0
174
     0
 93
        1
 44
0.0
173
     0
291
     1
 45
0.0
1001
ACAD
1000
AcDbSavedByObjectVersion
1070
     0
  0
VISUALSTYLE
  5
30
102
{ACAD_REACTORS
330
2A
102
}
102
{ACAD_XDICTIONARY
360
332
102
}
330
2A
100
AcDbVisualStyle
  2
Wireframe
 70
     5
 71
     0
 72
     2
 73
     0
 90
        0
 40
0.6
 41
30.0
 62
     5
 63
     7
421
 16777215
 74
     1
 91
        4
 64
     7
 65
   257
 75
     1
175
     1
 42
1.0
 92
        0
 66
   257
 43
1.0
 76
     1
 77
     6
 78
     2
 67
     7
 79
     3
170
     0
171
     0
290
     0
174
     0
 93
        1
 44
0.0
173
     0
291
     0
 45
0.0
1001
ACAD
1000
AcDbSavedByObjectVersion
1070
     0
  0
VISUALSTYLE
  5
40
102
{ACAD_REACTORS
330
2A
102
}
102
{ACAD_XDICTIONARY
360
352
102
}
330
2A
100
AcDbVisualStyle
  2
X-Ray
 70
    25
 71
     2
 72
     2
 73
     1
 90
        1
 40
0.5
 41
30.0
 62
     5
 63
     7
421
 16777215
 74
     1
 91
        0
 64
     7
 65
   257
 75
     1
175
     1
 42
1.0
 92
        8
 66
     7
 43
1.0
 76
     1
 77
     6
 78
     2
 67
     7
 79
     3
170
     0
171
     0
290
     0
174
     0
 93
       13
 44
0.0
173
     0
291
     0
 45
0.0
1001
ACAD
1000
AcDbSavedByObjectVersion
1070
     0
  0
DICTIONARYVAR
  5
325
102
{ACAD_REACTORS
330
324
102
}
330
324
100
DictionaryVariables
280
     0
  1
1:1
  0
DICTIONARYVAR
  5
366
102
{ACAD_REACTORS
330
324
102
}
330
324
100
DictionaryVariables
280
     0
  1
Standard
  0
DICTIONARYVAR
  5
365
102
{ACAD_REACTORS
330
324
102
}
330
324
100
DictionaryVariables
280
     0
  1
Standard
  0
DICTIONARYVAR
  5
326
102
{ACAD_REACTORS
330
324
102
}
330
324
100
DictionaryVariables
280
     0
  1
1
  0
DICTIONARYVAR
  5
327
102
{ACAD_REACTORS
330
324
102
}
330
324
100
DictionaryVariables
280
     0
  1
2
  0
DICTIONARY
  5
35A
330
45
100
AcDbDictionary
280
     1
281
     1
  3
ACAD_XREC_ROUNDTRIP
360
35B
  0
DICTIONARY
  5
358
330
44
100
AcDbDictionary
280
     1
281
     1
  3
ACAD_XREC_ROUNDTRIP
360
359
  0
DICTIONARY
  5
35C
330
46
100
AcDbDictionary
280
     1
281
     1
  3
ACAD_XREC_ROUNDTRIP
360
35D
  0
DICTIONARY
  5
362
330
6C
100
AcDbDictionary
280
     1
281
     1
  3
ACAD_XREC_ROUNDTRIP
360
363
  0
DICTIONARY
  5
35E
330
6A
100
AcDbDictionary
280
     1
281
     1
  3
ACAD_ROUNDTRIP_2008_TABLESTYLE_CELLSTYLEMAP
360
360
  3
ACAD_XREC_ROUNDTRIP
360
35F
  0
DICTIONARY
  5
330
330
2F
100
AcDbDictionary
280
     1
281
     1
  3
ACAD_XREC_ROUNDTRIP
360
331
  0
DICTIONARY
  5
336
330
32
100
AcDbDictionary
280
     1
281
     1
  3
ACAD_XREC_ROUNDTRIP
360
337
  0
DICTIONARY
  5
33E
330
36
100
AcDbDictionary
280
     1
281
     1
  3
ACAD_XREC_ROUNDTRIP
360
33F
  0
DICTIONARY
  5
346
330
3A
100
AcDbDictionary
280
     1
281
     1
  3
ACAD_XREC_ROUNDTRIP
360
347
  0
DICTIONARY
  5
33A
330
34
100
AcDbDictionary
280
     1
281
     1
  3
ACAD_XREC_ROUNDTRIP
360
33B
  0
DICTIONARY
  5
33C
330
35
100
AcDbDictionary
280
     1
281
     1
  3
ACAD_XREC_ROUNDTRIP
360
33D
  0
DICTIONARY
  5
34C
330
3D
100
AcDbDictionary
280
     1
281
     1
  3
ACAD_XREC_ROUNDTRIP
360
34D
  0
DICTIONARY
  5
344
330
39
100
AcDbDictionary
280
     1
281
     1
  3
ACAD_XREC_ROUNDTRIP
360
345
  0
DICTIONARY
  5
328
330
2B
100
AcDbDictionary
280
     1
281
     1
  3
ACAD_XREC_ROUNDTRIP
360
329
  0
DICTIONARY
  5
32A
330
2C
100
AcDbDictionary
280
     1
281
     1
  3
ACAD_XREC_ROUNDTRIP
360
32B
  0
DICTIONARY
  5
32C
330
2D
100
AcDbDictionary
280
     1
281
     1
  3
ACAD_XREC_ROUNDTRIP
360
32D
  0
DICTIONARY
  5
32E
330
2E
100
AcDbDictionary
280
     1
281
     1
  3
ACAD_XREC_ROUNDTRIP
360
32F
  0
DICTIONARY
  5
334
330
31
100
AcDbDictionary
280
     1
281
     1
  3
ACAD_XREC_ROUNDTRIP
360
335
  0
DICTIONARY
  5
348
330
3B
100
AcDbDictionary
280
     1
281
     1
  3
ACAD_XREC_ROUNDTRIP
360
349
  0
DICTIONARY
  5
342
330
38
100
AcDbDictionary
280
     1
281
     1
  3
ACAD_XREC_ROUNDTRIP
360
343
  0
DICTIONARY
  5
34A
330
3C
100
AcDbDictionary
280
     1
281
     1
  3
ACAD_XREC_ROUNDTRIP
360
34B
  0
DICTIONARY
  5
338
330
33
100
AcDbDictionary
280
     1
281
     1
  3
ACAD_XREC_ROUNDTRIP
360
339
  0
DICTIONARY
  5
356
330
42
100
AcDbDictionary
280
     1
281
     1
  3
ACAD_XREC_ROUNDTRIP
360
357
  0
DICTIONARY
  5
354
330
41
100
AcDbDictionary
280
     1
281
     1
  3
ACAD_XREC_ROUNDTRIP
360
355
  0
DICTIONARY
  5
34E
330
3E
100
AcDbDictionary
280
     1
281
     1
  3
ACAD_XREC_ROUNDTRIP
360
34F
  0
DICTIONARY
  5
350
330
3F
100
AcDbDictionary
280
     1
281
     1
  3
ACAD_XREC_ROUNDTRIP
360
351
  0
DICTIONARY
  5
340
330
37
100
AcDbDictionary
280
     1
281
     1
  3
ACAD_XREC_ROUNDTRIP
360
341
  0
DICTIONARY
  5
332
330
30
100
AcDbDictionary
280
     1
281
     1
  3
ACAD_XREC_ROUNDTRIP
360
333
  0
DICTIONARY
  5
352
330
40
100
AcDbDictionary
280
     1
281
     1
  3
ACAD_XREC_ROUNDTRIP
360
353
  0
XRECORD
  5
35B
102
{ACAD_REACTORS
330
35A
102
}
330
35A
100
AcDbXrecord
280
     1
102
MATERIAL
148
0.0
149
0.0
149
0.0
 93
        0
 94
      127
282
     0
 72
     1
 77
     1
171
     1
175
     1
179
     1
273
     0
  0
XRECORD
  5
359
102
{ACAD_REACTORS
330
358
102
}
330
358
100
AcDbXrecord
280
     1
102
MATERIAL
148
0.0
149
0.0
149
0.0
 93
        0
 94
      127
282
     0
 72
     1
 77
     1
171
     1
175
     1
179
     1
273
     0
  0
XRECORD
  5
35D
102
{ACAD_REACTORS
330
35C
102
}
330
35C
100
AcDbXrecord
280
     1
102
MATERIAL
148
0.0
149
0.0
149
0.0
 93
        0
 94
      127
282
     0
 72
     1
 77
     1
171
     1
175
     1
179
     1
273
     0
  0
XRECORD
  5
363
102
{ACAD_REACTORS
330
362
102
}
330
362
100
AcDbXrecord
280
     1
102
ACAD_ROUNDTRIP_2010_MLEADER_STYLE
  0
CELLSTYLEMAP
  5
360
102
{ACAD_REACTORS
330
35E
102
}
330
35E
100
AcDbCellStyleMap
 90
        3
300
CELLSTYLE
  1
TABLEFORMAT_BEGIN
 90
        5
170
     1
 91
        0
 92
    32768
 62
   257
 93
        1
300
CONTENTFORMAT
  1
CONTENTFORMAT_BEGIN
 90
        0
 91
        0
 92
        4
 93
        0
300

 40
0.0
140
1.0
 94
        5
 62
     0
340
11
144
0.25
309
CONTENTFORMAT_END
171
     1
301
MARGIN
  1
CELLMARGIN_BEGIN
 40
0.06
 40
0.06
 40
0.06
 40
0.06
 40
0.06
 40
0.06
309
CELLMARGIN_END
 94
        6
 95
        1
302
GRIDFORMAT
  1
GRIDFORMAT_BEGIN
 90
        0
 91
        1
 62
     0
 92
       -2
340
14
 93
        0
 40
0.045
309
GRIDFORMAT_END
 95
        2
302
GRIDFORMAT
  1
GRIDFORMAT_BEGIN
 90
        0
 91
        1
 62
     0
 92
       -2
340
14
 93
        0
 40
0.045
309
GRIDFORMAT_END
 95
        4
302
GRIDFORMAT
  1
GRIDFORMAT_BEGIN
 90
        0
 91
        1
 62
     0
 92
       -2
340
14
 93
        0
 40
0.045
309
GRIDFORMAT_END
 95
        8
302
GRIDFORMAT
  1
GRIDFORMAT_BEGIN
 90
        0
 91
        1
 62
     0
 92
       -2
340
14
 93
        0
 40
0.045
309
GRIDFORMAT_END
 95
       16
302
GRIDFORMAT
  1
GRIDFORMAT_BEGIN
 90
        0
 91
        1
 62
     0
 92
       -2
340
14
 93
        0
 40
0.045
309
GRIDFORMAT_END
 95
       32
302
GRIDFORMAT
  1
GRIDFORMAT_BEGIN
 90
        0
 91
        1
 62
     0
 92
       -2
340
14
 93
        0
 40
0.045
309
GRIDFORMAT_END
309
TABLEFORMAT_END
  1
CELLSTYLE_BEGIN
 90
        1
 91
        1
300
_TITLE
309
CELLSTYLE_END
300
CELLSTYLE
  1
TABLEFORMAT_BEGIN
 90
        5
170
     1
 91
        0
 92
        0
 62
   257
 93
        1
300
CONTENTFORMAT
  1
CONTENTFORMAT_BEGIN
 90
        0
 91
        0
 92
        4
 93
        0
300

 40
0.0
140
1.0
 94
        5
 62
     0
340
11
144
0.18
309
CONTENTFORMAT_END
171
     1
301
MARGIN
  1
CELLMARGIN_BEGIN
 40
0.06
 40
0.06
 40
0.06
 40
0.06
 40
0.06
 40
0.06
309
CELLMARGIN_END
 94
        6
 95
        1
302
GRIDFORMAT
  1
GRIDFORMAT_BEGIN
 90
        0
 91
        1
 62
     0
 92
       -2
340
14
 93
        0
 40
0.045
309
GRIDFORMAT_END
 95
        2
302
GRIDFORMAT
  1
GRIDFORMAT_BEGIN
 90
        0
 91
        1
 62
     0
 92
       -2
340
14
 93
        0
 40
0.045
309
GRIDFORMAT_END
 95
        4
302
GRIDFORMAT
  1
GRIDFORMAT_BEGIN
 90
        0
 91
        1
 62
     0
 92
       -2
340
14
 93
        0
 40
0.045
309
GRIDFORMAT_END
 95
        8
302
GRIDFORMAT
  1
GRIDFORMAT_BEGIN
 90
        0
 91
        1
 62
     0
 92
       -2
340
14
 93
        0
 40
0.045
309
GRIDFORMAT_END
 95
       16
302
GRIDFORMAT
  1
GRIDFORMAT_BEGIN
 90
        0
 91
        1
 62
     0
 92
       -2
340
14
 93
        0
 40
0.045
309
GRIDFORMAT_END
 95
       32
302
GRIDFORMAT
  1
GRIDFORMAT_BEGIN
 90
        0
 91
        1
 62
     0
 92
       -2
340
14
 93
        0
 40
0.045
309
GRIDFORMAT_END
309
TABLEFORMAT_END
  1
CELLSTYLE_BEGIN
 90
        2
 91
        1
300
_HEADER
309
CELLSTYLE_END
300
CELLSTYLE
  1
TABLEFORMAT_BEGIN
 90
        5
170
     1
 91
        0
 92
        0
 62
   257
 93
        1
300
CONTENTFORMAT
  1
CONTENTFORMAT_BEGIN
 90
        0
 91
        0
 92
        4
 93
        0
300

 40
0.0
140
1.0
 94
        2
 62
     0
340
11
144
0.18
309
CONTENTFORMAT_END
171
     1
301
MARGIN
  1
CELLMARGIN_BEGIN
 40
0.06
 40
0.06
 40
0.06
 40
0.06
 40
0.06
 40
0.06
309
CELLMARGIN_END
 94
        6
 95
        1
302
GRIDFORMAT
  1
GRIDFORMAT_BEGIN
 90
        0
 91
        1
 62
     0
 92
       -2
340
14
 93
        0
 40
0.045
309
GRIDFORMAT_END
 95
        2
302
GRIDFORMAT
  1
GRIDFORMAT_BEGIN
 90
        0
 91
        1
 62
     0
 92
       -2
340
14
 93
        0
 40
0.045
309
GRIDFORMAT_END
 95
        4
302
GRIDFORMAT
  1
GRIDFORMAT_BEGIN
 90
        0
 91
        1
 62
     0
 92
       -2
340
14
 93
        0
 40
0.045
309
GRIDFORMAT_END
 95
        8
302
GRIDFORMAT
  1
GRIDFORMAT_BEGIN
 90
        0
 91
        1
 62
     0
 92
       -2
340
14
 93
        0
 40
0.045
309
GRIDFORMAT_END
 95
       16
302
GRIDFORMAT
  1
GRIDFORMAT_BEGIN
 90
        0
 91
        1
 62
     0
 92
       -2
340
14
 93
        0
 40
0.045
309
GRIDFORMAT_END
 95
       32
302
GRIDFORMAT
  1
GRIDFORMAT_BEGIN
 90
        0
 91
        1
 62
     0
 92
       -2
340
14
 93
        0
 40
0.045
309
GRIDFORMAT_END
309
TABLEFORMAT_END
  1
CELLSTYLE_BEGIN
 90
        3
 91
        2
300
_DATA
309
CELLSTYLE_END
  0
XRECORD
  5
35F
102
{ACAD_REACTORS
330
35E
102
}
330
35E
100
AcDbXrecord
280
     1
102
ACAD_ROUNDTRIP_PRE2007_TABLESTYLE
 90
        4
 91
        0
  1

 92
        4
 93
        0
  2

 94
        4
 95
        0
  3

  0
XRECORD
  5
331
102
{ACAD_REACTORS
330
330
102
}
330
330
100
AcDbXrecord
280
     1
102
RTVSPropertyOp0
 70
     1
102
RTVSPropertyOp1
 70
     1
102
RTVSPropertyOp2
 70
     1
102
RTVSPropertyOp3
 70
     1
102
RTVSPropertyOp4
 70
     1
102
RTVSPropertyOp5
 70
     1
102
RTVSPropertyOp6
 70
     1
102
RTVSPropertyOp7
 70
     1
102
RTVSPropertyOp8
 70
     1
102
RTVSPropertyOp9
 70
     1
102
RTVSPropertyOp10
 70
     1
102
RTVSPropertyOp11
 70
     1
102
RTVSPropertyOp12
 70
     1
102
RTVSPropertyOp13
 70
     1
102
RTVSPropertyOp14
 70
     1
102
RTVSPropertyOp15
 70
     1
102
RTVSPropertyOp16
 70
     1
102
RTVSPropertyOp17
 70
     1
102
RTVSPropertyOp18
 70
     1
102
RTVSPropertyOp19
 70
     1
102
RTVSPropertyOp20
 70
     1
102
RTVSPropertyOp21
 70
     1
102
RTVSPropertyOp22
 70
     1
102
RTVSPropertyOp23
 70
     1
102
RTVSPropertyOp24
 70
     1
102
RTVSPropertyOp25
 70
     1
102
RTVSPropertyOp26
 70
     1
102
RTVSPropertyOp27
 70
     1
102
RTVSPropertyOp28
 70
     1
102
RTVSPropertyOp29
 70
     1
102
RTVSPropertyOp30
 70
     1
102
RTVSPropertyOp31
 70
     1
102
RTVSPropertyOp32
 70
     1
102
RTVSPropertyOp33
 70
     1
102
RTVSPropertyOp34
 70
     1
102
RTVSPropertyOp35
 70
     1
102
RTVSPropertyOp36
 70
     1
102
RTVSPropertyOp37
 70
     1
102
RTVSPropertyOp38
 70
     1
102
RTVSPropertyOp39
 70
     1
102
RTVSPropertyOp40
 70
     1
102
RTVSPropertyOp41
 70
     1
102
RTVSPropertyOp42
 70
     1
102
RTVSPropertyOp43
 70
     1
102
RTVSPropertyOp44
 70
     1
102
RTVSPropertyOp45
 70
     1
102
RTVSPropertyOp46
 70
     1
102
RTVSPropertyOp47
 70
     1
102
RTVSPropertyOp48
 70
     1
102
RTVSPropertyOp49
 70
     1
102
RTVSPropertyOp50
 70
     1
102
RTVSPropertyOp51
 70
     0
102
RTVSPropertyOp52
 70
     0
102
RTVSPropertyOp53
 70
     1
102
RTVSPropertyOp54
 70
     1
102
RTVSPropertyOp55
 70
     1
102
RTVSPropertyOp56
 70
     1
102
RTVSPropertyOp57
 70
     1
102
RTVSPost2010Prop28
280
     1
102
RTVSPost2010PropOp28
 70
     1
102
RTVSPost2010Prop29
280
     1
102
RTVSPost2010PropOp29
 70
     1
102
RTVSPost2010Prop30
280
     0
102
RTVSPost2010PropOp30
 70
     1
102
RTVSPost2010Prop31
280
     0
102
RTVSPost2010PropOp31
 70
     1
102
RTVSPost2010Prop32
280
     0
102
RTVSPost2010PropOp32
 70
     1
102
RTVSPost2010Prop33
280
     0
102
RTVSPost2010PropOp33
 70
     1
102
RTVSPost2010Prop34
280
     0
102
RTVSPost2010PropOp34
 70
     1
102
RTVSPost2010Prop35
280
     0
102
RTVSPost2010PropOp35
 70
     1
102
RTVSPost2010Prop36
280
     0
102
RTVSPost2010PropOp36
 70
     1
102
RTVSPost2010Prop37
 90
       50
102
RTVSPost2010PropOp37
 70
     1
102
RTVSPost2010Prop38
140
0.0
102
RTVSPost2010PropOp38
 70
     1
102
RTVSPost2010Prop39
140
1.0
102
RTVSPost2010PropOp39
 70
     1
102
RTVSPost2010Prop40
 90
        0
102
RTVSPost2010PropOp40
 70
     1
102
RTVSPost2010Prop41ColorIndex
 90
       18
102
RTVSPost2010Prop41ColorRGB
 90
        0
102
RTVSPost2010PropOp41
 70
     1
102
RTVSPost2010Prop42
 90
       50
102
RTVSPost2010PropOp42
 70
     1
102
RTVSPost2010Prop43
 90
        3
102
RTVSPost2010PropOp43
 70
     1
102
RTVSPost2010Prop44ColorIndex
 90
        5
102
RTVSPost2010Prop44ColorRGB
 90
      255
102
RTVSPost2010PropOp44
 70
     1
102
RTVSPost2010Prop45
280
     0
102
RTVSPost2010PropOp45
 70
     1
102
RTVSPost2010Prop46
 90
       50
102
RTVSPost2010PropOp46
 70
     1
102
RTVSPost2010Prop47
 90
       50
102
RTVSPost2010PropOp47
 70
     1
102
RTVSPost2010Prop48
 90
       50
102
RTVSPost2010PropOp48
 70
     1
102
RTVSPost2010Prop49
280
     0
102
RTVSPost2010PropOp49
 70
     1
102
RTVSPost2010Prop50
 90
       50
102
RTVSPost2010PropOp50
 70
     1
102
RTVSPost2010Prop51ColorIndex
 90
      256
102
RTVSPost2010Prop51ColorRGB
 90
-16777216
102
RTVSPost2010PropOp51
 70
     0
102
RTVSPost2010Prop52
140
1.0
102
RTVSPost2010PropOp52
 70
     0
102
RTVSPost2010Prop53
 90
        2
102
RTVSPost2010PropOp53
 70
     1
102
RTVSPost2010Prop54
  1
strokes_ogs.tif
102
RTVSPost2010PropOp54
 70
     1
102
RTVSPost2010Prop55
280
     0
102
RTVSPost2010PropOp55
 70
     1
102
RTVSPost2010Prop56
140
1.0
102
RTVSPost2010PropOp56
 70
     1
102
RTVSPost2010Prop57
140
1.0
102
RTVSPost2010PropOp57
 70
     1
  0
XRECORD
  5
337
102
{ACAD_REACTORS
330
336
102
}
330
336
100
AcDbXrecord
280
     1
102
RTVSPropertyOp0
 70
     1
102
RTVSPropertyOp1
 70
     1
102
RTVSPropertyOp2
 70
     1
102
RTVSPropertyOp3
 70
     1
102
RTVSPropertyOp4
 70
     1
102
RTVSPropertyOp5
 70
     1
102
RTVSPropertyOp6
 70
     1
102
RTVSPropertyOp7
 70
     1
102
RTVSPropertyOp8
 70
     1
102
RTVSPropertyOp9
 70
     1
102
RTVSPropertyOp10
 70
     1
102
RTVSPropertyOp11
 70
     1
102
RTVSPropertyOp12
 70
     1
102
RTVSPropertyOp13
 70
     1
102
RTVSPropertyOp14
 70
     1
102
RTVSPropertyOp15
 70
     1
102
RTVSPropertyOp16
 70
     1
102
RTVSPropertyOp17
 70
     1
102
RTVSPropertyOp18
 70
     1
102
RTVSPropertyOp19
 70
     1
102
RTVSPropertyOp20
 70
     1
102
RTVSPropertyOp21
 70
     1
102
RTVSPropertyOp22
 70
     1
102
RTVSPropertyOp23
 70
     1
102
RTVSPropertyOp24
 70
     1
102
RTVSPropertyOp25
 70
     1
102
RTVSPropertyOp26
 70
     1
102
RTVSPropertyOp27
 70
     1
102
RTVSPropertyOp28
 70
     1
102
RTVSPropertyOp29
 70
     1
102
RTVSPropertyOp30
 70
     1
102
RTVSPropertyOp31
 70
     1
102
RTVSPropertyOp32
 70
     1
102
RTVSPropertyOp33
 70
     1
102
RTVSPropertyOp34
 70
     1
102
RTVSPropertyOp35
 70
     1
102
RTVSPropertyOp36
 70
     1
102
RTVSPropertyOp37
 70
     1
102
RTVSPropertyOp38
 70
     1
102
RTVSPropertyOp39
 70
     1
102
RTVSPropertyOp40
 70
     1
102
RTVSPropertyOp41
 70
     1
102
RTVSPropertyOp42
 70
     1
102
RTVSPropertyOp43
 70
     1
102
RTVSPropertyOp44
 70
     1
102
RTVSPropertyOp45
 70
     1
102
RTVSPropertyOp46
 70
     1
102
RTVSPropertyOp47
 70
     1
102
RTVSPropertyOp48
 70
     1
102
RTVSPropertyOp49
 70
     1
102
RTVSPropertyOp50
 70
     1
102
RTVSPropertyOp51
 70
     0
102
RTVSPropertyOp52
 70
     0
102
RTVSPropertyOp53
 70
     1
102
RTVSPropertyOp54
 70
     1
102
RTVSPropertyOp55
 70
     1
102
RTVSPropertyOp56
 70
     1
102
RTVSPropertyOp57
 70
     1
102
RTVSPost2010Prop28
280
     0
102
RTVSPost2010PropOp28
 70
     1
102
RTVSPost2010Prop29
280
     1
102
RTVSPost2010PropOp29
 70
     1
102
RTVSPost2010Prop30
280
     1
102
RTVSPost2010PropOp30
 70
     1
102
RTVSPost2010Prop31
280
     0
102
RTVSPost2010PropOp31
 70
     1
102
RTVSPost2010Prop32
280
     0
102
RTVSPost2010PropOp32
 70
     1
102
RTVSPost2010Prop33
280
     0
102
RTVSPost2010PropOp33
 70
     1
102
RTVSPost2010Prop34
280
     0
102
RTVSPost2010PropOp34
 70
     1
102
RTVSPost2010Prop35
280
     0
102
RTVSPost2010PropOp35
 70
     1
102
RTVSPost2010Prop36
280
     0
102
RTVSPost2010PropOp36
 70
     1
102
RTVSPost2010Prop37
 90
       50
102
RTVSPost2010PropOp37
 70
     1
102
RTVSPost2010Prop38
140
0.0
102
RTVSPost2010PropOp38
 70
     1
102
RTVSPost2010Prop39
140
1.0
102
RTVSPost2010PropOp39
 70
     1
102
RTVSPost2010Prop40
 90
        0
102
RTVSPost2010PropOp40
 70
     1
102
RTVSPost2010Prop41ColorIndex
 90
       18
102
RTVSPost2010Prop41ColorRGB
 90
        0
102
RTVSPost2010PropOp41
 70
     1
102
RTVSPost2010Prop42
 90
       50
102
RTVSPost2010PropOp42
 70
     1
102
RTVSPost2010Prop43
 90
        3
102
RTVSPost2010PropOp43
 70
     1
102
RTVSPost2010Prop44ColorIndex
 90
        5
102
RTVSPost2010Prop44ColorRGB
 90
      255
102
RTVSPost2010PropOp44
 70
     1
102
RTVSPost2010Prop45
280
     0
102
RTVSPost2010PropOp45
 70
     1
102
RTVSPost2010Prop46
 90
       50
102
RTVSPost2010PropOp46
 70
     1
102
RTVSPost2010Prop47
 90
       50
102
RTVSPost2010PropOp47
 70
     1
102
RTVSPost2010Prop48
 90
       50
102
RTVSPost2010PropOp48
 70
     1
102
RTVSPost2010Prop49
280
     0
102
RTVSPost2010PropOp49
 70
     1
102
RTVSPost2010Prop50
 90
       50
102
RTVSPost2010PropOp50
 70
     1
102
RTVSPost2010Prop51ColorIndex
 90
      256
102
RTVSPost2010Prop51ColorRGB
 90
-16777216
102
RTVSPost2010PropOp51
 70
     0
102
RTVSPost2010Prop52
140
1.0
102
RTVSPost2010PropOp52
 70
     0
102
RTVSPost2010Prop53
 90
        2
102
RTVSPost2010PropOp53
 70
     1
102
RTVSPost2010Prop54
  1
strokes_ogs.tif
102
RTVSPost2010PropOp54
 70
     1
102
RTVSPost2010Prop55
280
     0
102
RTVSPost2010PropOp55
 70
     1
102
RTVSPost2010Prop56
140
1.0
102
RTVSPost2010PropOp56
 70
     1
102
RTVSPost2010Prop57
140
1.0
102
RTVSPost2010PropOp57
 70
     1
  0
XRECORD
  5
33F
102
{ACAD_REACTORS
330
33E
102
}
330
33E
100
AcDbXrecord
280
     1
102
RTVSPropertyOp0
 70
     1
102
RTVSPropertyOp1
 70
     1
102
RTVSPropertyOp2
 70
     1
102
RTVSPropertyOp3
 70
     1
102
RTVSPropertyOp4
 70
     1
102
RTVSPropertyOp5
 70
     1
102
RTVSPropertyOp6
 70
     1
102
RTVSPropertyOp7
 70
     1
102
RTVSPropertyOp8
 70
     1
102
RTVSPropertyOp9
 70
     1
102
RTVSPropertyOp10
 70
     1
102
RTVSPropertyOp11
 70
     1
102
RTVSPropertyOp12
 70
     1
102
RTVSPropertyOp13
 70
     1
102
RTVSPropertyOp14
 70
     1
102
RTVSPropertyOp15
 70
     1
102
RTVSPropertyOp16
 70
     1
102
RTVSPropertyOp17
 70
     1
102
RTVSPropertyOp18
 70
     1
102
RTVSPropertyOp19
 70
     1
102
RTVSPropertyOp20
 70
     1
102
RTVSPropertyOp21
 70
     1
102
RTVSPropertyOp22
 70
     1
102
RTVSPropertyOp23
 70
     1
102
RTVSPropertyOp24
 70
     1
102
RTVSPropertyOp25
 70
     1
102
RTVSPropertyOp26
 70
     1
102
RTVSPropertyOp27
 70
     1
102
RTVSPropertyOp28
 70
     1
102
RTVSPropertyOp29
 70
     1
102
RTVSPropertyOp30
 70
     1
102
RTVSPropertyOp31
 70
     1
102
RTVSPropertyOp32
 70
     1
102
RTVSPropertyOp33
 70
     1
102
RTVSPropertyOp34
 70
     1
102
RTVSPropertyOp35
 70
     1
102
RTVSPropertyOp36
 70
     1
102
RTVSPropertyOp37
 70
     1
102
RTVSPropertyOp38
 70
     1
102
RTVSPropertyOp39
 70
     1
102
RTVSPropertyOp40
 70
     1
102
RTVSPropertyOp41
 70
     1
102
RTVSPropertyOp42
 70
     1
102
RTVSPropertyOp43
 70
     1
102
RTVSPropertyOp44
 70
     1
102
RTVSPropertyOp45
 70
     1
102
RTVSPropertyOp46
 70
     1
102
RTVSPropertyOp47
 70
     1
102
RTVSPropertyOp48
 70
     1
102
RTVSPropertyOp49
 70
     1
102
RTVSPropertyOp50
 70
     1
102
RTVSPropertyOp51
 70
     0
102
RTVSPropertyOp52
 70
     0
102
RTVSPropertyOp53
 70
     1
102
RTVSPropertyOp54
 70
     1
102
RTVSPropertyOp55
 70
     1
102
RTVSPropertyOp56
 70
     1
102
RTVSPropertyOp57
 70
     1
102
RTVSPost2010Prop28
280
     0
102
RTVSPost2010PropOp28
 70
     1
102
RTVSPost2010Prop29
280
     1
102
RTVSPost2010PropOp29
 70
     1
102
RTVSPost2010Prop30
280
     1
102
RTVSPost2010PropOp30
 70
     1
102
RTVSPost2010Prop31
280
     0
102
RTVSPost2010PropOp31
 70
     1
102
RTVSPost2010Prop32
280
     0
102
RTVSPost2010PropOp32
 70
     1
102
RTVSPost2010Prop33
280
     0
102
RTVSPost2010PropOp33
 70
     1
102
RTVSPost2010Prop34
280
     0
102
RTVSPost2010PropOp34
 70
     1
102
RTVSPost2010Prop35
280
     0
102
RTVSPost2010PropOp35
 70
     1
102
RTVSPost2010Prop36
280
     0
102
RTVSPost2010PropOp36
 70
     1
102
RTVSPost2010Prop37
 90
       50
102
RTVSPost2010PropOp37
 70
     1
102
RTVSPost2010Prop38
140
0.0
102
RTVSPost2010PropOp38
 70
     1
102
RTVSPost2010Prop39
140
1.0
102
RTVSPost2010PropOp39
 70
     1
102
RTVSPost2010Prop40
 90
        0
102
RTVSPost2010PropOp40
 70
     1
102
RTVSPost2010Prop41ColorIndex
 90
       18
102
RTVSPost2010Prop41ColorRGB
 90
        0
102
RTVSPost2010PropOp41
 70
     1
102
RTVSPost2010Prop42
 90
       50
102
RTVSPost2010PropOp42
 70
     1
102
RTVSPost2010Prop43
 90
        3
102
RTVSPost2010PropOp43
 70
     1
102
RTVSPost2010Prop44ColorIndex
 90
        5
102
RTVSPost2010Prop44ColorRGB
 90
      255
102
RTVSPost2010PropOp44
 70
     1
102
RTVSPost2010Prop45
280
     0
102
RTVSPost2010PropOp45
 70
     1
102
RTVSPost2010Prop46
 90
       50
102
RTVSPost2010PropOp46
 70
     1
102
RTVSPost2010Prop47
 90
       50
102
RTVSPost2010PropOp47
 70
     1
102
RTVSPost2010Prop48
 90
       50
102
RTVSPost2010PropOp48
 70
     1
102
RTVSPost2010Prop49
280
     0
102
RTVSPost2010PropOp49
 70
     1
102
RTVSPost2010Prop50
 90
       50
102
RTVSPost2010PropOp50
 70
     1
102
RTVSPost2010Prop51ColorIndex
 90
      256
102
RTVSPost2010Prop51ColorRGB
 90
-16777216
102
RTVSPost2010PropOp51
 70
     0
102
RTVSPost2010Prop52
140
1.0
102
RTVSPost2010PropOp52
 70
     0
102
RTVSPost2010Prop53
 90
        2
102
RTVSPost2010PropOp53
 70
     1
102
RTVSPost2010Prop54
  1
strokes_ogs.tif
102
RTVSPost2010PropOp54
 70
     1
102
RTVSPost2010Prop55
280
     0
102
RTVSPost2010PropOp55
 70
     1
102
RTVSPost2010Prop56
140
1.0
102
RTVSPost2010PropOp56
 70
     1
102
RTVSPost2010Prop57
140
1.0
102
RTVSPost2010PropOp57
 70
     1
  0
XRECORD
  5
347
102
{ACAD_REACTORS
330
346
102
}
330
346
100
AcDbXrecord
280
     1
102
RTVSPropertyOp0
 70
     1
102
RTVSPropertyOp1
 70
     1
102
RTVSPropertyOp2
 70
     1
102
RTVSPropertyOp3
 70
     1
102
RTVSPropertyOp4
 70
     1
102
RTVSPropertyOp5
 70
     1
102
RTVSPropertyOp6
 70
     1
102
RTVSPropertyOp7
 70
     1
102
RTVSPropertyOp8
 70
     1
102
RTVSPropertyOp9
 70
     1
102
RTVSPropertyOp10
 70
     1
102
RTVSPropertyOp11
 70
     1
102
RTVSPropertyOp12
 70
     1
102
RTVSPropertyOp13
 70
     1
102
RTVSPropertyOp14
 70
     1
102
RTVSPropertyOp15
 70
     1
102
RTVSPropertyOp16
 70
     1
102
RTVSPropertyOp17
 70
     1
102
RTVSPropertyOp18
 70
     1
102
RTVSPropertyOp19
 70
     1
102
RTVSPropertyOp20
 70
     1
102
RTVSPropertyOp21
 70
     1
102
RTVSPropertyOp22
 70
     1
102
RTVSPropertyOp23
 70
     1
102
RTVSPropertyOp24
 70
     1
102
RTVSPropertyOp25
 70
     1
102
RTVSPropertyOp26
 70
     1
102
RTVSPropertyOp27
 70
     1
102
RTVSPropertyOp28
 70
     1
102
RTVSPropertyOp29
 70
     1
102
RTVSPropertyOp30
 70
     1
102
RTVSPropertyOp31
 70
     1
102
RTVSPropertyOp32
 70
     1
102
RTVSPropertyOp33
 70
     1
102
RTVSPropertyOp34
 70
     1
102
RTVSPropertyOp35
 70
     1
102
RTVSPropertyOp36
 70
     1
102
RTVSPropertyOp37
 70
     1
102
RTVSPropertyOp38
 70
     1
102
RTVSPropertyOp39
 70
     1
102
RTVSPropertyOp40
 70
     1
102
RTVSPropertyOp41
 70
     1
102
RTVSPropertyOp42
 70
     1
102
RTVSPropertyOp43
 70
     1
102
RTVSPropertyOp44
 70
     1
102
RTVSPropertyOp45
 70
     1
102
RTVSPropertyOp46
 70
     1
102
RTVSPropertyOp47
 70
     1
102
RTVSPropertyOp48
 70
     1
102
RTVSPropertyOp49
 70
     1
102
RTVSPropertyOp50
 70
     1
102
RTVSPropertyOp51
 70
     0
102
RTVSPropertyOp52
 70
     0
102
RTVSPropertyOp53
 70
     1
102
RTVSPropertyOp54
 70
     1
102
RTVSPropertyOp55
 70
     1
102
RTVSPropertyOp56
 70
     1
102
RTVSPropertyOp57
 70
     1
102
RTVSPost2010Prop28
280
     0
102
RTVSPost2010PropOp28
 70
     1
102
RTVSPost2010Prop29
280
     1
102
RTVSPost2010PropOp29
 70
     1
102
RTVSPost2010Prop30
280
     1
102
RTVSPost2010PropOp30
 70
     1
102
RTVSPost2010Prop31
280
     0
102
RTVSPost2010PropOp31
 70
     1
102
RTVSPost2010Prop32
280
     0
102
RTVSPost2010PropOp32
 70
     1
102
RTVSPost2010Prop33
280
     0
102
RTVSPost2010PropOp33
 70
     1
102
RTVSPost2010Prop34
280
     0
102
RTVSPost2010PropOp34
 70
     1
102
RTVSPost2010Prop35
280
     0
102
RTVSPost2010PropOp35
 70
     1
102
RTVSPost2010Prop36
280
     0
102
RTVSPost2010PropOp36
 70
     1
102
RTVSPost2010Prop37
 90
       50
102
RTVSPost2010PropOp37
 70
     1
102
RTVSPost2010Prop38
140
0.0
102
RTVSPost2010PropOp38
 70
     1
102
RTVSPost2010Prop39
140
1.0
102
RTVSPost2010PropOp39
 70
     1
102
RTVSPost2010Prop40
 90
        0
102
RTVSPost2010PropOp40
 70
     1
102
RTVSPost2010Prop41ColorIndex
 90
       18
102
RTVSPost2010Prop41ColorRGB
 90
        0
102
RTVSPost2010PropOp41
 70
     1
102
RTVSPost2010Prop42
 90
       50
102
RTVSPost2010PropOp42
 70
     1
102
RTVSPost2010Prop43
 90
        3
102
RTVSPost2010PropOp43
 70
     1
102
RTVSPost2010Prop44ColorIndex
 90
        5
102
RTVSPost2010Prop44ColorRGB
 90
      255
102
RTVSPost2010PropOp44
 70
     1
102
RTVSPost2010Prop45
280
     0
102
RTVSPost2010PropOp45
 70
     1
102
RTVSPost2010Prop46
 90
       50
102
RTVSPost2010PropOp46
 70
     1
102
RTVSPost2010Prop47
 90
       50
102
RTVSPost2010PropOp47
 70
     1
102
RTVSPost2010Prop48
 90
       50
102
RTVSPost2010PropOp48
 70
     1
102
RTVSPost2010Prop49
280
     0
102
RTVSPost2010PropOp49
 70
     1
102
RTVSPost2010Prop50
 90
       50
102
RTVSPost2010PropOp50
 70
     1
102
RTVSPost2010Prop51ColorIndex
 90
      256
102
RTVSPost2010Prop51ColorRGB
 90
-16777216
102
RTVSPost2010PropOp51
 70
     0
102
RTVSPost2010Prop52
140
1.0
102
RTVSPost2010PropOp52
 70
     0
102
RTVSPost2010Prop53
 90
        2
102
RTVSPost2010PropOp53
 70
     1
102
RTVSPost2010Prop54
  1
strokes_ogs.tif
102
RTVSPost2010PropOp54
 70
     1
102
RTVSPost2010Prop55
280
     0
102
RTVSPost2010PropOp55
 70
     1
102
RTVSPost2010Prop56
140
1.0
102
RTVSPost2010PropOp56
 70
     1
102
RTVSPost2010Prop57
140
1.0
102
RTVSPost2010PropOp57
 70
     1
  0
XRECORD
  5
33B
102
{ACAD_REACTORS
330
33A
102
}
330
33A
100
AcDbXrecord
280
     1
102
RTVSPropertyOp0
 70
     1
102
RTVSPropertyOp1
 70
     1
102
RTVSPropertyOp2
 70
     1
102
RTVSPropertyOp3
 70
     1
102
RTVSPropertyOp4
 70
     1
102
RTVSPropertyOp5
 70
     1
102
RTVSPropertyOp6
 70
     1
102
RTVSPropertyOp7
 70
     1
102
RTVSPropertyOp8
 70
     1
102
RTVSPropertyOp9
 70
     1
102
RTVSPropertyOp10
 70
     1
102
RTVSPropertyOp11
 70
     1
102
RTVSPropertyOp12
 70
     1
102
RTVSPropertyOp13
 70
     1
102
RTVSPropertyOp14
 70
     1
102
RTVSPropertyOp15
 70
     1
102
RTVSPropertyOp16
 70
     1
102
RTVSPropertyOp17
 70
     1
102
RTVSPropertyOp18
 70
     1
102
RTVSPropertyOp19
 70
     1
102
RTVSPropertyOp20
 70
     1
102
RTVSPropertyOp21
 70
     1
102
RTVSPropertyOp22
 70
     1
102
RTVSPropertyOp23
 70
     1
102
RTVSPropertyOp24
 70
     1
102
RTVSPropertyOp25
 70
     1
102
RTVSPropertyOp26
 70
     1
102
RTVSPropertyOp27
 70
     1
102
RTVSPropertyOp28
 70
     1
102
RTVSPropertyOp29
 70
     1
102
RTVSPropertyOp30
 70
     1
102
RTVSPropertyOp31
 70
     1
102
RTVSPropertyOp32
 70
     1
102
RTVSPropertyOp33
 70
     1
102
RTVSPropertyOp34
 70
     1
102
RTVSPropertyOp35
 70
     1
102
RTVSPropertyOp36
 70
     1
102
RTVSPropertyOp37
 70
     1
102
RTVSPropertyOp38
 70
     1
102
RTVSPropertyOp39
 70
     1
102
RTVSPropertyOp40
 70
     1
102
RTVSPropertyOp41
 70
     1
102
RTVSPropertyOp42
 70
     1
102
RTVSPropertyOp43
 70
     1
102
RTVSPropertyOp44
 70
     1
102
RTVSPropertyOp45
 70
     1
102
RTVSPropertyOp46
 70
     1
102
RTVSPropertyOp47
 70
     1
102
RTVSPropertyOp48
 70
     1
102
RTVSPropertyOp49
 70
     1
102
RTVSPropertyOp50
 70
     1
102
RTVSPropertyOp51
 70
     0
102
RTVSPropertyOp52
 70
     0
102
RTVSPropertyOp53
 70
     1
102
RTVSPropertyOp54
 70
     1
102
RTVSPropertyOp55
 70
     1
102
RTVSPropertyOp56
 70
     1
102
RTVSPropertyOp57
 70
     1
102
RTVSPost2010Prop28
280
     0
102
RTVSPost2010PropOp28
 70
     1
102
RTVSPost2010Prop29
280
     1
102
RTVSPost2010PropOp29
 70
     1
102
RTVSPost2010Prop30
280
     1
102
RTVSPost2010PropOp30
 70
     1
102
RTVSPost2010Prop31
280
     0
102
RTVSPost2010PropOp31
 70
     1
102
RTVSPost2010Prop32
280
     0
102
RTVSPost2010PropOp32
 70
     1
102
RTVSPost2010Prop33
280
     0
102
RTVSPost2010PropOp33
 70
     1
102
RTVSPost2010Prop34
280
     0
102
RTVSPost2010PropOp34
 70
     1
102
RTVSPost2010Prop35
280
     0
102
RTVSPost2010PropOp35
 70
     1
102
RTVSPost2010Prop36
280
     0
102
RTVSPost2010PropOp36
 70
     1
102
RTVSPost2010Prop37
 90
       50
102
RTVSPost2010PropOp37
 70
     1
102
RTVSPost2010Prop38
140
0.0
102
RTVSPost2010PropOp38
 70
     1
102
RTVSPost2010Prop39
140
1.0
102
RTVSPost2010PropOp39
 70
     1
102
RTVSPost2010Prop40
 90
        0
102
RTVSPost2010PropOp40
 70
     1
102
RTVSPost2010Prop41ColorIndex
 90
       18
102
RTVSPost2010Prop41ColorRGB
 90
        0
102
RTVSPost2010PropOp41
 70
     1
102
RTVSPost2010Prop42
 90
       50
102
RTVSPost2010PropOp42
 70
     1
102
RTVSPost2010Prop43
 90
        3
102
RTVSPost2010PropOp43
 70
     1
102
RTVSPost2010Prop44ColorIndex
 90
        5
102
RTVSPost2010Prop44ColorRGB
 90
      255
102
RTVSPost2010PropOp44
 70
     1
102
RTVSPost2010Prop45
280
     0
102
RTVSPost2010PropOp45
 70
     1
102
RTVSPost2010Prop46
 90
       50
102
RTVSPost2010PropOp46
 70
     1
102
RTVSPost2010Prop47
 90
       50
102
RTVSPost2010PropOp47
 70
     1
102
RTVSPost2010Prop48
 90
       50
102
RTVSPost2010PropOp48
 70
     1
102
RTVSPost2010Prop49
280
     0
102
RTVSPost2010PropOp49
 70
     1
102
RTVSPost2010Prop50
 90
       50
102
RTVSPost2010PropOp50
 70
     1
102
RTVSPost2010Prop51ColorIndex
 90
      256
102
RTVSPost2010Prop51ColorRGB
 90
-16777216
102
RTVSPost2010PropOp51
 70
     0
102
RTVSPost2010Prop52
140
1.0
102
RTVSPost2010PropOp52
 70
     0
102
RTVSPost2010Prop53
 90
        2
102
RTVSPost2010PropOp53
 70
     1
102
RTVSPost2010Prop54
  1
strokes_ogs.tif
102
RTVSPost2010PropOp54
 70
     1
102
RTVSPost2010Prop55
280
     0
102
RTVSPost2010PropOp55
 70
     1
102
RTVSPost2010Prop56
140
1.0
102
RTVSPost2010PropOp56
 70
     1
102
RTVSPost2010Prop57
140
1.0
102
RTVSPost2010PropOp57
 70
     1
  0
XRECORD
  5
33D
102
{ACAD_REACTORS
330
33C
102
}
330
33C
100
AcDbXrecord
280
     1
102
RTVSPropertyOp0
 70
     1
102
RTVSPropertyOp1
 70
     1
102
RTVSPropertyOp2
 70
     1
102
RTVSPropertyOp3
 70
     1
102
RTVSPropertyOp4
 70
     1
102
RTVSPropertyOp5
 70
     1
102
RTVSPropertyOp6
 70
     1
102
RTVSPropertyOp7
 70
     1
102
RTVSPropertyOp8
 70
     1
102
RTVSPropertyOp9
 70
     1
102
RTVSPropertyOp10
 70
     1
102
RTVSPropertyOp11
 70
     1
102
RTVSPropertyOp12
 70
     1
102
RTVSPropertyOp13
 70
     1
102
RTVSPropertyOp14
 70
     1
102
RTVSPropertyOp15
 70
     1
102
RTVSPropertyOp16
 70
     1
102
RTVSPropertyOp17
 70
     1
102
RTVSPropertyOp18
 70
     1
102
RTVSPropertyOp19
 70
     1
102
RTVSPropertyOp20
 70
     1
102
RTVSPropertyOp21
 70
     1
102
RTVSPropertyOp22
 70
     1
102
RTVSPropertyOp23
 70
     1
102
RTVSPropertyOp24
 70
     1
102
RTVSPropertyOp25
 70
     1
102
RTVSPropertyOp26
 70
     1
102
RTVSPropertyOp27
 70
     1
102
RTVSPropertyOp28
 70
     1
102
RTVSPropertyOp29
 70
     1
102
RTVSPropertyOp30
 70
     1
102
RTVSPropertyOp31
 70
     1
102
RTVSPropertyOp32
 70
     1
102
RTVSPropertyOp33
 70
     1
102
RTVSPropertyOp34
 70
     1
102
RTVSPropertyOp35
 70
     1
102
RTVSPropertyOp36
 70
     1
102
RTVSPropertyOp37
 70
     1
102
RTVSPropertyOp38
 70
     1
102
RTVSPropertyOp39
 70
     1
102
RTVSPropertyOp40
 70
     1
102
RTVSPropertyOp41
 70
     1
102
RTVSPropertyOp42
 70
     1
102
RTVSPropertyOp43
 70
     1
102
RTVSPropertyOp44
 70
     1
102
RTVSPropertyOp45
 70
     1
102
RTVSPropertyOp46
 70
     1
102
RTVSPropertyOp47
 70
     1
102
RTVSPropertyOp48
 70
     1
102
RTVSPropertyOp49
 70
     1
102
RTVSPropertyOp50
 70
     1
102
RTVSPropertyOp51
 70
     0
102
RTVSPropertyOp52
 70
     0
102
RTVSPropertyOp53
 70
     1
102
RTVSPropertyOp54
 70
     1
102
RTVSPropertyOp55
 70
     1
102
RTVSPropertyOp56
 70
     1
102
RTVSPropertyOp57
 70
     1
102
RTVSPost2010Prop28
280
     0
102
RTVSPost2010PropOp28
 70
     1
102
RTVSPost2010Prop29
280
     1
102
RTVSPost2010PropOp29
 70
     1
102
RTVSPost2010Prop30
280
     1
102
RTVSPost2010PropOp30
 70
     1
102
RTVSPost2010Prop31
280
     0
102
RTVSPost2010PropOp31
 70
     1
102
RTVSPost2010Prop32
280
     0
102
RTVSPost2010PropOp32
 70
     1
102
RTVSPost2010Prop33
280
     0
102
RTVSPost2010PropOp33
 70
     1
102
RTVSPost2010Prop34
280
     0
102
RTVSPost2010PropOp34
 70
     1
102
RTVSPost2010Prop35
280
     0
102
RTVSPost2010PropOp35
 70
     1
102
RTVSPost2010Prop36
280
     0
102
RTVSPost2010PropOp36
 70
     1
102
RTVSPost2010Prop37
 90
       50
102
RTVSPost2010PropOp37
 70
     1
102
RTVSPost2010Prop38
140
0.0
102
RTVSPost2010PropOp38
 70
     1
102
RTVSPost2010Prop39
140
1.0
102
RTVSPost2010PropOp39
 70
     1
102
RTVSPost2010Prop40
 90
        0
102
RTVSPost2010PropOp40
 70
     1
102
RTVSPost2010Prop41ColorIndex
 90
       18
102
RTVSPost2010Prop41ColorRGB
 90
        0
102
RTVSPost2010PropOp41
 70
     1
102
RTVSPost2010Prop42
 90
       50
102
RTVSPost2010PropOp42
 70
     1
102
RTVSPost2010Prop43
 90
        3
102
RTVSPost2010PropOp43
 70
     1
102
RTVSPost2010Prop44ColorIndex
 90
        5
102
RTVSPost2010Prop44ColorRGB
 90
      255
102
RTVSPost2010PropOp44
 70
     1
102
RTVSPost2010Prop45
280
     0
102
RTVSPost2010PropOp45
 70
     1
102
RTVSPost2010Prop46
 90
       50
102
RTVSPost2010PropOp46
 70
     1
102
RTVSPost2010Prop47
 90
       50
102
RTVSPost2010PropOp47
 70
     1
102
RTVSPost2010Prop48
 90
       50
102
RTVSPost2010PropOp48
 70
     1
102
RTVSPost2010Prop49
280
     0
102
RTVSPost2010PropOp49
 70
     1
102
RTVSPost2010Prop50
 90
       50
102
RTVSPost2010PropOp50
 70
     1
102
RTVSPost2010Prop51ColorIndex
 90
      256
102
RTVSPost2010Prop51ColorRGB
 90
-16777216
102
RTVSPost2010PropOp51
 70
     0
102
RTVSPost2010Prop52
140
1.0
102
RTVSPost2010PropOp52
 70
     0
102
RTVSPost2010Prop53
 90
        2
102
RTVSPost2010PropOp53
 70
     1
102
RTVSPost2010Prop54
  1
strokes_ogs.tif
102
RTVSPost2010PropOp54
 70
     1
102
RTVSPost2010Prop55
280
     0
102
RTVSPost2010PropOp55
 70
     1
102
RTVSPost2010Prop56
140
1.0
102
RTVSPost2010PropOp56
 70
     1
102
RTVSPost2010Prop57
140
1.0
102
RTVSPost2010PropOp57
 70
     1
  0
XRECORD
  5
34D
102
{ACAD_REACTORS
330
34C
102
}
330
34C
100
AcDbXrecord
280
     1
102
RTVSPropertyOp0
 70
     0
102
RTVSPropertyOp1
 70
     0
102
RTVSPropertyOp2
 70
     0
102
RTVSPropertyOp3
 70
     0
102
RTVSPropertyOp4
 70
     0
102
RTVSPropertyOp5
 70
     0
102
RTVSPropertyOp6
 70
     0
102
RTVSPropertyOp7
 70
     0
102
RTVSPropertyOp8
 70
     0
102
RTVSPropertyOp9
 70
     0
102
RTVSPropertyOp10
 70
     0
102
RTVSPropertyOp11
 70
     0
102
RTVSPropertyOp12
 70
     0
102
RTVSPropertyOp13
 70
     0
102
RTVSPropertyOp14
 70
     2
102
RTVSPropertyOp15
 70
     0
102
RTVSPropertyOp16
 70
     0
102
RTVSPropertyOp17
 70
     0
102
RTVSPropertyOp18
 70
     0
102
RTVSPropertyOp19
 70
     0
102
RTVSPropertyOp20
 70
     0
102
RTVSPropertyOp21
 70
     0
102
RTVSPropertyOp22
 70
     0
102
RTVSPropertyOp23
 70
     0
102
RTVSPropertyOp24
 70
     0
102
RTVSPropertyOp25
 70
     0
102
RTVSPropertyOp26
 70
     0
102
RTVSPropertyOp27
 70
     0
102
RTVSPropertyOp28
 70
     0
102
RTVSPropertyOp29
 70
     0
102
RTVSPropertyOp30
 70
     0
102
RTVSPropertyOp31
 70
     0
102
RTVSPropertyOp32
 70
     0
102
RTVSPropertyOp33
 70
     0
102
RTVSPropertyOp34
 70
     0
102
RTVSPropertyOp35
 70
     0
102
RTVSPropertyOp36
 70
     0
102
RTVSPropertyOp37
 70
     0
102
RTVSPropertyOp38
 70
     0
102
RTVSPropertyOp39
 70
     0
102
RTVSPropertyOp40
 70
     0
102
RTVSPropertyOp41
 70
     0
102
RTVSPropertyOp42
 70
     0
102
RTVSPropertyOp43
 70
     0
102
RTVSPropertyOp44
 70
     0
102
RTVSPropertyOp45
 70
     0
102
RTVSPropertyOp46
 70
     0
102
RTVSPropertyOp47
 70
     0
102
RTVSPropertyOp48
 70
     0
102
RTVSPropertyOp49
 70
     0
102
RTVSPropertyOp50
 70
     0
102
RTVSPropertyOp51
 70
     0
102
RTVSPropertyOp52
 70
     0
102
RTVSPropertyOp53
 70
     0
102
RTVSPropertyOp54
 70
     0
102
RTVSPropertyOp55
 70
     0
102
RTVSPropertyOp56
 70
     0
102
RTVSPropertyOp57
 70
     0
102
RTVSPost2010Prop28
280
     0
102
RTVSPost2010PropOp28
 70
     0
102
RTVSPost2010Prop29
280
     1
102
RTVSPost2010PropOp29
 70
     0
102
RTVSPost2010Prop30
280
     1
102
RTVSPost2010PropOp30
 70
     0
102
RTVSPost2010Prop31
280
     0
102
RTVSPost2010PropOp31
 70
     0
102
RTVSPost2010Prop32
280
     0
102
RTVSPost2010PropOp32
 70
     0
102
RTVSPost2010Prop33
280
     0
102
RTVSPost2010PropOp33
 70
     0
102
RTVSPost2010Prop34
280
     0
102
RTVSPost2010PropOp34
 70
     0
102
RTVSPost2010Prop35
280
     0
102
RTVSPost2010PropOp35
 70
     0
102
RTVSPost2010Prop36
280
     0
102
RTVSPost2010PropOp36
 70
     0
102
RTVSPost2010Prop37
 90
       50
102
RTVSPost2010PropOp37
 70
     0
102
RTVSPost2010Prop38
140
0.0
102
RTVSPost2010PropOp38
 70
     0
102
RTVSPost2010Prop39
140
1.0
102
RTVSPost2010PropOp39
 70
     0
102
RTVSPost2010Prop40
 90
        0
102
RTVSPost2010PropOp40
 70
     0
102
RTVSPost2010Prop41ColorIndex
 90
       18
102
RTVSPost2010Prop41ColorRGB
 90
        0
102
RTVSPost2010PropOp41
 70
     0
102
RTVSPost2010Prop42
 90
       50
102
RTVSPost2010PropOp42
 70
     0
102
RTVSPost2010Prop43
 90
        3
102
RTVSPost2010PropOp43
 70
     0
102
RTVSPost2010Prop44ColorIndex
 90
        5
102
RTVSPost2010Prop44ColorRGB
 90
      255
102
RTVSPost2010PropOp44
 70
     0
102
RTVSPost2010Prop45
280
     0
102
RTVSPost2010PropOp45
 70
     0
102
RTVSPost2010Prop46
 90
       50
102
RTVSPost2010PropOp46
 70
     0
102
RTVSPost2010Prop47
 90
       50
102
RTVSPost2010PropOp47
 70
     0
102
RTVSPost2010Prop48
 90
       50
102
RTVSPost2010PropOp48
 70
     0
102
RTVSPost2010Prop49
280
     0
102
RTVSPost2010PropOp49
 70
     0
102
RTVSPost2010Prop50
 90
       50
102
RTVSPost2010PropOp50
 70
     0
102
RTVSPost2010Prop51ColorIndex
 90
      256
102
RTVSPost2010Prop51ColorRGB
 90
-16777216
102
RTVSPost2010PropOp51
 70
     0
102
RTVSPost2010Prop52
140
1.0
102
RTVSPost2010PropOp52
 70
     0
102
RTVSPost2010Prop53
 90
        2
102
RTVSPost2010PropOp53
 70
     0
102
RTVSPost2010Prop54
  1
strokes_ogs.tif
102
RTVSPost2010PropOp54
 70
     0
102
RTVSPost2010Prop55
280
     0
102
RTVSPost2010PropOp55
 70
     0
102
RTVSPost2010Prop56
140
1.0
102
RTVSPost2010PropOp56
 70
     0
102
RTVSPost2010Prop57
140
1.0
102
RTVSPost2010PropOp57
 70
     0
  0
XRECORD
  5
345
102
{ACAD_REACTORS
330
344
102
}
330
344
100
AcDbXrecord
280
     1
102
RTVSPropertyOp0
 70
     1
102
RTVSPropertyOp1
 70
     1
102
RTVSPropertyOp2
 70
     1
102
RTVSPropertyOp3
 70
     1
102
RTVSPropertyOp4
 70
     1
102
RTVSPropertyOp5
 70
     1
102
RTVSPropertyOp6
 70
     1
102
RTVSPropertyOp7
 70
     1
102
RTVSPropertyOp8
 70
     1
102
RTVSPropertyOp9
 70
     1
102
RTVSPropertyOp10
 70
     1
102
RTVSPropertyOp11
 70
     1
102
RTVSPropertyOp12
 70
     1
102
RTVSPropertyOp13
 70
     1
102
RTVSPropertyOp14
 70
     1
102
RTVSPropertyOp15
 70
     1
102
RTVSPropertyOp16
 70
     1
102
RTVSPropertyOp17
 70
     1
102
RTVSPropertyOp18
 70
     1
102
RTVSPropertyOp19
 70
     1
102
RTVSPropertyOp20
 70
     1
102
RTVSPropertyOp21
 70
     1
102
RTVSPropertyOp22
 70
     1
102
RTVSPropertyOp23
 70
     1
102
RTVSPropertyOp24
 70
     1
102
RTVSPropertyOp25
 70
     1
102
RTVSPropertyOp26
 70
     1
102
RTVSPropertyOp27
 70
     1
102
RTVSPropertyOp28
 70
     1
102
RTVSPropertyOp29
 70
     1
102
RTVSPropertyOp30
 70
     1
102
RTVSPropertyOp31
 70
     1
102
RTVSPropertyOp32
 70
     1
102
RTVSPropertyOp33
 70
     1
102
RTVSPropertyOp34
 70
     1
102
RTVSPropertyOp35
 70
     1
102
RTVSPropertyOp36
 70
     1
102
RTVSPropertyOp37
 70
     1
102
RTVSPropertyOp38
 70
     1
102
RTVSPropertyOp39
 70
     1
102
RTVSPropertyOp40
 70
     1
102
RTVSPropertyOp41
 70
     1
102
RTVSPropertyOp42
 70
     1
102
RTVSPropertyOp43
 70
     1
102
RTVSPropertyOp44
 70
     1
102
RTVSPropertyOp45
 70
     1
102
RTVSPropertyOp46
 70
     1
102
RTVSPropertyOp47
 70
     1
102
RTVSPropertyOp48
 70
     1
102
RTVSPropertyOp49
 70
     1
102
RTVSPropertyOp50
 70
     1
102
RTVSPropertyOp51
 70
     0
102
RTVSPropertyOp52
 70
     0
102
RTVSPropertyOp53
 70
     1
102
RTVSPropertyOp54
 70
     1
102
RTVSPropertyOp55
 70
     1
102
RTVSPropertyOp56
 70
     1
102
RTVSPropertyOp57
 70
     1
102
RTVSPost2010Prop28
280
     0
102
RTVSPost2010PropOp28
 70
     1
102
RTVSPost2010Prop29
280
     1
102
RTVSPost2010PropOp29
 70
     1
102
RTVSPost2010Prop30
280
     1
102
RTVSPost2010PropOp30
 70
     1
102
RTVSPost2010Prop31
280
     0
102
RTVSPost2010PropOp31
 70
     1
102
RTVSPost2010Prop32
280
     0
102
RTVSPost2010PropOp32
 70
     1
102
RTVSPost2010Prop33
280
     0
102
RTVSPost2010PropOp33
 70
     1
102
RTVSPost2010Prop34
280
     0
102
RTVSPost2010PropOp34
 70
     1
102
RTVSPost2010Prop35
280
     0
102
RTVSPost2010PropOp35
 70
     1
102
RTVSPost2010Prop36
280
     0
102
RTVSPost2010PropOp36
 70
     1
102
RTVSPost2010Prop37
 90
       50
102
RTVSPost2010PropOp37
 70
     1
102
RTVSPost2010Prop38
140
0.0
102
RTVSPost2010PropOp38
 70
     1
102
RTVSPost2010Prop39
140
1.0
102
RTVSPost2010PropOp39
 70
     1
102
RTVSPost2010Prop40
 90
        0
102
RTVSPost2010PropOp40
 70
     1
102
RTVSPost2010Prop41ColorIndex
 90
       18
102
RTVSPost2010Prop41ColorRGB
 90
        0
102
RTVSPost2010PropOp41
 70
     1
102
RTVSPost2010Prop42
 90
       50
102
RTVSPost2010PropOp42
 70
     1
102
RTVSPost2010Prop43
 90
        3
102
RTVSPost2010PropOp43
 70
     1
102
RTVSPost2010Prop44ColorIndex
 90
        5
102
RTVSPost2010Prop44ColorRGB
 90
      255
102
RTVSPost2010PropOp44
 70
     1
102
RTVSPost2010Prop45
280
     0
102
RTVSPost2010PropOp45
 70
     1
102
RTVSPost2010Prop46
 90
       50
102
RTVSPost2010PropOp46
 70
     1
102
RTVSPost2010Prop47
 90
       50
102
RTVSPost2010PropOp47
 70
     1
102
RTVSPost2010Prop48
 90
       50
102
RTVSPost2010PropOp48
 70
     1
102
RTVSPost2010Prop49
280
     0
102
RTVSPost2010PropOp49
 70
     1
102
RTVSPost2010Prop50
 90
       50
102
RTVSPost2010PropOp50
 70
     1
102
RTVSPost2010Prop51ColorIndex
 90
      256
102
RTVSPost2010Prop51ColorRGB
 90
-16777216
102
RTVSPost2010PropOp51
 70
     0
102
RTVSPost2010Prop52
140
1.0
102
RTVSPost2010PropOp52
 70
     0
102
RTVSPost2010Prop53
 90
        2
102
RTVSPost2010PropOp53
 70
     1
102
RTVSPost2010Prop54
  1
strokes_ogs.tif
102
RTVSPost2010PropOp54
 70
     1
102
RTVSPost2010Prop55
280
     0
102
RTVSPost2010PropOp55
 70
     1
102
RTVSPost2010Prop56
140
1.0
102
RTVSPost2010PropOp56
 70
     1
102
RTVSPost2010Prop57
140
1.0
102
RTVSPost2010PropOp57
 70
     1
  0
XRECORD
  5
329
102
{ACAD_REACTORS
330
328
102
}
330
328
100
AcDbXrecord
280
     1
102
RTVSPropertyOp0
 70
     1
102
RTVSPropertyOp1
 70
     1
102
RTVSPropertyOp2
 70
     1
102
RTVSPropertyOp3
 70
     1
102
RTVSPropertyOp4
 70
     1
102
RTVSPropertyOp5
 70
     1
102
RTVSPropertyOp6
 70
     1
102
RTVSPropertyOp7
 70
     1
102
RTVSPropertyOp8
 70
     1
102
RTVSPropertyOp9
 70
     1
102
RTVSPropertyOp10
 70
     1
102
RTVSPropertyOp11
 70
     1
102
RTVSPropertyOp12
 70
     1
102
RTVSPropertyOp13
 70
     1
102
RTVSPropertyOp14
 70
     1
102
RTVSPropertyOp15
 70
     1
102
RTVSPropertyOp16
 70
     1
102
RTVSPropertyOp17
 70
     1
102
RTVSPropertyOp18
 70
     1
102
RTVSPropertyOp19
 70
     1
102
RTVSPropertyOp20
 70
     1
102
RTVSPropertyOp21
 70
     1
102
RTVSPropertyOp22
 70
     1
102
RTVSPropertyOp23
 70
     1
102
RTVSPropertyOp24
 70
     1
102
RTVSPropertyOp25
 70
     1
102
RTVSPropertyOp26
 70
     1
102
RTVSPropertyOp27
 70
     1
102
RTVSPropertyOp28
 70
     1
102
RTVSPropertyOp29
 70
     1
102
RTVSPropertyOp30
 70
     1
102
RTVSPropertyOp31
 70
     1
102
RTVSPropertyOp32
 70
     1
102
RTVSPropertyOp33
 70
     1
102
RTVSPropertyOp34
 70
     1
102
RTVSPropertyOp35
 70
     1
102
RTVSPropertyOp36
 70
     1
102
RTVSPropertyOp37
 70
     1
102
RTVSPropertyOp38
 70
     1
102
RTVSPropertyOp39
 70
     1
102
RTVSPropertyOp40
 70
     1
102
RTVSPropertyOp41
 70
     1
102
RTVSPropertyOp42
 70
     1
102
RTVSPropertyOp43
 70
     1
102
RTVSPropertyOp44
 70
     1
102
RTVSPropertyOp45
 70
     1
102
RTVSPropertyOp46
 70
     1
102
RTVSPropertyOp47
 70
     1
102
RTVSPropertyOp48
 70
     1
102
RTVSPropertyOp49
 70
     1
102
RTVSPropertyOp50
 70
     1
102
RTVSPropertyOp51
 70
     0
102
RTVSPropertyOp52
 70
     0
102
RTVSPropertyOp53
 70
     1
102
RTVSPropertyOp54
 70
     1
102
RTVSPropertyOp55
 70
     1
102
RTVSPropertyOp56
 70
     1
102
RTVSPropertyOp57
 70
     1
102
RTVSPost2010Prop28
280
     0
102
RTVSPost2010PropOp28
 70
     1
102
RTVSPost2010Prop29
280
     1
102
RTVSPost2010PropOp29
 70
     1
102
RTVSPost2010Prop30
280
     1
102
RTVSPost2010PropOp30
 70
     1
102
RTVSPost2010Prop31
280
     0
102
RTVSPost2010PropOp31
 70
     1
102
RTVSPost2010Prop32
280
     0
102
RTVSPost2010PropOp32
 70
     1
102
RTVSPost2010Prop33
280
     0
102
RTVSPost2010PropOp33
 70
     1
102
RTVSPost2010Prop34
280
     0
102
RTVSPost2010PropOp34
 70
     1
102
RTVSPost2010Prop35
280
     0
102
RTVSPost2010PropOp35
 70
     1
102
RTVSPost2010Prop36
280
     0
102
RTVSPost2010PropOp36
 70
     1
102
RTVSPost2010Prop37
 90
       50
102
RTVSPost2010PropOp37
 70
     1
102
RTVSPost2010Prop38
140
0.0
102
RTVSPost2010PropOp38
 70
     1
102
RTVSPost2010Prop39
140
1.0
102
RTVSPost2010PropOp39
 70
     1
102
RTVSPost2010Prop40
 90
        0
102
RTVSPost2010PropOp40
 70
     1
102
RTVSPost2010Prop41ColorIndex
 90
       18
102
RTVSPost2010Prop41ColorRGB
 90
        0
102
RTVSPost2010PropOp41
 70
     1
102
RTVSPost2010Prop42
 90
       50
102
RTVSPost2010PropOp42
 70
     1
102
RTVSPost2010Prop43
 90
        3
102
RTVSPost2010PropOp43
 70
     1
102
RTVSPost2010Prop44ColorIndex
 90
        5
102
RTVSPost2010Prop44ColorRGB
 90
      255
102
RTVSPost2010PropOp44
 70
     1
102
RTVSPost2010Prop45
280
     0
102
RTVSPost2010PropOp45
 70
     1
102
RTVSPost2010Prop46
 90
       50
102
RTVSPost2010PropOp46
 70
     1
102
RTVSPost2010Prop47
 90
       50
102
RTVSPost2010PropOp47
 70
     1
102
RTVSPost2010Prop48
 90
       50
102
RTVSPost2010PropOp48
 70
     1
102
RTVSPost2010Prop49
280
     0
102
RTVSPost2010PropOp49
 70
     1
102
RTVSPost2010Prop50
 90
       50
102
RTVSPost2010PropOp50
 70
     1
102
RTVSPost2010Prop51ColorIndex
 90
      256
102
RTVSPost2010Prop51ColorRGB
 90
-16777216
102
RTVSPost2010PropOp51
 70
     0
102
RTVSPost2010Prop52
140
1.0
102
RTVSPost2010PropOp52
 70
     0
102
RTVSPost2010Prop53
 90
        2
102
RTVSPost2010PropOp53
 70
     1
102
RTVSPost2010Prop54
  1
strokes_ogs.tif
102
RTVSPost2010PropOp54
 70
     1
102
RTVSPost2010Prop55
280
     0
102
RTVSPost2010PropOp55
 70
     1
102
RTVSPost2010Prop56
140
1.0
102
RTVSPost2010PropOp56
 70
     1
102
RTVSPost2010Prop57
140
1.0
102
RTVSPost2010PropOp57
 70
     1
  0
XRECORD
  5
32B
102
{ACAD_REACTORS
330
32A
102
}
330
32A
100
AcDbXrecord
280
     1
102
RTVSPropertyOp0
 70
     1
102
RTVSPropertyOp1
 70
     1
102
RTVSPropertyOp2
 70
     1
102
RTVSPropertyOp3
 70
     1
102
RTVSPropertyOp4
 70
     1
102
RTVSPropertyOp5
 70
     1
102
RTVSPropertyOp6
 70
     1
102
RTVSPropertyOp7
 70
     1
102
RTVSPropertyOp8
 70
     1
102
RTVSPropertyOp9
 70
     1
102
RTVSPropertyOp10
 70
     1
102
RTVSPropertyOp11
 70
     1
102
RTVSPropertyOp12
 70
     1
102
RTVSPropertyOp13
 70
     1
102
RTVSPropertyOp14
 70
     1
102
RTVSPropertyOp15
 70
     1
102
RTVSPropertyOp16
 70
     1
102
RTVSPropertyOp17
 70
     1
102
RTVSPropertyOp18
 70
     1
102
RTVSPropertyOp19
 70
     1
102
RTVSPropertyOp20
 70
     1
102
RTVSPropertyOp21
 70
     1
102
RTVSPropertyOp22
 70
     1
102
RTVSPropertyOp23
 70
     1
102
RTVSPropertyOp24
 70
     1
102
RTVSPropertyOp25
 70
     1
102
RTVSPropertyOp26
 70
     1
102
RTVSPropertyOp27
 70
     1
102
RTVSPropertyOp28
 70
     1
102
RTVSPropertyOp29
 70
     1
102
RTVSPropertyOp30
 70
     1
102
RTVSPropertyOp31
 70
     1
102
RTVSPropertyOp32
 70
     1
102
RTVSPropertyOp33
 70
     1
102
RTVSPropertyOp34
 70
     1
102
RTVSPropertyOp35
 70
     1
102
RTVSPropertyOp36
 70
     1
102
RTVSPropertyOp37
 70
     1
102
RTVSPropertyOp38
 70
     1
102
RTVSPropertyOp39
 70
     1
102
RTVSPropertyOp40
 70
     1
102
RTVSPropertyOp41
 70
     1
102
RTVSPropertyOp42
 70
     1
102
RTVSPropertyOp43
 70
     1
102
RTVSPropertyOp44
 70
     1
102
RTVSPropertyOp45
 70
     1
102
RTVSPropertyOp46
 70
     1
102
RTVSPropertyOp47
 70
     1
102
RTVSPropertyOp48
 70
     1
102
RTVSPropertyOp49
 70
     1
102
RTVSPropertyOp50
 70
     1
102
RTVSPropertyOp51
 70
     0
102
RTVSPropertyOp52
 70
     0
102
RTVSPropertyOp53
 70
     1
102
RTVSPropertyOp54
 70
     1
102
RTVSPropertyOp55
 70
     1
102
RTVSPropertyOp56
 70
     1
102
RTVSPropertyOp57
 70
     1
102
RTVSPost2010Prop28
280
     0
102
RTVSPost2010PropOp28
 70
     1
102
RTVSPost2010Prop29
280
     1
102
RTVSPost2010PropOp29
 70
     1
102
RTVSPost2010Prop30
280
     1
102
RTVSPost2010PropOp30
 70
     1
102
RTVSPost2010Prop31
280
     0
102
RTVSPost2010PropOp31
 70
     1
102
RTVSPost2010Prop32
280
     0
102
RTVSPost2010PropOp32
 70
     1
102
RTVSPost2010Prop33
280
     0
102
RTVSPost2010PropOp33
 70
     1
102
RTVSPost2010Prop34
280
     0
102
RTVSPost2010PropOp34
 70
     1
102
RTVSPost2010Prop35
280
     0
102
RTVSPost2010PropOp35
 70
     1
102
RTVSPost2010Prop36
280
     0
102
RTVSPost2010PropOp36
 70
     1
102
RTVSPost2010Prop37
 90
       50
102
RTVSPost2010PropOp37
 70
     1
102
RTVSPost2010Prop38
140
0.0
102
RTVSPost2010PropOp38
 70
     1
102
RTVSPost2010Prop39
140
1.0
102
RTVSPost2010PropOp39
 70
     1
102
RTVSPost2010Prop40
 90
        0
102
RTVSPost2010PropOp40
 70
     1
102
RTVSPost2010Prop41ColorIndex
 90
       18
102
RTVSPost2010Prop41ColorRGB
 90
        0
102
RTVSPost2010PropOp41
 70
     1
102
RTVSPost2010Prop42
 90
       50
102
RTVSPost2010PropOp42
 70
     1
102
RTVSPost2010Prop43
 90
        3
102
RTVSPost2010PropOp43
 70
     1
102
RTVSPost2010Prop44ColorIndex
 90
        5
102
RTVSPost2010Prop44ColorRGB
 90
      255
102
RTVSPost2010PropOp44
 70
     1
102
RTVSPost2010Prop45
280
     0
102
RTVSPost2010PropOp45
 70
     1
102
RTVSPost2010Prop46
 90
       50
102
RTVSPost2010PropOp46
 70
     1
102
RTVSPost2010Prop47
 90
       50
102
RTVSPost2010PropOp47
 70
     1
102
RTVSPost2010Prop48
 90
       50
102
RTVSPost2010PropOp48
 70
     1
102
RTVSPost2010Prop49
280
     0
102
RTVSPost2010PropOp49
 70
     1
102
RTVSPost2010Prop50
 90
       50
102
RTVSPost2010PropOp50
 70
     1
102
RTVSPost2010Prop51ColorIndex
 90
      256
102
RTVSPost2010Prop51ColorRGB
 90
-16777216
102
RTVSPost2010PropOp51
 70
     0
102
RTVSPost2010Prop52
140
1.0
102
RTVSPost2010PropOp52
 70
     0
102
RTVSPost2010Prop53
 90
        2
102
RTVSPost2010PropOp53
 70
     1
102
RTVSPost2010Prop54
  1
strokes_ogs.tif
102
RTVSPost2010PropOp54
 70
     1
102
RTVSPost2010Prop55
280
     0
102
RTVSPost2010PropOp55
 70
     1
102
RTVSPost2010Prop56
140
1.0
102
RTVSPost2010PropOp56
 70
     1
102
RTVSPost2010Prop57
140
1.0
102
RTVSPost2010PropOp57
 70
     1
  0
XRECORD
  5
32D
102
{ACAD_REACTORS
330
32C
102
}
330
32C
100
AcDbXrecord
280
     1
102
RTVSPropertyOp0
 70
     1
102
RTVSPropertyOp1
 70
     1
102
RTVSPropertyOp2
 70
     1
102
RTVSPropertyOp3
 70
     1
102
RTVSPropertyOp4
 70
     1
102
RTVSPropertyOp5
 70
     1
102
RTVSPropertyOp6
 70
     1
102
RTVSPropertyOp7
 70
     1
102
RTVSPropertyOp8
 70
     1
102
RTVSPropertyOp9
 70
     1
102
RTVSPropertyOp10
 70
     1
102
RTVSPropertyOp11
 70
     1
102
RTVSPropertyOp12
 70
     1
102
RTVSPropertyOp13
 70
     1
102
RTVSPropertyOp14
 70
     1
102
RTVSPropertyOp15
 70
     1
102
RTVSPropertyOp16
 70
     1
102
RTVSPropertyOp17
 70
     1
102
RTVSPropertyOp18
 70
     1
102
RTVSPropertyOp19
 70
     1
102
RTVSPropertyOp20
 70
     1
102
RTVSPropertyOp21
 70
     1
102
RTVSPropertyOp22
 70
     1
102
RTVSPropertyOp23
 70
     1
102
RTVSPropertyOp24
 70
     1
102
RTVSPropertyOp25
 70
     1
102
RTVSPropertyOp26
 70
     1
102
RTVSPropertyOp27
 70
     1
102
RTVSPropertyOp28
 70
     1
102
RTVSPropertyOp29
 70
     1
102
RTVSPropertyOp30
 70
     1
102
RTVSPropertyOp31
 70
     1
102
RTVSPropertyOp32
 70
     1
102
RTVSPropertyOp33
 70
     1
102
RTVSPropertyOp34
 70
     1
102
RTVSPropertyOp35
 70
     1
102
RTVSPropertyOp36
 70
     1
102
RTVSPropertyOp37
 70
     1
102
RTVSPropertyOp38
 70
     1
102
RTVSPropertyOp39
 70
     1
102
RTVSPropertyOp40
 70
     1
102
RTVSPropertyOp41
 70
     1
102
RTVSPropertyOp42
 70
     1
102
RTVSPropertyOp43
 70
     1
102
RTVSPropertyOp44
 70
     1
102
RTVSPropertyOp45
 70
     1
102
RTVSPropertyOp46
 70
     1
102
RTVSPropertyOp47
 70
     1
102
RTVSPropertyOp48
 70
     1
102
RTVSPropertyOp49
 70
     1
102
RTVSPropertyOp50
 70
     1
102
RTVSPropertyOp51
 70
     0
102
RTVSPropertyOp52
 70
     0
102
RTVSPropertyOp53
 70
     1
102
RTVSPropertyOp54
 70
     1
102
RTVSPropertyOp55
 70
     1
102
RTVSPropertyOp56
 70
     1
102
RTVSPropertyOp57
 70
     1
102
RTVSPost2010Prop28
280
     0
102
RTVSPost2010PropOp28
 70
     1
102
RTVSPost2010Prop29
280
     1
102
RTVSPost2010PropOp29
 70
     1
102
RTVSPost2010Prop30
280
     1
102
RTVSPost2010PropOp30
 70
     1
102
RTVSPost2010Prop31
280
     0
102
RTVSPost2010PropOp31
 70
     1
102
RTVSPost2010Prop32
280
     0
102
RTVSPost2010PropOp32
 70
     1
102
RTVSPost2010Prop33
280
     0
102
RTVSPost2010PropOp33
 70
     1
102
RTVSPost2010Prop34
280
     0
102
RTVSPost2010PropOp34
 70
     1
102
RTVSPost2010Prop35
280
     0
102
RTVSPost2010PropOp35
 70
     1
102
RTVSPost2010Prop36
280
     0
102
RTVSPost2010PropOp36
 70
     1
102
RTVSPost2010Prop37
 90
       50
102
RTVSPost2010PropOp37
 70
     1
102
RTVSPost2010Prop38
140
0.0
102
RTVSPost2010PropOp38
 70
     1
102
RTVSPost2010Prop39
140
1.0
102
RTVSPost2010PropOp39
 70
     1
102
RTVSPost2010Prop40
 90
        0
102
RTVSPost2010PropOp40
 70
     1
102
RTVSPost2010Prop41ColorIndex
 90
       18
102
RTVSPost2010Prop41ColorRGB
 90
        0
102
RTVSPost2010PropOp41
 70
     1
102
RTVSPost2010Prop42
 90
       50
102
RTVSPost2010PropOp42
 70
     1
102
RTVSPost2010Prop43
 90
        3
102
RTVSPost2010PropOp43
 70
     1
102
RTVSPost2010Prop44ColorIndex
 90
        5
102
RTVSPost2010Prop44ColorRGB
 90
      255
102
RTVSPost2010PropOp44
 70
     1
102
RTVSPost2010Prop45
280
     0
102
RTVSPost2010PropOp45
 70
     1
102
RTVSPost2010Prop46
 90
       50
102
RTVSPost2010PropOp46
 70
     1
102
RTVSPost2010Prop47
 90
       50
102
RTVSPost2010PropOp47
 70
     1
102
RTVSPost2010Prop48
 90
       50
102
RTVSPost2010PropOp48
 70
     1
102
RTVSPost2010Prop49
280
     0
102
RTVSPost2010PropOp49
 70
     1
102
RTVSPost2010Prop50
 90
       50
102
RTVSPost2010PropOp50
 70
     1
102
RTVSPost2010Prop51ColorIndex
 90
      256
102
RTVSPost2010Prop51ColorRGB
 90
-16777216
102
RTVSPost2010PropOp51
 70
     0
102
RTVSPost2010Prop52
140
1.0
102
RTVSPost2010PropOp52
 70
     0
102
RTVSPost2010Prop53
 90
        2
102
RTVSPost2010PropOp53
 70
     1
102
RTVSPost2010Prop54
  1
strokes_ogs.tif
102
RTVSPost2010PropOp54
 70
     1
102
RTVSPost2010Prop55
280
     0
102
RTVSPost2010PropOp55
 70
     1
102
RTVSPost2010Prop56
140
1.0
102
RTVSPost2010PropOp56
 70
     1
102
RTVSPost2010Prop57
140
1.0
102
RTVSPost2010PropOp57
 70
     1
  0
XRECORD
  5
32F
102
{ACAD_REACTORS
330
32E
102
}
330
32E
100
AcDbXrecord
280
     1
102
RTVSPropertyOp0
 70
     1
102
RTVSPropertyOp1
 70
     1
102
RTVSPropertyOp2
 70
     1
102
RTVSPropertyOp3
 70
     1
102
RTVSPropertyOp4
 70
     1
102
RTVSPropertyOp5
 70
     1
102
RTVSPropertyOp6
 70
     1
102
RTVSPropertyOp7
 70
     1
102
RTVSPropertyOp8
 70
     1
102
RTVSPropertyOp9
 70
     1
102
RTVSPropertyOp10
 70
     1
102
RTVSPropertyOp11
 70
     1
102
RTVSPropertyOp12
 70
     1
102
RTVSPropertyOp13
 70
     1
102
RTVSPropertyOp14
 70
     1
102
RTVSPropertyOp15
 70
     1
102
RTVSPropertyOp16
 70
     1
102
RTVSPropertyOp17
 70
     1
102
RTVSPropertyOp18
 70
     1
102
RTVSPropertyOp19
 70
     1
102
RTVSPropertyOp20
 70
     1
102
RTVSPropertyOp21
 70
     1
102
RTVSPropertyOp22
 70
     1
102
RTVSPropertyOp23
 70
     1
102
RTVSPropertyOp24
 70
     1
102
RTVSPropertyOp25
 70
     1
102
RTVSPropertyOp26
 70
     1
102
RTVSPropertyOp27
 70
     1
102
RTVSPropertyOp28
 70
     1
102
RTVSPropertyOp29
 70
     1
102
RTVSPropertyOp30
 70
     1
102
RTVSPropertyOp31
 70
     1
102
RTVSPropertyOp32
 70
     1
102
RTVSPropertyOp33
 70
     1
102
RTVSPropertyOp34
 70
     1
102
RTVSPropertyOp35
 70
     1
102
RTVSPropertyOp36
 70
     1
102
RTVSPropertyOp37
 70
     1
102
RTVSPropertyOp38
 70
     1
102
RTVSPropertyOp39
 70
     1
102
RTVSPropertyOp40
 70
     1
102
RTVSPropertyOp41
 70
     1
102
RTVSPropertyOp42
 70
     1
102
RTVSPropertyOp43
 70
     1
102
RTVSPropertyOp44
 70
     1
102
RTVSPropertyOp45
 70
     1
102
RTVSPropertyOp46
 70
     1
102
RTVSPropertyOp47
 70
     1
102
RTVSPropertyOp48
 70
     1
102
RTVSPropertyOp49
 70
     1
102
RTVSPropertyOp50
 70
     1
102
RTVSPropertyOp51
 70
     0
102
RTVSPropertyOp52
 70
     0
102
RTVSPropertyOp53
 70
     1
102
RTVSPropertyOp54
 70
     1
102
RTVSPropertyOp55
 70
     1
102
RTVSPropertyOp56
 70
     1
102
RTVSPropertyOp57
 70
     1
102
RTVSPost2010Prop28
280
     0
102
RTVSPost2010PropOp28
 70
     1
102
RTVSPost2010Prop29
280
     1
102
RTVSPost2010PropOp29
 70
     1
102
RTVSPost2010Prop30
280
     1
102
RTVSPost2010PropOp30
 70
     1
102
RTVSPost2010Prop31
280
     0
102
RTVSPost2010PropOp31
 70
     1
102
RTVSPost2010Prop32
280
     0
102
RTVSPost2010PropOp32
 70
     1
102
RTVSPost2010Prop33
280
     0
102
RTVSPost2010PropOp33
 70
     1
102
RTVSPost2010Prop34
280
     0
102
RTVSPost2010PropOp34
 70
     1
102
RTVSPost2010Prop35
280
     0
102
RTVSPost2010PropOp35
 70
     1
102
RTVSPost2010Prop36
280
     0
102
RTVSPost2010PropOp36
 70
     1
102
RTVSPost2010Prop37
 90
       50
102
RTVSPost2010PropOp37
 70
     1
102
RTVSPost2010Prop38
140
0.0
102
RTVSPost2010PropOp38
 70
     1
102
RTVSPost2010Prop39
140
1.0
102
RTVSPost2010PropOp39
 70
     1
102
RTVSPost2010Prop40
 90
        0
102
RTVSPost2010PropOp40
 70
     1
102
RTVSPost2010Prop41ColorIndex
 90
       18
102
RTVSPost2010Prop41ColorRGB
 90
        0
102
RTVSPost2010PropOp41
 70
     1
102
RTVSPost2010Prop42
 90
       50
102
RTVSPost2010PropOp42
 70
     1
102
RTVSPost2010Prop43
 90
        3
102
RTVSPost2010PropOp43
 70
     1
102
RTVSPost2010Prop44ColorIndex
 90
        5
102
RTVSPost2010Prop44ColorRGB
 90
      255
102
RTVSPost2010PropOp44
 70
     1
102
RTVSPost2010Prop45
280
     0
102
RTVSPost2010PropOp45
 70
     1
102
RTVSPost2010Prop46
 90
       50
102
RTVSPost2010PropOp46
 70
     1
102
RTVSPost2010Prop47
 90
       50
102
RTVSPost2010PropOp47
 70
     1
102
RTVSPost2010Prop48
 90
       50
102
RTVSPost2010PropOp48
 70
     1
102
RTVSPost2010Prop49
280
     0
102
RTVSPost2010PropOp49
 70
     1
102
RTVSPost2010Prop50
 90
       50
102
RTVSPost2010PropOp50
 70
     1
102
RTVSPost2010Prop51ColorIndex
 90
      256
102
RTVSPost2010Prop51ColorRGB
 90
-16777216
102
RTVSPost2010PropOp51
 70
     0
102
RTVSPost2010Prop52
140
1.0
102
RTVSPost2010PropOp52
 70
     0
102
RTVSPost2010Prop53
 90
        2
102
RTVSPost2010PropOp53
 70
     1
102
RTVSPost2010Prop54
  1
strokes_ogs.tif
102
RTVSPost2010PropOp54
 70
     1
102
RTVSPost2010Prop55
280
     0
102
RTVSPost2010PropOp55
 70
     1
102
RTVSPost2010Prop56
140
1.0
102
RTVSPost2010PropOp56
 70
     1
102
RTVSPost2010Prop57
140
1.0
102
RTVSPost2010PropOp57
 70
     1
  0
XRECORD
  5
335
102
{ACAD_REACTORS
330
334
102
}
330
334
100
AcDbXrecord
280
     1
102
RTVSPropertyOp0
 70
     1
102
RTVSPropertyOp1
 70
     1
102
RTVSPropertyOp2
 70
     1
102
RTVSPropertyOp3
 70
     1
102
RTVSPropertyOp4
 70
     1
102
RTVSPropertyOp5
 70
     1
102
RTVSPropertyOp6
 70
     1
102
RTVSPropertyOp7
 70
     1
102
RTVSPropertyOp8
 70
     1
102
RTVSPropertyOp9
 70
     1
102
RTVSPropertyOp10
 70
     1
102
RTVSPropertyOp11
 70
     1
102
RTVSPropertyOp12
 70
     1
102
RTVSPropertyOp13
 70
     1
102
RTVSPropertyOp14
 70
     1
102
RTVSPropertyOp15
 70
     1
102
RTVSPropertyOp16
 70
     1
102
RTVSPropertyOp17
 70
     1
102
RTVSPropertyOp18
 70
     1
102
RTVSPropertyOp19
 70
     1
102
RTVSPropertyOp20
 70
     1
102
RTVSPropertyOp21
 70
     1
102
RTVSPropertyOp22
 70
     1
102
RTVSPropertyOp23
 70
     1
102
RTVSPropertyOp24
 70
     1
102
RTVSPropertyOp25
 70
     1
102
RTVSPropertyOp26
 70
     1
102
RTVSPropertyOp27
 70
     1
102
RTVSPropertyOp28
 70
     1
102
RTVSPropertyOp29
 70
     1
102
RTVSPropertyOp30
 70
     1
102
RTVSPropertyOp31
 70
     1
102
RTVSPropertyOp32
 70
     1
102
RTVSPropertyOp33
 70
     1
102
RTVSPropertyOp34
 70
     1
102
RTVSPropertyOp35
 70
     1
102
RTVSPropertyOp36
 70
     1
102
RTVSPropertyOp37
 70
     1
102
RTVSPropertyOp38
 70
     1
102
RTVSPropertyOp39
 70
     1
102
RTVSPropertyOp40
 70
     1
102
RTVSPropertyOp41
 70
     1
102
RTVSPropertyOp42
 70
     1
102
RTVSPropertyOp43
 70
     1
102
RTVSPropertyOp44
 70
     1
102
RTVSPropertyOp45
 70
     1
102
RTVSPropertyOp46
 70
     1
102
RTVSPropertyOp47
 70
     1
102
RTVSPropertyOp48
 70
     1
102
RTVSPropertyOp49
 70
     1
102
RTVSPropertyOp50
 70
     1
102
RTVSPropertyOp51
 70
     0
102
RTVSPropertyOp52
 70
     0
102
RTVSPropertyOp53
 70
     1
102
RTVSPropertyOp54
 70
     1
102
RTVSPropertyOp55
 70
     1
102
RTVSPropertyOp56
 70
     1
102
RTVSPropertyOp57
 70
     1
102
RTVSPost2010Prop28
280
     0
102
RTVSPost2010PropOp28
 70
     1
102
RTVSPost2010Prop29
280
     1
102
RTVSPost2010PropOp29
 70
     1
102
RTVSPost2010Prop30
280
     1
102
RTVSPost2010PropOp30
 70
     1
102
RTVSPost2010Prop31
280
     0
102
RTVSPost2010PropOp31
 70
     1
102
RTVSPost2010Prop32
280
     0
102
RTVSPost2010PropOp32
 70
     1
102
RTVSPost2010Prop33
280
     0
102
RTVSPost2010PropOp33
 70
     1
102
RTVSPost2010Prop34
280
     0
102
RTVSPost2010PropOp34
 70
     1
102
RTVSPost2010Prop35
280
     0
102
RTVSPost2010PropOp35
 70
     1
102
RTVSPost2010Prop36
280
     0
102
RTVSPost2010PropOp36
 70
     1
102
RTVSPost2010Prop37
 90
       50
102
RTVSPost2010PropOp37
 70
     1
102
RTVSPost2010Prop38
140
0.0
102
RTVSPost2010PropOp38
 70
     1
102
RTVSPost2010Prop39
140
1.0
102
RTVSPost2010PropOp39
 70
     1
102
RTVSPost2010Prop40
 90
        0
102
RTVSPost2010PropOp40
 70
     1
102
RTVSPost2010Prop41ColorIndex
 90
       18
102
RTVSPost2010Prop41ColorRGB
 90
        0
102
RTVSPost2010PropOp41
 70
     1
102
RTVSPost2010Prop42
 90
       50
102
RTVSPost2010PropOp42
 70
     1
102
RTVSPost2010Prop43
 90
        3
102
RTVSPost2010PropOp43
 70
     1
102
RTVSPost2010Prop44ColorIndex
 90
        5
102
RTVSPost2010Prop44ColorRGB
 90
      255
102
RTVSPost2010PropOp44
 70
     1
102
RTVSPost2010Prop45
280
     0
102
RTVSPost2010PropOp45
 70
     1
102
RTVSPost2010Prop46
 90
       50
102
RTVSPost2010PropOp46
 70
     1
102
RTVSPost2010Prop47
 90
       50
102
RTVSPost2010PropOp47
 70
     1
102
RTVSPost2010Prop48
 90
       50
102
RTVSPost2010PropOp48
 70
     1
102
RTVSPost2010Prop49
280
     0
102
RTVSPost2010PropOp49
 70
     1
102
RTVSPost2010Prop50
 90
       50
102
RTVSPost2010PropOp50
 70
     1
102
RTVSPost2010Prop51ColorIndex
 90
      256
102
RTVSPost2010Prop51ColorRGB
 90
-16777216
102
RTVSPost2010PropOp51
 70
     0
102
RTVSPost2010Prop52
140
1.0
102
RTVSPost2010PropOp52
 70
     0
102
RTVSPost2010Prop53
 90
        2
102
RTVSPost2010PropOp53
 70
     1
102
RTVSPost2010Prop54
  1
strokes_ogs.tif
102
RTVSPost2010PropOp54
 70
     1
102
RTVSPost2010Prop55
280
     0
102
RTVSPost2010PropOp55
 70
     1
102
RTVSPost2010Prop56
140
1.0
102
RTVSPost2010PropOp56
 70
     1
102
RTVSPost2010Prop57
140
1.0
102
RTVSPost2010PropOp57
 70
     1
  0
XRECORD
  5
349
102
{ACAD_REACTORS
330
348
102
}
330
348
100
AcDbXrecord
280
     1
102
RTVSPropertyOp0
 70
     0
102
RTVSPropertyOp1
 70
     0
102
RTVSPropertyOp2
 70
     0
102
RTVSPropertyOp3
 70
     0
102
RTVSPropertyOp4
 70
     0
102
RTVSPropertyOp5
 70
     0
102
RTVSPropertyOp6
 70
     0
102
RTVSPropertyOp7
 70
     0
102
RTVSPropertyOp8
 70
     0
102
RTVSPropertyOp9
 70
     0
102
RTVSPropertyOp10
 70
     0
102
RTVSPropertyOp11
 70
     0
102
RTVSPropertyOp12
 70
     0
102
RTVSPropertyOp13
 70
     0
102
RTVSPropertyOp14
 70
     2
102
RTVSPropertyOp15
 70
     0
102
RTVSPropertyOp16
 70
     0
102
RTVSPropertyOp17
 70
     0
102
RTVSPropertyOp18
 70
     0
102
RTVSPropertyOp19
 70
     0
102
RTVSPropertyOp20
 70
     0
102
RTVSPropertyOp21
 70
     0
102
RTVSPropertyOp22
 70
     0
102
RTVSPropertyOp23
 70
     0
102
RTVSPropertyOp24
 70
     0
102
RTVSPropertyOp25
 70
     0
102
RTVSPropertyOp26
 70
     0
102
RTVSPropertyOp27
 70
     0
102
RTVSPropertyOp28
 70
     0
102
RTVSPropertyOp29
 70
     0
102
RTVSPropertyOp30
 70
     0
102
RTVSPropertyOp31
 70
     0
102
RTVSPropertyOp32
 70
     0
102
RTVSPropertyOp33
 70
     0
102
RTVSPropertyOp34
 70
     0
102
RTVSPropertyOp35
 70
     0
102
RTVSPropertyOp36
 70
     0
102
RTVSPropertyOp37
 70
     0
102
RTVSPropertyOp38
 70
     0
102
RTVSPropertyOp39
 70
     0
102
RTVSPropertyOp40
 70
     0
102
RTVSPropertyOp41
 70
     0
102
RTVSPropertyOp42
 70
     0
102
RTVSPropertyOp43
 70
     0
102
RTVSPropertyOp44
 70
     0
102
RTVSPropertyOp45
 70
     0
102
RTVSPropertyOp46
 70
     0
102
RTVSPropertyOp47
 70
     0
102
RTVSPropertyOp48
 70
     0
102
RTVSPropertyOp49
 70
     0
102
RTVSPropertyOp50
 70
     0
102
RTVSPropertyOp51
 70
     0
102
RTVSPropertyOp52
 70
     0
102
RTVSPropertyOp53
 70
     0
102
RTVSPropertyOp54
 70
     0
102
RTVSPropertyOp55
 70
     0
102
RTVSPropertyOp56
 70
     0
102
RTVSPropertyOp57
 70
     0
102
RTVSPost2010Prop28
280
     0
102
RTVSPost2010PropOp28
 70
     0
102
RTVSPost2010Prop29
280
     1
102
RTVSPost2010PropOp29
 70
     0
102
RTVSPost2010Prop30
280
     1
102
RTVSPost2010PropOp30
 70
     0
102
RTVSPost2010Prop31
280
     0
102
RTVSPost2010PropOp31
 70
     0
102
RTVSPost2010Prop32
280
     0
102
RTVSPost2010PropOp32
 70
     0
102
RTVSPost2010Prop33
280
     0
102
RTVSPost2010PropOp33
 70
     0
102
RTVSPost2010Prop34
280
     0
102
RTVSPost2010PropOp34
 70
     0
102
RTVSPost2010Prop35
280
     0
102
RTVSPost2010PropOp35
 70
     0
102
RTVSPost2010Prop36
280
     0
102
RTVSPost2010PropOp36
 70
     0
102
RTVSPost2010Prop37
 90
       50
102
RTVSPost2010PropOp37
 70
     0
102
RTVSPost2010Prop38
140
0.0
102
RTVSPost2010PropOp38
 70
     0
102
RTVSPost2010Prop39
140
1.0
102
RTVSPost2010PropOp39
 70
     0
102
RTVSPost2010Prop40
 90
        0
102
RTVSPost2010PropOp40
 70
     0
102
RTVSPost2010Prop41ColorIndex
 90
       18
102
RTVSPost2010Prop41ColorRGB
 90
        0
102
RTVSPost2010PropOp41
 70
     0
102
RTVSPost2010Prop42
 90
       50
102
RTVSPost2010PropOp42
 70
     0
102
RTVSPost2010Prop43
 90
        3
102
RTVSPost2010PropOp43
 70
     0
102
RTVSPost2010Prop44ColorIndex
 90
        5
102
RTVSPost2010Prop44ColorRGB
 90
      255
102
RTVSPost2010PropOp44
 70
     0
102
RTVSPost2010Prop45
280
     0
102
RTVSPost2010PropOp45
 70
     0
102
RTVSPost2010Prop46
 90
       50
102
RTVSPost2010PropOp46
 70
     0
102
RTVSPost2010Prop47
 90
       50
102
RTVSPost2010PropOp47
 70
     0
102
RTVSPost2010Prop48
 90
       50
102
RTVSPost2010PropOp48
 70
     0
102
RTVSPost2010Prop49
280
     0
102
RTVSPost2010PropOp49
 70
     0
102
RTVSPost2010Prop50
 90
       50
102
RTVSPost2010PropOp50
 70
     0
102
RTVSPost2010Prop51ColorIndex
 90
      256
102
RTVSPost2010Prop51ColorRGB
 90
-16777216
102
RTVSPost2010PropOp51
 70
     0
102
RTVSPost2010Prop52
140
1.0
102
RTVSPost2010PropOp52
 70
     0
102
RTVSPost2010Prop53
 90
        2
102
RTVSPost2010PropOp53
 70
     0
102
RTVSPost2010Prop54
  1
strokes_ogs.tif
102
RTVSPost2010PropOp54
 70
     0
102
RTVSPost2010Prop55
280
     0
102
RTVSPost2010PropOp55
 70
     0
102
RTVSPost2010Prop56
140
1.0
102
RTVSPost2010PropOp56
 70
     0
102
RTVSPost2010Prop57
140
1.0
102
RTVSPost2010PropOp57
 70
     0
  0
XRECORD
  5
343
102
{ACAD_REACTORS
330
342
102
}
330
342
100
AcDbXrecord
280
     1
102
RTVSPropertyOp0
 70
     1
102
RTVSPropertyOp1
 70
     1
102
RTVSPropertyOp2
 70
     1
102
RTVSPropertyOp3
 70
     1
102
RTVSPropertyOp4
 70
     1
102
RTVSPropertyOp5
 70
     1
102
RTVSPropertyOp6
 70
     1
102
RTVSPropertyOp7
 70
     1
102
RTVSPropertyOp8
 70
     1
102
RTVSPropertyOp9
 70
     1
102
RTVSPropertyOp10
 70
     1
102
RTVSPropertyOp11
 70
     1
102
RTVSPropertyOp12
 70
     1
102
RTVSPropertyOp13
 70
     1
102
RTVSPropertyOp14
 70
     1
102
RTVSPropertyOp15
 70
     1
102
RTVSPropertyOp16
 70
     1
102
RTVSPropertyOp17
 70
     1
102
RTVSPropertyOp18
 70
     1
102
RTVSPropertyOp19
 70
     1
102
RTVSPropertyOp20
 70
     1
102
RTVSPropertyOp21
 70
     1
102
RTVSPropertyOp22
 70
     1
102
RTVSPropertyOp23
 70
     1
102
RTVSPropertyOp24
 70
     1
102
RTVSPropertyOp25
 70
     1
102
RTVSPropertyOp26
 70
     1
102
RTVSPropertyOp27
 70
     1
102
RTVSPropertyOp28
 70
     1
102
RTVSPropertyOp29
 70
     1
102
RTVSPropertyOp30
 70
     1
102
RTVSPropertyOp31
 70
     1
102
RTVSPropertyOp32
 70
     1
102
RTVSPropertyOp33
 70
     1
102
RTVSPropertyOp34
 70
     1
102
RTVSPropertyOp35
 70
     1
102
RTVSPropertyOp36
 70
     1
102
RTVSPropertyOp37
 70
     1
102
RTVSPropertyOp38
 70
     1
102
RTVSPropertyOp39
 70
     1
102
RTVSPropertyOp40
 70
     1
102
RTVSPropertyOp41
 70
     1
102
RTVSPropertyOp42
 70
     1
102
RTVSPropertyOp43
 70
     1
102
RTVSPropertyOp44
 70
     1
102
RTVSPropertyOp45
 70
     1
102
RTVSPropertyOp46
 70
     1
102
RTVSPropertyOp47
 70
     1
102
RTVSPropertyOp48
 70
     1
102
RTVSPropertyOp49
 70
     1
102
RTVSPropertyOp50
 70
     1
102
RTVSPropertyOp51
 70
     0
102
RTVSPropertyOp52
 70
     0
102
RTVSPropertyOp53
 70
     1
102
RTVSPropertyOp54
 70
     1
102
RTVSPropertyOp55
 70
     1
102
RTVSPropertyOp56
 70
     1
102
RTVSPropertyOp57
 70
     1
102
RTVSPost2010Prop28
280
     0
102
RTVSPost2010PropOp28
 70
     1
102
RTVSPost2010Prop29
280
     1
102
RTVSPost2010PropOp29
 70
     1
102
RTVSPost2010Prop30
280
     1
102
RTVSPost2010PropOp30
 70
     1
102
RTVSPost2010Prop31
280
     0
102
RTVSPost2010PropOp31
 70
     1
102
RTVSPost2010Prop32
280
     0
102
RTVSPost2010PropOp32
 70
     1
102
RTVSPost2010Prop33
280
     0
102
RTVSPost2010PropOp33
 70
     1
102
RTVSPost2010Prop34
280
     0
102
RTVSPost2010PropOp34
 70
     1
102
RTVSPost2010Prop35
280
     0
102
RTVSPost2010PropOp35
 70
     1
102
RTVSPost2010Prop36
280
     0
102
RTVSPost2010PropOp36
 70
     1
102
RTVSPost2010Prop37
 90
       50
102
RTVSPost2010PropOp37
 70
     1
102
RTVSPost2010Prop38
140
0.0
102
RTVSPost2010PropOp38
 70
     1
102
RTVSPost2010Prop39
140
1.0
102
RTVSPost2010PropOp39
 70
     1
102
RTVSPost2010Prop40
 90
        0
102
RTVSPost2010PropOp40
 70
     1
102
RTVSPost2010Prop41ColorIndex
 90
       18
102
RTVSPost2010Prop41ColorRGB
 90
        0
102
RTVSPost2010PropOp41
 70
     1
102
RTVSPost2010Prop42
 90
       50
102
RTVSPost2010PropOp42
 70
     1
102
RTVSPost2010Prop43
 90
        3
102
RTVSPost2010PropOp43
 70
     1
102
RTVSPost2010Prop44ColorIndex
 90
        5
102
RTVSPost2010Prop44ColorRGB
 90
      255
102
RTVSPost2010PropOp44
 70
     1
102
RTVSPost2010Prop45
280
     0
102
RTVSPost2010PropOp45
 70
     1
102
RTVSPost2010Prop46
 90
       50
102
RTVSPost2010PropOp46
 70
     1
102
RTVSPost2010Prop47
 90
       50
102
RTVSPost2010PropOp47
 70
     1
102
RTVSPost2010Prop48
 90
       50
102
RTVSPost2010PropOp48
 70
     1
102
RTVSPost2010Prop49
280
     0
102
RTVSPost2010PropOp49
 70
     1
102
RTVSPost2010Prop50
 90
       50
102
RTVSPost2010PropOp50
 70
     1
102
RTVSPost2010Prop51ColorIndex
 90
      256
102
RTVSPost2010Prop51ColorRGB
 90
-16777216
102
RTVSPost2010PropOp51
 70
     0
102
RTVSPost2010Prop52
140
1.0
102
RTVSPost2010PropOp52
 70
     0
102
RTVSPost2010Prop53
 90
        2
102
RTVSPost2010PropOp53
 70
     1
102
RTVSPost2010Prop54
  1
strokes_ogs.tif
102
RTVSPost2010PropOp54
 70
     1
102
RTVSPost2010Prop55
280
     0
102
RTVSPost2010PropOp55
 70
     1
102
RTVSPost2010Prop56
140
1.0
102
RTVSPost2010PropOp56
 70
     1
102
RTVSPost2010Prop57
140
1.0
102
RTVSPost2010PropOp57
 70
     1
  0
XRECORD
  5
34B
102
{ACAD_REACTORS
330
34A
102
}
330
34A
100
AcDbXrecord
280
     1
102
RTVSPropertyOp0
 70
     0
102
RTVSPropertyOp1
 70
     0
102
RTVSPropertyOp2
 70
     0
102
RTVSPropertyOp3
 70
     0
102
RTVSPropertyOp4
 70
     0
102
RTVSPropertyOp5
 70
     0
102
RTVSPropertyOp6
 70
     0
102
RTVSPropertyOp7
 70
     0
102
RTVSPropertyOp8
 70
     0
102
RTVSPropertyOp9
 70
     0
102
RTVSPropertyOp10
 70
     0
102
RTVSPropertyOp11
 70
     0
102
RTVSPropertyOp12
 70
     0
102
RTVSPropertyOp13
 70
     0
102
RTVSPropertyOp14
 70
     2
102
RTVSPropertyOp15
 70
     0
102
RTVSPropertyOp16
 70
     0
102
RTVSPropertyOp17
 70
     0
102
RTVSPropertyOp18
 70
     0
102
RTVSPropertyOp19
 70
     0
102
RTVSPropertyOp20
 70
     0
102
RTVSPropertyOp21
 70
     0
102
RTVSPropertyOp22
 70
     0
102
RTVSPropertyOp23
 70
     0
102
RTVSPropertyOp24
 70
     0
102
RTVSPropertyOp25
 70
     0
102
RTVSPropertyOp26
 70
     0
102
RTVSPropertyOp27
 70
     0
102
RTVSPropertyOp28
 70
     0
102
RTVSPropertyOp29
 70
     0
102
RTVSPropertyOp30
 70
     0
102
RTVSPropertyOp31
 70
     0
102
RTVSPropertyOp32
 70
     0
102
RTVSPropertyOp33
 70
     0
102
RTVSPropertyOp34
 70
     0
102
RTVSPropertyOp35
 70
     0
102
RTVSPropertyOp36
 70
     0
102
RTVSPropertyOp37
 70
     0
102
RTVSPropertyOp38
 70
     0
102
RTVSPropertyOp39
 70
     0
102
RTVSPropertyOp40
 70
     0
102
RTVSPropertyOp41
 70
     0
102
RTVSPropertyOp42
 70
     0
102
RTVSPropertyOp43
 70
     0
102
RTVSPropertyOp44
 70
     0
102
RTVSPropertyOp45
 70
     0
102
RTVSPropertyOp46
 70
     0
102
RTVSPropertyOp47
 70
     0
102
RTVSPropertyOp48
 70
     0
102
RTVSPropertyOp49
 70
     0
102
RTVSPropertyOp50
 70
     0
102
RTVSPropertyOp51
 70
     0
102
RTVSPropertyOp52
 70
     0
102
RTVSPropertyOp53
 70
     0
102
RTVSPropertyOp54
 70
     0
102
RTVSPropertyOp55
 70
     0
102
RTVSPropertyOp56
 70
     0
102
RTVSPropertyOp57
 70
     0
102
RTVSPost2010Prop28
280
     0
102
RTVSPost2010PropOp28
 70
     0
102
RTVSPost2010Prop29
280
     1
102
RTVSPost2010PropOp29
 70
     0
102
RTVSPost2010Prop30
280
     1
102
RTVSPost2010PropOp30
 70
     0
102
RTVSPost2010Prop31
280
     0
102
RTVSPost2010PropOp31
 70
     0
102
RTVSPost2010Prop32
280
     0
102
RTVSPost2010PropOp32
 70
     0
102
RTVSPost2010Prop33
280
     0
102
RTVSPost2010PropOp33
 70
     0
102
RTVSPost2010Prop34
280
     0
102
RTVSPost2010PropOp34
 70
     0
102
RTVSPost2010Prop35
280
     0
102
RTVSPost2010PropOp35
 70
     0
102
RTVSPost2010Prop36
280
     0
102
RTVSPost2010PropOp36
 70
     0
102
RTVSPost2010Prop37
 90
       50
102
RTVSPost2010PropOp37
 70
     0
102
RTVSPost2010Prop38
140
0.0
102
RTVSPost2010PropOp38
 70
     0
102
RTVSPost2010Prop39
140
1.0
102
RTVSPost2010PropOp39
 70
     0
102
RTVSPost2010Prop40
 90
        0
102
RTVSPost2010PropOp40
 70
     0
102
RTVSPost2010Prop41ColorIndex
 90
       18
102
RTVSPost2010Prop41ColorRGB
 90
        0
102
RTVSPost2010PropOp41
 70
     0
102
RTVSPost2010Prop42
 90
       50
102
RTVSPost2010PropOp42
 70
     0
102
RTVSPost2010Prop43
 90
        3
102
RTVSPost2010PropOp43
 70
     0
102
RTVSPost2010Prop44ColorIndex
 90
        5
102
RTVSPost2010Prop44ColorRGB
 90
      255
102
RTVSPost2010PropOp44
 70
     0
102
RTVSPost2010Prop45
280
     0
102
RTVSPost2010PropOp45
 70
     0
102
RTVSPost2010Prop46
 90
       50
102
RTVSPost2010PropOp46
 70
     0
102
RTVSPost2010Prop47
 90
       50
102
RTVSPost2010PropOp47
 70
     0
102
RTVSPost2010Prop48
 90
       50
102
RTVSPost2010PropOp48
 70
     0
102
RTVSPost2010Prop49
280
     0
102
RTVSPost2010PropOp49
 70
     0
102
RTVSPost2010Prop50
 90
       50
102
RTVSPost2010PropOp50
 70
     0
102
RTVSPost2010Prop51ColorIndex
 90
      256
102
RTVSPost2010Prop51ColorRGB
 90
-16777216
102
RTVSPost2010PropOp51
 70
     0
102
RTVSPost2010Prop52
140
1.0
102
RTVSPost2010PropOp52
 70
     0
102
RTVSPost2010Prop53
 90
        2
102
RTVSPost2010PropOp53
 70
     0
102
RTVSPost2010Prop54
  1
strokes_ogs.tif
102
RTVSPost2010PropOp54
 70
     0
102
RTVSPost2010Prop55
280
     0
102
RTVSPost2010PropOp55
 70
     0
102
RTVSPost2010Prop56
140
1.0
102
RTVSPost2010PropOp56
 70
     0
102
RTVSPost2010Prop57
140
1.0
102
RTVSPost2010PropOp57
 70
     0
  0
XRECORD
  5
339
102
{ACAD_REACTORS
330
338
102
}
330
338
100
AcDbXrecord
280
     1
102
RTVSPropertyOp0
 70
     1
102
RTVSPropertyOp1
 70
     1
102
RTVSPropertyOp2
 70
     1
102
RTVSPropertyOp3
 70
     1
102
RTVSPropertyOp4
 70
     1
102
RTVSPropertyOp5
 70
     1
102
RTVSPropertyOp6
 70
     1
102
RTVSPropertyOp7
 70
     1
102
RTVSPropertyOp8
 70
     1
102
RTVSPropertyOp9
 70
     1
102
RTVSPropertyOp10
 70
     1
102
RTVSPropertyOp11
 70
     1
102
RTVSPropertyOp12
 70
     1
102
RTVSPropertyOp13
 70
     1
102
RTVSPropertyOp14
 70
     1
102
RTVSPropertyOp15
 70
     1
102
RTVSPropertyOp16
 70
     1
102
RTVSPropertyOp17
 70
     1
102
RTVSPropertyOp18
 70
     1
102
RTVSPropertyOp19
 70
     1
102
RTVSPropertyOp20
 70
     1
102
RTVSPropertyOp21
 70
     1
102
RTVSPropertyOp22
 70
     1
102
RTVSPropertyOp23
 70
     1
102
RTVSPropertyOp24
 70
     1
102
RTVSPropertyOp25
 70
     1
102
RTVSPropertyOp26
 70
     1
102
RTVSPropertyOp27
 70
     1
102
RTVSPropertyOp28
 70
     1
102
RTVSPropertyOp29
 70
     1
102
RTVSPropertyOp30
 70
     1
102
RTVSPropertyOp31
 70
     1
102
RTVSPropertyOp32
 70
     1
102
RTVSPropertyOp33
 70
     1
102
RTVSPropertyOp34
 70
     1
102
RTVSPropertyOp35
 70
     1
102
RTVSPropertyOp36
 70
     1
102
RTVSPropertyOp37
 70
     1
102
RTVSPropertyOp38
 70
     1
102
RTVSPropertyOp39
 70
     1
102
RTVSPropertyOp40
 70
     1
102
RTVSPropertyOp41
 70
     1
102
RTVSPropertyOp42
 70
     1
102
RTVSPropertyOp43
 70
     1
102
RTVSPropertyOp44
 70
     1
102
RTVSPropertyOp45
 70
     1
102
RTVSPropertyOp46
 70
     1
102
RTVSPropertyOp47
 70
     1
102
RTVSPropertyOp48
 70
     1
102
RTVSPropertyOp49
 70
     1
102
RTVSPropertyOp50
 70
     1
102
RTVSPropertyOp51
 70
     0
102
RTVSPropertyOp52
 70
     0
102
RTVSPropertyOp53
 70
     1
102
RTVSPropertyOp54
 70
     1
102
RTVSPropertyOp55
 70
     1
102
RTVSPropertyOp56
 70
     1
102
RTVSPropertyOp57
 70
     1
102
RTVSPost2010Prop28
280
     0
102
RTVSPost2010PropOp28
 70
     1
102
RTVSPost2010Prop29
280
     1
102
RTVSPost2010PropOp29
 70
     1
102
RTVSPost2010Prop30
280
     1
102
RTVSPost2010PropOp30
 70
     1
102
RTVSPost2010Prop31
280
     0
102
RTVSPost2010PropOp31
 70
     1
102
RTVSPost2010Prop32
280
     0
102
RTVSPost2010PropOp32
 70
     1
102
RTVSPost2010Prop33
280
     0
102
RTVSPost2010PropOp33
 70
     1
102
RTVSPost2010Prop34
280
     0
102
RTVSPost2010PropOp34
 70
     1
102
RTVSPost2010Prop35
280
     0
102
RTVSPost2010PropOp35
 70
     1
102
RTVSPost2010Prop36
280
     0
102
RTVSPost2010PropOp36
 70
     1
102
RTVSPost2010Prop37
 90
       50
102
RTVSPost2010PropOp37
 70
     1
102
RTVSPost2010Prop38
140
0.0
102
RTVSPost2010PropOp38
 70
     1
102
RTVSPost2010Prop39
140
1.0
102
RTVSPost2010PropOp39
 70
     1
102
RTVSPost2010Prop40
 90
        0
102
RTVSPost2010PropOp40
 70
     1
102
RTVSPost2010Prop41ColorIndex
 90
       18
102
RTVSPost2010Prop41ColorRGB
 90
        0
102
RTVSPost2010PropOp41
 70
     1
102
RTVSPost2010Prop42
 90
       50
102
RTVSPost2010PropOp42
 70
     1
102
RTVSPost2010Prop43
 90
        3
102
RTVSPost2010PropOp43
 70
     1
102
RTVSPost2010Prop44ColorIndex
 90
        5
102
RTVSPost2010Prop44ColorRGB
 90
      255
102
RTVSPost2010PropOp44
 70
     1
102
RTVSPost2010Prop45
280
     0
102
RTVSPost2010PropOp45
 70
     1
102
RTVSPost2010Prop46
 90
       50
102
RTVSPost2010PropOp46
 70
     1
102
RTVSPost2010Prop47
 90
       50
102
RTVSPost2010PropOp47
 70
     1
102
RTVSPost2010Prop48
 90
       50
102
RTVSPost2010PropOp48
 70
     1
102
RTVSPost2010Prop49
280
     0
102
RTVSPost2010PropOp49
 70
     1
102
RTVSPost2010Prop50
 90
       50
102
RTVSPost2010PropOp50
 70
     1
102
RTVSPost2010Prop51ColorIndex
 90
      256
102
RTVSPost2010Prop51ColorRGB
 90
-16777216
102
RTVSPost2010PropOp51
 70
     0
102
RTVSPost2010Prop52
140
1.0
102
RTVSPost2010PropOp52
 70
     0
102
RTVSPost2010Prop53
 90
        2
102
RTVSPost2010PropOp53
 70
     1
102
RTVSPost2010Prop54
  1
strokes_ogs.tif
102
RTVSPost2010PropOp54
 70
     1
102
RTVSPost2010Prop55
280
     0
102
RTVSPost2010PropOp55
 70
     1
102
RTVSPost2010Prop56
140
1.0
102
RTVSPost2010PropOp56
 70
     1
102
RTVSPost2010Prop57
140
1.0
102
RTVSPost2010PropOp57
 70
     1
  0
XRECORD
  5
357
102
{ACAD_REACTORS
330
356
102
}
330
356
100
AcDbXrecord
280
     1
102
RTVSPropertyOp0
 70
     1
102
RTVSPropertyOp1
 70
     1
102
RTVSPropertyOp2
 70
     1
102
RTVSPropertyOp3
 70
     1
102
RTVSPropertyOp4
 70
     1
102
RTVSPropertyOp5
 70
     1
102
RTVSPropertyOp6
 70
     1
102
RTVSPropertyOp7
 70
     1
102
RTVSPropertyOp8
 70
     1
102
RTVSPropertyOp9
 70
     1
102
RTVSPropertyOp10
 70
     1
102
RTVSPropertyOp11
 70
     1
102
RTVSPropertyOp12
 70
     1
102
RTVSPropertyOp13
 70
     1
102
RTVSPropertyOp14
 70
     1
102
RTVSPropertyOp15
 70
     1
102
RTVSPropertyOp16
 70
     1
102
RTVSPropertyOp17
 70
     1
102
RTVSPropertyOp18
 70
     1
102
RTVSPropertyOp19
 70
     1
102
RTVSPropertyOp20
 70
     1
102
RTVSPropertyOp21
 70
     1
102
RTVSPropertyOp22
 70
     1
102
RTVSPropertyOp23
 70
     1
102
RTVSPropertyOp24
 70
     1
102
RTVSPropertyOp25
 70
     1
102
RTVSPropertyOp26
 70
     1
102
RTVSPropertyOp27
 70
     1
102
RTVSPropertyOp28
 70
     1
102
RTVSPropertyOp29
 70
     1
102
RTVSPropertyOp30
 70
     1
102
RTVSPropertyOp31
 70
     1
102
RTVSPropertyOp32
 70
     1
102
RTVSPropertyOp33
 70
     1
102
RTVSPropertyOp34
 70
     1
102
RTVSPropertyOp35
 70
     1
102
RTVSPropertyOp36
 70
     1
102
RTVSPropertyOp37
 70
     1
102
RTVSPropertyOp38
 70
     1
102
RTVSPropertyOp39
 70
     1
102
RTVSPropertyOp40
 70
     1
102
RTVSPropertyOp41
 70
     1
102
RTVSPropertyOp42
 70
     1
102
RTVSPropertyOp43
 70
     1
102
RTVSPropertyOp44
 70
     1
102
RTVSPropertyOp45
 70
     1
102
RTVSPropertyOp46
 70
     1
102
RTVSPropertyOp47
 70
     1
102
RTVSPropertyOp48
 70
     1
102
RTVSPropertyOp49
 70
     1
102
RTVSPropertyOp50
 70
     1
102
RTVSPropertyOp51
 70
     0
102
RTVSPropertyOp52
 70
     0
102
RTVSPropertyOp53
 70
     1
102
RTVSPropertyOp54
 70
     1
102
RTVSPropertyOp55
 70
     1
102
RTVSPropertyOp56
 70
     1
102
RTVSPropertyOp57
 70
     1
102
RTVSPost2010Prop28
280
     0
102
RTVSPost2010PropOp28
 70
     1
102
RTVSPost2010Prop29
280
     1
102
RTVSPost2010PropOp29
 70
     1
102
RTVSPost2010Prop30
280
     1
102
RTVSPost2010PropOp30
 70
     1
102
RTVSPost2010Prop31
280
     0
102
RTVSPost2010PropOp31
 70
     1
102
RTVSPost2010Prop32
280
     0
102
RTVSPost2010PropOp32
 70
     1
102
RTVSPost2010Prop33
280
     0
102
RTVSPost2010PropOp33
 70
     1
102
RTVSPost2010Prop34
280
     0
102
RTVSPost2010PropOp34
 70
     1
102
RTVSPost2010Prop35
280
     0
102
RTVSPost2010PropOp35
 70
     1
102
RTVSPost2010Prop36
280
     0
102
RTVSPost2010PropOp36
 70
     1
102
RTVSPost2010Prop37
 90
       50
102
RTVSPost2010PropOp37
 70
     1
102
RTVSPost2010Prop38
140
0.0
102
RTVSPost2010PropOp38
 70
     1
102
RTVSPost2010Prop39
140
1.0
102
RTVSPost2010PropOp39
 70
     1
102
RTVSPost2010Prop40
 90
        0
102
RTVSPost2010PropOp40
 70
     1
102
RTVSPost2010Prop41ColorIndex
 90
       18
102
RTVSPost2010Prop41ColorRGB
 90
        0
102
RTVSPost2010PropOp41
 70
     1
102
RTVSPost2010Prop42
 90
       50
102
RTVSPost2010PropOp42
 70
     1
102
RTVSPost2010Prop43
 90
        3
102
RTVSPost2010PropOp43
 70
     1
102
RTVSPost2010Prop44ColorIndex
 90
        5
102
RTVSPost2010Prop44ColorRGB
 90
      255
102
RTVSPost2010PropOp44
 70
     1
102
RTVSPost2010Prop45
280
     0
102
RTVSPost2010PropOp45
 70
     1
102
RTVSPost2010Prop46
 90
       50
102
RTVSPost2010PropOp46
 70
     1
102
RTVSPost2010Prop47
 90
       50
102
RTVSPost2010PropOp47
 70
     1
102
RTVSPost2010Prop48
 90
       50
102
RTVSPost2010PropOp48
 70
     1
102
RTVSPost2010Prop49
280
     0
102
RTVSPost2010PropOp49
 70
     1
102
RTVSPost2010Prop50
 90
       50
102
RTVSPost2010PropOp50
 70
     1
102
RTVSPost2010Prop51ColorIndex
 90
      256
102
RTVSPost2010Prop51ColorRGB
 90
-16777216
102
RTVSPost2010PropOp51
 70
     0
102
RTVSPost2010Prop52
140
1.0
102
RTVSPost2010PropOp52
 70
     0
102
RTVSPost2010Prop53
 90
        2
102
RTVSPost2010PropOp53
 70
     1
102
RTVSPost2010Prop54
  1
strokes_ogs.tif
102
RTVSPost2010PropOp54
 70
     1
102
RTVSPost2010Prop55
280
     0
102
RTVSPost2010PropOp55
 70
     1
102
RTVSPost2010Prop56
140
1.0
102
RTVSPost2010PropOp56
 70
     1
102
RTVSPost2010Prop57
140
1.0
102
RTVSPost2010PropOp57
 70
     1
  0
XRECORD
  5
355
102
{ACAD_REACTORS
330
354
102
}
330
354
100
AcDbXrecord
280
     1
102
RTVSPropertyOp0
 70
     1
102
RTVSPropertyOp1
 70
     1
102
RTVSPropertyOp2
 70
     1
102
RTVSPropertyOp3
 70
     1
102
RTVSPropertyOp4
 70
     1
102
RTVSPropertyOp5
 70
     1
102
RTVSPropertyOp6
 70
     1
102
RTVSPropertyOp7
 70
     1
102
RTVSPropertyOp8
 70
     1
102
RTVSPropertyOp9
 70
     1
102
RTVSPropertyOp10
 70
     1
102
RTVSPropertyOp11
 70
     1
102
RTVSPropertyOp12
 70
     1
102
RTVSPropertyOp13
 70
     1
102
RTVSPropertyOp14
 70
     1
102
RTVSPropertyOp15
 70
     1
102
RTVSPropertyOp16
 70
     1
102
RTVSPropertyOp17
 70
     1
102
RTVSPropertyOp18
 70
     1
102
RTVSPropertyOp19
 70
     1
102
RTVSPropertyOp20
 70
     1
102
RTVSPropertyOp21
 70
     1
102
RTVSPropertyOp22
 70
     1
102
RTVSPropertyOp23
 70
     1
102
RTVSPropertyOp24
 70
     1
102
RTVSPropertyOp25
 70
     1
102
RTVSPropertyOp26
 70
     1
102
RTVSPropertyOp27
 70
     1
102
RTVSPropertyOp28
 70
     1
102
RTVSPropertyOp29
 70
     1
102
RTVSPropertyOp30
 70
     1
102
RTVSPropertyOp31
 70
     1
102
RTVSPropertyOp32
 70
     1
102
RTVSPropertyOp33
 70
     1
102
RTVSPropertyOp34
 70
     1
102
RTVSPropertyOp35
 70
     1
102
RTVSPropertyOp36
 70
     1
102
RTVSPropertyOp37
 70
     1
102
RTVSPropertyOp38
 70
     1
102
RTVSPropertyOp39
 70
     1
102
RTVSPropertyOp40
 70
     1
102
RTVSPropertyOp41
 70
     1
102
RTVSPropertyOp42
 70
     1
102
RTVSPropertyOp43
 70
     1
102
RTVSPropertyOp44
 70
     1
102
RTVSPropertyOp45
 70
     1
102
RTVSPropertyOp46
 70
     1
102
RTVSPropertyOp47
 70
     1
102
RTVSPropertyOp48
 70
     1
102
RTVSPropertyOp49
 70
     1
102
RTVSPropertyOp50
 70
     1
102
RTVSPropertyOp51
 70
     0
102
RTVSPropertyOp52
 70
     0
102
RTVSPropertyOp53
 70
     1
102
RTVSPropertyOp54
 70
     1
102
RTVSPropertyOp55
 70
     1
102
RTVSPropertyOp56
 70
     1
102
RTVSPropertyOp57
 70
     1
102
RTVSPost2010Prop28
280
     0
102
RTVSPost2010PropOp28
 70
     1
102
RTVSPost2010Prop29
280
     1
102
RTVSPost2010PropOp29
 70
     1
102
RTVSPost2010Prop30
280
     1
102
RTVSPost2010PropOp30
 70
     1
102
RTVSPost2010Prop31
280
     0
102
RTVSPost2010PropOp31
 70
     1
102
RTVSPost2010Prop32
280
     0
102
RTVSPost2010PropOp32
 70
     1
102
RTVSPost2010Prop33
280
     0
102
RTVSPost2010PropOp33
 70
     1
102
RTVSPost2010Prop34
280
     0
102
RTVSPost2010PropOp34
 70
     1
102
RTVSPost2010Prop35
280
     0
102
RTVSPost2010PropOp35
 70
     1
102
RTVSPost2010Prop36
280
     0
102
RTVSPost2010PropOp36
 70
     1
102
RTVSPost2010Prop37
 90
       50
102
RTVSPost2010PropOp37
 70
     1
102
RTVSPost2010Prop38
140
0.0
102
RTVSPost2010PropOp38
 70
     1
102
RTVSPost2010Prop39
140
1.0
102
RTVSPost2010PropOp39
 70
     1
102
RTVSPost2010Prop40
 90
        0
102
RTVSPost2010PropOp40
 70
     1
102
RTVSPost2010Prop41ColorIndex
 90
       18
102
RTVSPost2010Prop41ColorRGB
 90
        0
102
RTVSPost2010PropOp41
 70
     1
102
RTVSPost2010Prop42
 90
       50
102
RTVSPost2010PropOp42
 70
     1
102
RTVSPost2010Prop43
 90
        3
102
RTVSPost2010PropOp43
 70
     1
102
RTVSPost2010Prop44ColorIndex
 90
        5
102
RTVSPost2010Prop44ColorRGB
 90
      255
102
RTVSPost2010PropOp44
 70
     1
102
RTVSPost2010Prop45
280
     0
102
RTVSPost2010PropOp45
 70
     1
102
RTVSPost2010Prop46
 90
       50
102
RTVSPost2010PropOp46
 70
     1
102
RTVSPost2010Prop47
 90
       50
102
RTVSPost2010PropOp47
 70
     1
102
RTVSPost2010Prop48
 90
       50
102
RTVSPost2010PropOp48
 70
     1
102
RTVSPost2010Prop49
280
     0
102
RTVSPost2010PropOp49
 70
     1
102
RTVSPost2010Prop50
 90
       50
102
RTVSPost2010PropOp50
 70
     1
102
RTVSPost2010Prop51ColorIndex
 90
      256
102
RTVSPost2010Prop51ColorRGB
 90
-16777216
102
RTVSPost2010PropOp51
 70
     0
102
RTVSPost2010Prop52
140
1.0
102
RTVSPost2010PropOp52
 70
     0
102
RTVSPost2010Prop53
 90
        2
102
RTVSPost2010PropOp53
 70
     1
102
RTVSPost2010Prop54
  1
strokes_ogs.tif
102
RTVSPost2010PropOp54
 70
     1
102
RTVSPost2010Prop55
280
     0
102
RTVSPost2010PropOp55
 70
     1
102
RTVSPost2010Prop56
140
1.0
102
RTVSPost2010PropOp56
 70
     1
102
RTVSPost2010Prop57
140
1.0
102
RTVSPost2010PropOp57
 70
     1
  0
XRECORD
  5
34F
102
{ACAD_REACTORS
330
34E
102
}
330
34E
100
AcDbXrecord
280
     1
102
RTVSPropertyOp0
 70
     1
102
RTVSPropertyOp1
 70
     1
102
RTVSPropertyOp2
 70
     1
102
RTVSPropertyOp3
 70
     1
102
RTVSPropertyOp4
 70
     1
102
RTVSPropertyOp5
 70
     1
102
RTVSPropertyOp6
 70
     1
102
RTVSPropertyOp7
 70
     1
102
RTVSPropertyOp8
 70
     1
102
RTVSPropertyOp9
 70
     1
102
RTVSPropertyOp10
 70
     1
102
RTVSPropertyOp11
 70
     1
102
RTVSPropertyOp12
 70
     1
102
RTVSPropertyOp13
 70
     1
102
RTVSPropertyOp14
 70
     1
102
RTVSPropertyOp15
 70
     1
102
RTVSPropertyOp16
 70
     1
102
RTVSPropertyOp17
 70
     1
102
RTVSPropertyOp18
 70
     1
102
RTVSPropertyOp19
 70
     1
102
RTVSPropertyOp20
 70
     1
102
RTVSPropertyOp21
 70
     1
102
RTVSPropertyOp22
 70
     1
102
RTVSPropertyOp23
 70
     1
102
RTVSPropertyOp24
 70
     1
102
RTVSPropertyOp25
 70
     1
102
RTVSPropertyOp26
 70
     1
102
RTVSPropertyOp27
 70
     1
102
RTVSPropertyOp28
 70
     1
102
RTVSPropertyOp29
 70
     1
102
RTVSPropertyOp30
 70
     1
102
RTVSPropertyOp31
 70
     1
102
RTVSPropertyOp32
 70
     1
102
RTVSPropertyOp33
 70
     1
102
RTVSPropertyOp34
 70
     1
102
RTVSPropertyOp35
 70
     1
102
RTVSPropertyOp36
 70
     1
102
RTVSPropertyOp37
 70
     1
102
RTVSPropertyOp38
 70
     1
102
RTVSPropertyOp39
 70
     1
102
RTVSPropertyOp40
 70
     1
102
RTVSPropertyOp41
 70
     1
102
RTVSPropertyOp42
 70
     1
102
RTVSPropertyOp43
 70
     1
102
RTVSPropertyOp44
 70
     1
102
RTVSPropertyOp45
 70
     1
102
RTVSPropertyOp46
 70
     1
102
RTVSPropertyOp47
 70
     1
102
RTVSPropertyOp48
 70
     1
102
RTVSPropertyOp49
 70
     1
102
RTVSPropertyOp50
 70
     1
102
RTVSPropertyOp51
 70
     0
102
RTVSPropertyOp52
 70
     0
102
RTVSPropertyOp53
 70
     1
102
RTVSPropertyOp54
 70
     1
102
RTVSPropertyOp55
 70
     1
102
RTVSPropertyOp56
 70
     1
102
RTVSPropertyOp57
 70
     1
102
RTVSPost2010Prop28
280
     0
102
RTVSPost2010PropOp28
 70
     1
102
RTVSPost2010Prop29
280
     1
102
RTVSPost2010PropOp29
 70
     1
102
RTVSPost2010Prop30
280
     1
102
RTVSPost2010PropOp30
 70
     1
102
RTVSPost2010Prop31
280
     0
102
RTVSPost2010PropOp31
 70
     1
102
RTVSPost2010Prop32
280
     0
102
RTVSPost2010PropOp32
 70
     1
102
RTVSPost2010Prop33
280
     0
102
RTVSPost2010PropOp33
 70
     1
102
RTVSPost2010Prop34
280
     0
102
RTVSPost2010PropOp34
 70
     1
102
RTVSPost2010Prop35
280
     0
102
RTVSPost2010PropOp35
 70
     1
102
RTVSPost2010Prop36
280
     0
102
RTVSPost2010PropOp36
 70
     1
102
RTVSPost2010Prop37
 90
       50
102
RTVSPost2010PropOp37
 70
     1
102
RTVSPost2010Prop38
140
0.0
102
RTVSPost2010PropOp38
 70
     1
102
RTVSPost2010Prop39
140
1.0
102
RTVSPost2010PropOp39
 70
     1
102
RTVSPost2010Prop40
 90
        0
102
RTVSPost2010PropOp40
 70
     1
102
RTVSPost2010Prop41ColorIndex
 90
       18
102
RTVSPost2010Prop41ColorRGB
 90
        0
102
RTVSPost2010PropOp41
 70
     1
102
RTVSPost2010Prop42
 90
       50
102
RTVSPost2010PropOp42
 70
     1
102
RTVSPost2010Prop43
 90
        3
102
RTVSPost2010PropOp43
 70
     1
102
RTVSPost2010Prop44ColorIndex
 90
        5
102
RTVSPost2010Prop44ColorRGB
 90
      255
102
RTVSPost2010PropOp44
 70
     1
102
RTVSPost2010Prop45
280
     0
102
RTVSPost2010PropOp45
 70
     1
102
RTVSPost2010Prop46
 90
       50
102
RTVSPost2010PropOp46
 70
     1
102
RTVSPost2010Prop47
 90
       50
102
RTVSPost2010PropOp47
 70
     1
102
RTVSPost2010Prop48
 90
       50
102
RTVSPost2010PropOp48
 70
     1
102
RTVSPost2010Prop49
280
     0
102
RTVSPost2010PropOp49
 70
     1
102
RTVSPost2010Prop50
 90
       50
102
RTVSPost2010PropOp50
 70
     1
102
RTVSPost2010Prop51ColorIndex
 90
      256
102
RTVSPost2010Prop51ColorRGB
 90
-16777216
102
RTVSPost2010PropOp51
 70
     0
102
RTVSPost2010Prop52
140
1.0
102
RTVSPost2010PropOp52
 70
     0
102
RTVSPost2010Prop53
 90
        2
102
RTVSPost2010PropOp53
 70
     1
102
RTVSPost2010Prop54
  1
strokes_ogs.tif
102
RTVSPost2010PropOp54
 70
     1
102
RTVSPost2010Prop55
280
     0
102
RTVSPost2010PropOp55
 70
     1
102
RTVSPost2010Prop56
140
1.0
102
RTVSPost2010PropOp56
 70
     1
102
RTVSPost2010Prop57
140
1.0
102
RTVSPost2010PropOp57
 70
     1
  0
XRECORD
  5
351
102
{ACAD_REACTORS
330
350
102
}
330
350
100
AcDbXrecord
280
     1
102
RTVSPropertyOp0
 70
     1
102
RTVSPropertyOp1
 70
     1
102
RTVSPropertyOp2
 70
     1
102
RTVSPropertyOp3
 70
     1
102
RTVSPropertyOp4
 70
     1
102
RTVSPropertyOp5
 70
     1
102
RTVSPropertyOp6
 70
     1
102
RTVSPropertyOp7
 70
     1
102
RTVSPropertyOp8
 70
     1
102
RTVSPropertyOp9
 70
     1
102
RTVSPropertyOp10
 70
     1
102
RTVSPropertyOp11
 70
     1
102
RTVSPropertyOp12
 70
     1
102
RTVSPropertyOp13
 70
     1
102
RTVSPropertyOp14
 70
     1
102
RTVSPropertyOp15
 70
     1
102
RTVSPropertyOp16
 70
     1
102
RTVSPropertyOp17
 70
     1
102
RTVSPropertyOp18
 70
     1
102
RTVSPropertyOp19
 70
     1
102
RTVSPropertyOp20
 70
     1
102
RTVSPropertyOp21
 70
     1
102
RTVSPropertyOp22
 70
     1
102
RTVSPropertyOp23
 70
     1
102
RTVSPropertyOp24
 70
     1
102
RTVSPropertyOp25
 70
     1
102
RTVSPropertyOp26
 70
     1
102
RTVSPropertyOp27
 70
     1
102
RTVSPropertyOp28
 70
     1
102
RTVSPropertyOp29
 70
     1
102
RTVSPropertyOp30
 70
     1
102
RTVSPropertyOp31
 70
     1
102
RTVSPropertyOp32
 70
     1
102
RTVSPropertyOp33
 70
     1
102
RTVSPropertyOp34
 70
     1
102
RTVSPropertyOp35
 70
     1
102
RTVSPropertyOp36
 70
     1
102
RTVSPropertyOp37
 70
     1
102
RTVSPropertyOp38
 70
     1
102
RTVSPropertyOp39
 70
     1
102
RTVSPropertyOp40
 70
     1
102
RTVSPropertyOp41
 70
     1
102
RTVSPropertyOp42
 70
     1
102
RTVSPropertyOp43
 70
     1
102
RTVSPropertyOp44
 70
     1
102
RTVSPropertyOp45
 70
     1
102
RTVSPropertyOp46
 70
     1
102
RTVSPropertyOp47
 70
     1
102
RTVSPropertyOp48
 70
     1
102
RTVSPropertyOp49
 70
     1
102
RTVSPropertyOp50
 70
     1
102
RTVSPropertyOp51
 70
     0
102
RTVSPropertyOp52
 70
     0
102
RTVSPropertyOp53
 70
     1
102
RTVSPropertyOp54
 70
     1
102
RTVSPropertyOp55
 70
     1
102
RTVSPropertyOp56
 70
     1
102
RTVSPropertyOp57
 70
     1
102
RTVSPost2010Prop28
280
     0
102
RTVSPost2010PropOp28
 70
     1
102
RTVSPost2010Prop29
280
     1
102
RTVSPost2010PropOp29
 70
     1
102
RTVSPost2010Prop30
280
     1
102
RTVSPost2010PropOp30
 70
     1
102
RTVSPost2010Prop31
280
     0
102
RTVSPost2010PropOp31
 70
     1
102
RTVSPost2010Prop32
280
     0
102
RTVSPost2010PropOp32
 70
     1
102
RTVSPost2010Prop33
280
     0
102
RTVSPost2010PropOp33
 70
     1
102
RTVSPost2010Prop34
280
     0
102
RTVSPost2010PropOp34
 70
     1
102
RTVSPost2010Prop35
280
     0
102
RTVSPost2010PropOp35
 70
     1
102
RTVSPost2010Prop36
280
     0
102
RTVSPost2010PropOp36
 70
     1
102
RTVSPost2010Prop37
 90
       50
102
RTVSPost2010PropOp37
 70
     1
102
RTVSPost2010Prop38
140
0.0
102
RTVSPost2010PropOp38
 70
     1
102
RTVSPost2010Prop39
140
1.0
102
RTVSPost2010PropOp39
 70
     1
102
RTVSPost2010Prop40
 90
        0
102
RTVSPost2010PropOp40
 70
     1
102
RTVSPost2010Prop41ColorIndex
 90
       18
102
RTVSPost2010Prop41ColorRGB
 90
        0
102
RTVSPost2010PropOp41
 70
     1
102
RTVSPost2010Prop42
 90
       50
102
RTVSPost2010PropOp42
 70
     1
102
RTVSPost2010Prop43
 90
        3
102
RTVSPost2010PropOp43
 70
     1
102
RTVSPost2010Prop44ColorIndex
 90
        5
102
RTVSPost2010Prop44ColorRGB
 90
      255
102
RTVSPost2010PropOp44
 70
     1
102
RTVSPost2010Prop45
280
     0
102
RTVSPost2010PropOp45
 70
     1
102
RTVSPost2010Prop46
 90
       50
102
RTVSPost2010PropOp46
 70
     1
102
RTVSPost2010Prop47
 90
       50
102
RTVSPost2010PropOp47
 70
     1
102
RTVSPost2010Prop48
 90
       50
102
RTVSPost2010PropOp48
 70
     1
102
RTVSPost2010Prop49
280
     0
102
RTVSPost2010PropOp49
 70
     1
102
RTVSPost2010Prop50
 90
       50
102
RTVSPost2010PropOp50
 70
     1
102
RTVSPost2010Prop51ColorIndex
 90
      256
102
RTVSPost2010Prop51ColorRGB
 90
-16777216
102
RTVSPost2010PropOp51
 70
     0
102
RTVSPost2010Prop52
140
1.0
102
RTVSPost2010PropOp52
 70
     0
102
RTVSPost2010Prop53
 90
        2
102
RTVSPost2010PropOp53
 70
     1
102
RTVSPost2010Prop54
  1
strokes_ogs.tif
102
RTVSPost2010PropOp54
 70
     1
102
RTVSPost2010Prop55
280
     0
102
RTVSPost2010PropOp55
 70
     1
102
RTVSPost2010Prop56
140
1.0
102
RTVSPost2010PropOp56
 70
     1
102
RTVSPost2010Prop57
140
1.0
102
RTVSPost2010PropOp57
 70
     1
  0
XRECORD
  5
341
102
{ACAD_REACTORS
330
340
102
}
330
340
100
AcDbXrecord
280
     1
102
RTVSPropertyOp0
 70
     1
102
RTVSPropertyOp1
 70
     1
102
RTVSPropertyOp2
 70
     1
102
RTVSPropertyOp3
 70
     1
102
RTVSPropertyOp4
 70
     1
102
RTVSPropertyOp5
 70
     1
102
RTVSPropertyOp6
 70
     1
102
RTVSPropertyOp7
 70
     1
102
RTVSPropertyOp8
 70
     1
102
RTVSPropertyOp9
 70
     1
102
RTVSPropertyOp10
 70
     1
102
RTVSPropertyOp11
 70
     1
102
RTVSPropertyOp12
 70
     1
102
RTVSPropertyOp13
 70
     1
102
RTVSPropertyOp14
 70
     1
102
RTVSPropertyOp15
 70
     1
102
RTVSPropertyOp16
 70
     1
102
RTVSPropertyOp17
 70
     1
102
RTVSPropertyOp18
 70
     1
102
RTVSPropertyOp19
 70
     1
102
RTVSPropertyOp20
 70
     1
102
RTVSPropertyOp21
 70
     1
102
RTVSPropertyOp22
 70
     1
102
RTVSPropertyOp23
 70
     1
102
RTVSPropertyOp24
 70
     1
102
RTVSPropertyOp25
 70
     1
102
RTVSPropertyOp26
 70
     1
102
RTVSPropertyOp27
 70
     1
102
RTVSPropertyOp28
 70
     1
102
RTVSPropertyOp29
 70
     1
102
RTVSPropertyOp30
 70
     1
102
RTVSPropertyOp31
 70
     1
102
RTVSPropertyOp32
 70
     1
102
RTVSPropertyOp33
 70
     1
102
RTVSPropertyOp34
 70
     1
102
RTVSPropertyOp35
 70
     1
102
RTVSPropertyOp36
 70
     1
102
RTVSPropertyOp37
 70
     1
102
RTVSPropertyOp38
 70
     1
102
RTVSPropertyOp39
 70
     1
102
RTVSPropertyOp40
 70
     1
102
RTVSPropertyOp41
 70
     1
102
RTVSPropertyOp42
 70
     1
102
RTVSPropertyOp43
 70
     1
102
RTVSPropertyOp44
 70
     1
102
RTVSPropertyOp45
 70
     1
102
RTVSPropertyOp46
 70
     1
102
RTVSPropertyOp47
 70
     1
102
RTVSPropertyOp48
 70
     1
102
RTVSPropertyOp49
 70
     1
102
RTVSPropertyOp50
 70
     1
102
RTVSPropertyOp51
 70
     0
102
RTVSPropertyOp52
 70
     0
102
RTVSPropertyOp53
 70
     1
102
RTVSPropertyOp54
 70
     1
102
RTVSPropertyOp55
 70
     1
102
RTVSPropertyOp56
 70
     1
102
RTVSPropertyOp57
 70
     1
102
RTVSPost2010Prop28
280
     0
102
RTVSPost2010PropOp28
 70
     1
102
RTVSPost2010Prop29
280
     1
102
RTVSPost2010PropOp29
 70
     1
102
RTVSPost2010Prop30
280
     1
102
RTVSPost2010PropOp30
 70
     1
102
RTVSPost2010Prop31
280
     0
102
RTVSPost2010PropOp31
 70
     1
102
RTVSPost2010Prop32
280
     0
102
RTVSPost2010PropOp32
 70
     1
102
RTVSPost2010Prop33
280
     0
102
RTVSPost2010PropOp33
 70
     1
102
RTVSPost2010Prop34
280
     0
102
RTVSPost2010PropOp34
 70
     1
102
RTVSPost2010Prop35
280
     0
102
RTVSPost2010PropOp35
 70
     1
102
RTVSPost2010Prop36
280
     0
102
RTVSPost2010PropOp36
 70
     1
102
RTVSPost2010Prop37
 90
       50
102
RTVSPost2010PropOp37
 70
     1
102
RTVSPost2010Prop38
140
0.0
102
RTVSPost2010PropOp38
 70
     1
102
RTVSPost2010Prop39
140
1.0
102
RTVSPost2010PropOp39
 70
     1
102
RTVSPost2010Prop40
 90
        0
102
RTVSPost2010PropOp40
 70
     1
102
RTVSPost2010Prop41ColorIndex
 90
       18
102
RTVSPost2010Prop41ColorRGB
 90
        0
102
RTVSPost2010PropOp41
 70
     1
102
RTVSPost2010Prop42
 90
       50
102
RTVSPost2010PropOp42
 70
     1
102
RTVSPost2010Prop43
 90
        3
102
RTVSPost2010PropOp43
 70
     1
102
RTVSPost2010Prop44ColorIndex
 90
        5
102
RTVSPost2010Prop44ColorRGB
 90
      255
102
RTVSPost2010PropOp44
 70
     1
102
RTVSPost2010Prop45
280
     0
102
RTVSPost2010PropOp45
 70
     1
102
RTVSPost2010Prop46
 90
       50
102
RTVSPost2010PropOp46
 70
     1
102
RTVSPost2010Prop47
 90
       50
102
RTVSPost2010PropOp47
 70
     1
102
RTVSPost2010Prop48
 90
       50
102
RTVSPost2010PropOp48
 70
     1
102
RTVSPost2010Prop49
280
     0
102
RTVSPost2010PropOp49
 70
     1
102
RTVSPost2010Prop50
 90
       50
102
RTVSPost2010PropOp50
 70
     1
102
RTVSPost2010Prop51ColorIndex
 90
      256
102
RTVSPost2010Prop51ColorRGB
 90
-16777216
102
RTVSPost2010PropOp51
 70
     0
102
RTVSPost2010Prop52
140
1.0
102
RTVSPost2010PropOp52
 70
     0
102
RTVSPost2010Prop53
 90
        2
102
RTVSPost2010PropOp53
 70
     1
102
RTVSPost2010Prop54
  1
strokes_ogs.tif
102
RTVSPost2010PropOp54
 70
     1
102
RTVSPost2010Prop55
280
     0
102
RTVSPost2010PropOp55
 70
     1
102
RTVSPost2010Prop56
140
1.0
102
RTVSPost2010PropOp56
 70
     1
102
RTVSPost2010Prop57
140
1.0
102
RTVSPost2010PropOp57
 70
     1
  0
XRECORD
  5
333
102
{ACAD_REACTORS
330
332
102
}
330
332
100
AcDbXrecord
280
     1
102
RTVSPropertyOp0
 70
     1
102
RTVSPropertyOp1
 70
     1
102
RTVSPropertyOp2
 70
     1
102
RTVSPropertyOp3
 70
     1
102
RTVSPropertyOp4
 70
     1
102
RTVSPropertyOp5
 70
     1
102
RTVSPropertyOp6
 70
     1
102
RTVSPropertyOp7
 70
     1
102
RTVSPropertyOp8
 70
     1
102
RTVSPropertyOp9
 70
     1
102
RTVSPropertyOp10
 70
     1
102
RTVSPropertyOp11
 70
     1
102
RTVSPropertyOp12
 70
     1
102
RTVSPropertyOp13
 70
     1
102
RTVSPropertyOp14
 70
     1
102
RTVSPropertyOp15
 70
     1
102
RTVSPropertyOp16
 70
     1
102
RTVSPropertyOp17
 70
     1
102
RTVSPropertyOp18
 70
     1
102
RTVSPropertyOp19
 70
     1
102
RTVSPropertyOp20
 70
     1
102
RTVSPropertyOp21
 70
     1
102
RTVSPropertyOp22
 70
     1
102
RTVSPropertyOp23
 70
     1
102
RTVSPropertyOp24
 70
     1
102
RTVSPropertyOp25
 70
     1
102
RTVSPropertyOp26
 70
     1
102
RTVSPropertyOp27
 70
     1
102
RTVSPropertyOp28
 70
     1
102
RTVSPropertyOp29
 70
     1
102
RTVSPropertyOp30
 70
     1
102
RTVSPropertyOp31
 70
     1
102
RTVSPropertyOp32
 70
     1
102
RTVSPropertyOp33
 70
     1
102
RTVSPropertyOp34
 70
     1
102
RTVSPropertyOp35
 70
     1
102
RTVSPropertyOp36
 70
     1
102
RTVSPropertyOp37
 70
     1
102
RTVSPropertyOp38
 70
     1
102
RTVSPropertyOp39
 70
     1
102
RTVSPropertyOp40
 70
     1
102
RTVSPropertyOp41
 70
     1
102
RTVSPropertyOp42
 70
     1
102
RTVSPropertyOp43
 70
     1
102
RTVSPropertyOp44
 70
     1
102
RTVSPropertyOp45
 70
     1
102
RTVSPropertyOp46
 70
     1
102
RTVSPropertyOp47
 70
     1
102
RTVSPropertyOp48
 70
     1
102
RTVSPropertyOp49
 70
     1
102
RTVSPropertyOp50
 70
     1
102
RTVSPropertyOp51
 70
     0
102
RTVSPropertyOp52
 70
     0
102
RTVSPropertyOp53
 70
     1
102
RTVSPropertyOp54
 70
     1
102
RTVSPropertyOp55
 70
     1
102
RTVSPropertyOp56
 70
     1
102
RTVSPropertyOp57
 70
     1
102
RTVSPost2010Prop28
280
     0
102
RTVSPost2010PropOp28
 70
     1
102
RTVSPost2010Prop29
280
     1
102
RTVSPost2010PropOp29
 70
     1
102
RTVSPost2010Prop30
280
     1
102
RTVSPost2010PropOp30
 70
     1
102
RTVSPost2010Prop31
280
     0
102
RTVSPost2010PropOp31
 70
     1
102
RTVSPost2010Prop32
280
     0
102
RTVSPost2010PropOp32
 70
     1
102
RTVSPost2010Prop33
280
     0
102
RTVSPost2010PropOp33
 70
     1
102
RTVSPost2010Prop34
280
     0
102
RTVSPost2010PropOp34
 70
     1
102
RTVSPost2010Prop35
280
     0
102
RTVSPost2010PropOp35
 70
     1
102
RTVSPost2010Prop36
280
     0
102
RTVSPost2010PropOp36
 70
     1
102
RTVSPost2010Prop37
 90
       50
102
RTVSPost2010PropOp37
 70
     1
102
RTVSPost2010Prop38
140
0.0
102
RTVSPost2010PropOp38
 70
     1
102
RTVSPost2010Prop39
140
1.0
102
RTVSPost2010PropOp39
 70
     1
102
RTVSPost2010Prop40
 90
        0
102
RTVSPost2010PropOp40
 70
     1
102
RTVSPost2010Prop41ColorIndex
 90
       18
102
RTVSPost2010Prop41ColorRGB
 90
        0
102
RTVSPost2010PropOp41
 70
     1
102
RTVSPost2010Prop42
 90
       50
102
RTVSPost2010PropOp42
 70
     1
102
RTVSPost2010Prop43
 90
        3
102
RTVSPost2010PropOp43
 70
     1
102
RTVSPost2010Prop44ColorIndex
 90
        5
102
RTVSPost2010Prop44ColorRGB
 90
      255
102
RTVSPost2010PropOp44
 70
     1
102
RTVSPost2010Prop45
280
     0
102
RTVSPost2010PropOp45
 70
     1
102
RTVSPost2010Prop46
 90
       50
102
RTVSPost2010PropOp46
 70
     1
102
RTVSPost2010Prop47
 90
       50
102
RTVSPost2010PropOp47
 70
     1
102
RTVSPost2010Prop48
 90
       50
102
RTVSPost2010PropOp48
 70
     1
102
RTVSPost2010Prop49
280
     0
102
RTVSPost2010PropOp49
 70
     1
102
RTVSPost2010Prop50
 90
       50
102
RTVSPost2010PropOp50
 70
     1
102
RTVSPost2010Prop51ColorIndex
 90
      256
102
RTVSPost2010Prop51ColorRGB
 90
-16777216
102
RTVSPost2010PropOp51
 70
     0
102
RTVSPost2010Prop52
140
1.0
102
RTVSPost2010PropOp52
 70
     0
102
RTVSPost2010Prop53
 90
        2
102
RTVSPost2010PropOp53
 70
     1
102
RTVSPost2010Prop54
  1
strokes_ogs.tif
102
RTVSPost2010PropOp54
 70
     1
102
RTVSPost2010Prop55
280
     0
102
RTVSPost2010PropOp55
 70
     1
102
RTVSPost2010Prop56
140
1.0
102
RTVSPost2010PropOp56
 70
     1
102
RTVSPost2010Prop57
140
1.0
102
RTVSPost2010PropOp57
 70
     1
  0
XRECORD
  5
353
102
{ACAD_REACTORS
330
352
102
}
330
352
100
AcDbXrecord
280
     1
102
RTVSPropertyOp0
 70
     1
102
RTVSPropertyOp1
 70
     1
102
RTVSPropertyOp2
 70
     1
102
RTVSPropertyOp3
 70
     1
102
RTVSPropertyOp4
 70
     1
102
RTVSPropertyOp5
 70
     1
102
RTVSPropertyOp6
 70
     1
102
RTVSPropertyOp7
 70
     1
102
RTVSPropertyOp8
 70
     1
102
RTVSPropertyOp9
 70
     1
102
RTVSPropertyOp10
 70
     1
102
RTVSPropertyOp11
 70
     1
102
RTVSPropertyOp12
 70
     1
102
RTVSPropertyOp13
 70
     1
102
RTVSPropertyOp14
 70
     1
102
RTVSPropertyOp15
 70
     1
102
RTVSPropertyOp16
 70
     1
102
RTVSPropertyOp17
 70
     1
102
RTVSPropertyOp18
 70
     1
102
RTVSPropertyOp19
 70
     1
102
RTVSPropertyOp20
 70
     1
102
RTVSPropertyOp21
 70
     1
102
RTVSPropertyOp22
 70
     1
102
RTVSPropertyOp23
 70
     1
102
RTVSPropertyOp24
 70
     1
102
RTVSPropertyOp25
 70
     1
102
RTVSPropertyOp26
 70
     1
102
RTVSPropertyOp27
 70
     1
102
RTVSPropertyOp28
 70
     1
102
RTVSPropertyOp29
 70
     1
102
RTVSPropertyOp30
 70
     1
102
RTVSPropertyOp31
 70
     1
102
RTVSPropertyOp32
 70
     1
102
RTVSPropertyOp33
 70
     1
102
RTVSPropertyOp34
 70
     1
102
RTVSPropertyOp35
 70
     1
102
RTVSPropertyOp36
 70
     1
102
RTVSPropertyOp37
 70
     1
102
RTVSPropertyOp38
 70
     1
102
RTVSPropertyOp39
 70
     1
102
RTVSPropertyOp40
 70
     1
102
RTVSPropertyOp41
 70
     1
102
RTVSPropertyOp42
 70
     1
102
RTVSPropertyOp43
 70
     1
102
RTVSPropertyOp44
 70
     1
102
RTVSPropertyOp45
 70
     1
102
RTVSPropertyOp46
 70
     1
102
RTVSPropertyOp47
 70
     1
102
RTVSPropertyOp48
 70
     1
102
RTVSPropertyOp49
 70
     1
102
RTVSPropertyOp50
 70
     1
102
RTVSPropertyOp51
 70
     0
102
RTVSPropertyOp52
 70
     0
102
RTVSPropertyOp53
 70
     1
102
RTVSPropertyOp54
 70
     1
102
RTVSPropertyOp55
 70
     1
102
RTVSPropertyOp56
 70
     1
102
RTVSPropertyOp57
 70
     1
102
RTVSPost2010Prop28
280
     0
102
RTVSPost2010PropOp28
 70
     1
102
RTVSPost2010Prop29
280
     1
102
RTVSPost2010PropOp29
 70
     1
102
RTVSPost2010Prop30
280
     1
102
RTVSPost2010PropOp30
 70
     1
102
RTVSPost2010Prop31
280
     0
102
RTVSPost2010PropOp31
 70
     1
102
RTVSPost2010Prop32
280
     0
102
RTVSPost2010PropOp32
 70
     1
102
RTVSPost2010Prop33
280
     0
102
RTVSPost2010PropOp33
 70
     1
102
RTVSPost2010Prop34
280
     0
102
RTVSPost2010PropOp34
 70
     1
102
RTVSPost2010Prop35
280
     0
102
RTVSPost2010PropOp35
 70
     1
102
RTVSPost2010Prop36
280
     0
102
RTVSPost2010PropOp36
 70
     1
102
RTVSPost2010Prop37
 90
       50
102
RTVSPost2010PropOp37
 70
     1
102
RTVSPost2010Prop38
140
0.0
102
RTVSPost2010PropOp38
 70
     1
102
RTVSPost2010Prop39
140
1.0
102
RTVSPost2010PropOp39
 70
     1
102
RTVSPost2010Prop40
 90
        0
102
RTVSPost2010PropOp40
 70
     1
102
RTVSPost2010Prop41ColorIndex
 90
       18
102
RTVSPost2010Prop41ColorRGB
 90
        0
102
RTVSPost2010PropOp41
 70
     1
102
RTVSPost2010Prop42
 90
       50
102
RTVSPost2010PropOp42
 70
     1
102
RTVSPost2010Prop43
 90
        3
102
RTVSPost2010PropOp43
 70
     1
102
RTVSPost2010Prop44ColorIndex
 90
        5
102
RTVSPost2010Prop44ColorRGB
 90
      255
102
RTVSPost2010PropOp44
 70
     1
102
RTVSPost2010Prop45
280
     0
102
RTVSPost2010PropOp45
 70
     1
102
RTVSPost2010Prop46
 90
       50
102
RTVSPost2010PropOp46
 70
     1
102
RTVSPost2010Prop47
 90
       50
102
RTVSPost2010PropOp47
 70
     1
102
RTVSPost2010Prop48
 90
       50
102
RTVSPost2010PropOp48
 70
     1
102
RTVSPost2010Prop49
280
     0
102
RTVSPost2010PropOp49
 70
     1
102
RTVSPost2010Prop50
 90
       50
102
RTVSPost2010PropOp50
 70
     1
102
RTVSPost2010Prop51ColorIndex
 90
      256
102
RTVSPost2010Prop51ColorRGB
 90
-16777216
102
RTVSPost2010PropOp51
 70
     0
102
RTVSPost2010Prop52
140
1.0
102
RTVSPost2010PropOp52
 70
     0
102
RTVSPost2010Prop53
 90
        2
102
RTVSPost2010PropOp53
 70
     1
102
RTVSPost2010Prop54
  1
strokes_ogs.tif
102
RTVSPost2010PropOp54
 70
     1
102
RTVSPost2010Prop55
280
     0
102
RTVSPost2010PropOp55
 70
     1
102
RTVSPost2010Prop56
140
1.0
102
RTVSPost2010PropOp56
 70
     1
102
RTVSPost2010Prop57
140
1.0
102
RTVSPost2010PropOp57
 70
     1
  0
ENDSEC
  0
EOF
