  0
SECTION
  2
HEADER
  9
$ACADVER
  1
AC1014
  9
$HANDSEED
  5
FFFF
  9
$MEASUREMENT
 70
     1
  0
ENDSEC
  0
SECTION
  2
TABLES
  0
TABLE
  2
VPORT
  5
8
330
0
100
AcDbSymbolTable
 70
     4
  0
VPORT
  5
2E
330
8
100
AcDbSymbolTableRecord
100
AcDbViewportTableRecord
  2
*ACTIVE
 70
     0
 10
0.0
 20
0.0
 11
1.0
 21
1.0
 12
210.0
 22
148.5
 13
0.0
 23
0.0
 14
10.0
 24
10.0
 15
10.0
 25
10.0
 16
0.0
 26
0.0
 36
1.0
 17
0.0
 27
0.0
 37
0.0
 40
341.0
 41
1.24
 42
50.0
 43
0.0
 44
0.0
 50
0.0
 51
0.0
 71
     0
 72
   100
 73
     1
 74
     3
 75
     0
 76
     0
 77
     0
 78
     0
  0
ENDTAB
  0
TABLE
  2
LTYPE
  5
5
330
0
100
AcDbSymbolTable
 70
     1
  0
LTYPE
  5
14
330
5
100
AcDbSymbolTableRecord
100
AcDbLinetypeTableRecord
  2
BYBLOCK
 70
     0
  3

 72
    65
 73
     0
 40
0.0
  0
LTYPE
  5
15
330
5
100
AcDbSymbolTableRecord
100
AcDbLinetypeTableRecord
  2
BYLAYER
 70
     0
  3

 72
    65
 73
     0
 40
0.0
  0
LTYPE
  5
16
330
5
100
AcDbSymbolTableRecord
100
AcDbLinetypeTableRecord
  2
CONTINUOUS
 70
     0
  3
Solid line
 72
    65
 73
     0
 40
0.0
  0
ENDTAB
  0
TABLE
  2
LAYER
  5
2
100
AcDbSymbolTable
 70
3
  0
LAYER
  5
50
100
AcDbSymbolTableRecord
100
AcDbLayerTableRecord
  2
0
 70
0
  6
CONTINUOUS
  0
LAYER
  5
51
100
AcDbSymbolTableRecord
100
AcDbLayerTableRecord
  2
Layer_1
 70
0
  6
CONTINUOUS
  0
LAYER
  5
52
100
AcDbSymbolTableRecord
100
AcDbLayerTableRecord
  2
newlayer
 70
0
  6
CONTINUOUS
  0
ENDTAB
  0
TABLE
  2
STYLE
  5
3
330
0
100
AcDbSymbolTable
 70
     1
  0
STYLE
  5
11
330
3
100
AcDbSymbolTableRecord
100
AcDbTextStyleTableRecord
  2
STANDARD
 70
     0
 40
0.0
 41
1.0
 50
0.0
 71
     0
 42
2.5
  3
txt
  4

  0
ENDTAB
  0
TABLE
  2
VIEW
  5
6
330
0
100
AcDbSymbolTable
 70
     0
  0
ENDTAB
  0
TABLE
  2
UCS
  5
7
330
0
100
AcDbSymbolTable
 70
     0
  0
ENDTAB
  0
TABLE
  2
APPID
  5
9
330
0
100
AcDbSymbolTable
 70
     2
  0
APPID
  5
12
330
9
100
AcDbSymbolTableRecord
100
AcDbRegAppTableRecord
  2
ACAD
 70
     0
  0
ENDTAB
  0
TABLE
  2
DIMSTYLE
  5
A
330
0
100
AcDbSymbolTable
 70
     1
  0
DIMSTYLE
105
27
330
A
100
AcDbSymbolTableRecord
100
AcDbDimStyleTableRecord
  2
ISO-25
 70
     0
  3

  4

  5

  6

  7

 40
1.0
 41
2.5
 42
0.625
 43
3.75
 44
1.25
 45
0.0
 46
0.0
 47
0.0
 48
0.0
140
2.5
141
2.5
142
0.0
143
0.03937007874016
144
1.0
145
0.0
146
1.0
147
0.625
 71
     0
 72
     0
 73
     0
 74
     0
 75
     0
 76
     0
 77
     1
 78
     8
170
     0
171
     3
172
     1
173
     0
174
     0
175
     0
176
     0
177
     0
178
     0
270
     2
271
     2
272
     2
273
     2
274
     3
340
11
275
     0
280
     0
281
     0
282
     0
283
     0
284
     8
285
     0
286
     0
287
     3
288
     0
  0
ENDTAB
  0
TABLE
  2
BLOCK_RECORD
  5
1
330
0
100
AcDbSymbolTable
 70
     1
  0
BLOCK_RECORD
  5
1F
330
1
100
AcDbSymbolTableRecord
100
AcDbBlockTableRecord
  2
*MODEL_SPACE
  0
BLOCK_RECORD
  5
1B
330
1
100
AcDbSymbolTableRecord
100
AcDbBlockTableRecord
  2
*PAPER_SPACE
  0
ENDTAB
  0
ENDSEC
  0
SECTION
  2
BLOCKS
  0
BLOCK
  5
20
330
1F
100
AcDbEntity
  8
0
100
AcDbBlockBegin
  2
*MODEL_SPACE
 70
     0
 10
0.0
 20
0.0
 30
0.0
  3
*MODEL_SPACE
  1

  0
ENDBLK
  5
21
330
1F
100
AcDbEntity
  8
0
100
AcDbBlockEnd
  0
BLOCK
  5
1C
330
1B
100
AcDbEntity
 67
     1
  8
0
100
AcDbBlockBegin
  2
*PAPER_SPACE
  1

  0
ENDBLK
  5
1D
330
1B
100
AcDbEntity
 67
     1
  8
0
100
AcDbBlockEnd
  0
ENDSEC
  0
SECTION
  2
ENTITIES
  0
LINE
  5
100
100
AcDbEntity
  8
newlayer
 62
7
100
AcDbLine
 10
152.201400
 20
570.806912
 30
0.0
 11
131.921400
 21
570.806912
 31
0.0
  0
LINE
  5
101
100
AcDbEntity
  8
newlayer
 62
7
100
AcDbLine
 10
131.921400
 20
570.806912
 30
0.0
 11
109.701401
 21
570.806912
 31
0.0
  0
LINE
  5
102
100
AcDbEntity
  8
newlayer
 62
7
100
AcDbLine
 10
109.701401
 20
570.806912
 30
0.0
 11
89.421400
 21
570.806912
 31
0.0
  0
LINE
  5
103
100
AcDbEntity
  8
newlayer
 62
7
100
AcDbLine
 10
89.421400
 20
570.806912
 30
0.0
 11
67.201401
 21
570.806912
 31
0.0
  0
LINE
  5
104
100
AcDbEntity
  8
newlayer
 62
7
100
AcDbLine
 10
67.201401
 20
570.806912
 30
0.0
 11
46.921400
 21
570.806912
 31
0.0
  0
LINE
  5
105
100
AcDbEntity
  8
newlayer
 62
7
100
AcDbLine
 10
46.921400
 20
570.806912
 30
0.0
 11
32.561400
 21
570.806912
 31
0.0
  0
LINE
  5
106
100
AcDbEntity
  8
newlayer
 62
7
100
AcDbLine
 10
32.561400
 20
570.806912
 30
0.0
 11
32.561400
 21
582.666906
 31
0.0
  0
LINE
  5
107
100
AcDbEntity
  8
newlayer
 62
7
100
AcDbLine
 10
32.561400
 20
582.666906
 30
0.0
 11
24.561400
 21
582.666906
 31
0.0
  0
LINE
  5
108
100
AcDbEntity
  8
newlayer
 62
7
100
AcDbLine
 10
24.561400
 20
582.666906
 30
0.0
 11
24.561400
 21
602.946887
 31
0.0
  0
LINE
  5
109
100
AcDbEntity
  8
newlayer
 62
7
100
AcDbLine
 10
24.561400
 20
602.946887
 30
0.0
 11
32.561400
 21
602.946887
 31
0.0
  0
LINE
  5
10a
100
AcDbEntity
  8
newlayer
 62
7
100
AcDbLine
 10
32.561400
 20
602.946887
 30
0.0
 11
32.561400
 21
622.666900
 31
0.0
  0
LINE
  5
10b
100
AcDbEntity
  8
newlayer
 62
7
100
AcDbLine
 10
32.561400
 20
622.666900
 30
0.0
 11
24.561400
 21
622.666900
 31
0.0
  0
LINE
  5
10c
100
AcDbEntity
  8
newlayer
 62
7
100
AcDbLine
 10
24.561400
 20
622.666900
 30
0.0
 11
24.561400
 21
642.946897
 31
0.0
  0
LINE
  5
10d
100
AcDbEntity
  8
newlayer
 62
7
100
AcDbLine
 10
24.561400
 20
642.946897
 30
0.0
 11
32.561400
 21
642.946897
 31
0.0
  0
LINE
  5
10e
100
AcDbEntity
  8
newlayer
 62
7
100
AcDbLine
 10
32.561400
 20
642.946897
 30
0.0
 11
32.561400
 21
662.666899
 31
0.0
  0
LINE
  5
10f
100
AcDbEntity
  8
newlayer
 62
7
100
AcDbLine
 10
32.561400
 20
662.666899
 30
0.0
 11
24.561400
 21
662.666899
 31
0.0
  0
LINE
  5
110
100
AcDbEntity
  8
newlayer
 62
7
100
AcDbLine
 10
24.561400
 20
662.666899
 30
0.0
 11
24.561400
 21
682.946899
 31
0.0
  0
LINE
  5
111
100
AcDbEntity
  8
newlayer
 62
7
100
AcDbLine
 10
24.561400
 20
682.946899
 30
0.0
 11
32.561400
 21
682.946899
 31
0.0
  0
LINE
  5
112
100
AcDbEntity
  8
newlayer
 62
7
100
AcDbLine
 10
32.561400
 20
682.946899
 30
0.0
 11
32.561400
 21
702.666898
 31
0.0
  0
LINE
  5
113
100
AcDbEntity
  8
newlayer
 62
7
100
AcDbLine
 10
32.561400
 20
702.666898
 30
0.0
 11
24.561400
 21
702.666898
 31
0.0
  0
LINE
  5
114
100
AcDbEntity
  8
newlayer
 62
7
100
AcDbLine
 10
24.561400
 20
702.666898
 30
0.0
 11
24.561400
 21
722.946898
 31
0.0
  0
LINE
  5
115
100
AcDbEntity
  8
newlayer
 62
7
100
AcDbLine
 10
24.561400
 20
722.946898
 30
0.0
 11
32.561400
 21
722.946898
 31
0.0
  0
LINE
  5
116
100
AcDbEntity
  8
newlayer
 62
7
100
AcDbLine
 10
32.561400
 20
722.946898
 30
0.0
 11
32.561400
 21
742.666899
 31
0.0
  0
LINE
  5
117
100
AcDbEntity
  8
newlayer
 62
7
100
AcDbLine
 10
32.561400
 20
742.666899
 30
0.0
 11
24.561400
 21
742.666899
 31
0.0
  0
LINE
  5
118
100
AcDbEntity
  8
newlayer
 62
7
100
AcDbLine
 10
24.561400
 20
742.666899
 30
0.0
 11
24.561400
 21
762.946897
 31
0.0
  0
LINE
  5
119
100
AcDbEntity
  8
newlayer
 62
7
100
AcDbLine
 10
24.561400
 20
762.946897
 30
0.0
 11
32.561400
 21
762.946897
 31
0.0
  0
LINE
  5
11a
100
AcDbEntity
  8
newlayer
 62
7
100
AcDbLine
 10
32.561400
 20
762.946897
 30
0.0
 11
32.561400
 21
782.666899
 31
0.0
  0
LINE
  5
11b
100
AcDbEntity
  8
newlayer
 62
7
100
AcDbLine
 10
32.561400
 20
782.666899
 30
0.0
 11
24.561400
 21
782.666899
 31
0.0
  0
LINE
  5
11c
100
AcDbEntity
  8
newlayer
 62
7
100
AcDbLine
 10
24.561400
 20
782.666899
 30
0.0
 11
24.561400
 21
802.946899
 31
0.0
  0
LINE
  5
11d
100
AcDbEntity
  8
newlayer
 62
7
100
AcDbLine
 10
24.561400
 20
802.946899
 30
0.0
 11
32.561400
 21
802.946899
 31
0.0
  0
LINE
  5
11e
100
AcDbEntity
  8
newlayer
 62
7
100
AcDbLine
 10
32.561400
 20
802.946899
 30
0.0
 11
32.561400
 21
822.666898
 31
0.0
  0
LINE
  5
11f
100
AcDbEntity
  8
newlayer
 62
7
100
AcDbLine
 10
32.561400
 20
822.666898
 30
0.0
 11
24.561400
 21
822.666898
 31
0.0
  0
LINE
  5
120
100
AcDbEntity
  8
newlayer
 62
7
100
AcDbLine
 10
24.561400
 20
822.666898
 30
0.0
 11
24.561400
 21
842.946898
 31
0.0
  0
LINE
  5
121
100
AcDbEntity
  8
newlayer
 62
7
100
AcDbLine
 10
24.561400
 20
842.946898
 30
0.0
 11
32.561400
 21
842.946898
 31
0.0
  0
LINE
  5
122
100
AcDbEntity
  8
newlayer
 62
7
100
AcDbLine
 10
32.561400
 20
842.946898
 30
0.0
 11
32.561400
 21
854.806898
 31
0.0
  0
LINE
  5
123
100
AcDbEntity
  8
newlayer
 62
7
100
AcDbLine
 10
32.561400
 20
854.806898
 30
0.0
 11
46.921400
 21
854.806898
 31
0.0
  0
LINE
  5
124
100
AcDbEntity
  8
newlayer
 62
7
100
AcDbLine
 10
46.921400
 20
854.806898
 30
0.0
 11
46.921400
 21
862.806899
 31
0.0
  0
LINE
  5
125
100
AcDbEntity
  8
newlayer
 62
7
100
AcDbLine
 10
46.921400
 20
862.806899
 30
0.0
 11
67.201401
 21
862.806899
 31
0.0
  0
LINE
  5
126
100
AcDbEntity
  8
newlayer
 62
7
100
AcDbLine
 10
67.201401
 20
862.806899
 30
0.0
 11
67.201401
 21
854.806898
 31
0.0
  0
LINE
  5
127
100
AcDbEntity
  8
newlayer
 62
7
100
AcDbLine
 10
67.201401
 20
854.806898
 30
0.0
 11
89.421400
 21
854.806898
 31
0.0
  0
LINE
  5
128
100
AcDbEntity
  8
newlayer
 62
7
100
AcDbLine
 10
89.421400
 20
854.806898
 30
0.0
 11
89.421400
 21
862.806899
 31
0.0
  0
LINE
  5
129
100
AcDbEntity
  8
newlayer
 62
7
100
AcDbLine
 10
89.421400
 20
862.806899
 30
0.0
 11
109.701401
 21
862.806899
 31
0.0
  0
LINE
  5
12a
100
AcDbEntity
  8
newlayer
 62
7
100
AcDbLine
 10
109.701401
 20
862.806899
 30
0.0
 11
109.701401
 21
854.806898
 31
0.0
  0
LINE
  5
12b
100
AcDbEntity
  8
newlayer
 62
7
100
AcDbLine
 10
109.701401
 20
854.806898
 30
0.0
 11
131.921400
 21
854.806898
 31
0.0
  0
LINE
  5
12c
100
AcDbEntity
  8
newlayer
 62
7
100
AcDbLine
 10
131.921400
 20
854.806898
 30
0.0
 11
131.921400
 21
862.806899
 31
0.0
  0
LINE
  5
12d
100
AcDbEntity
  8
newlayer
 62
7
100
AcDbLine
 10
131.921400
 20
862.806899
 30
0.0
 11
152.201400
 21
862.806899
 31
0.0
  0
LINE
  5
12e
100
AcDbEntity
  8
newlayer
 62
7
100
AcDbLine
 10
152.201400
 20
862.806899
 30
0.0
 11
152.201400
 21
854.806898
 31
0.0
  0
LINE
  5
12f
100
AcDbEntity
  8
newlayer
 62
7
100
AcDbLine
 10
152.201400
 20
854.806898
 30
0.0
 11
166.561400
 21
854.806898
 31
0.0
  0
LINE
  5
130
100
AcDbEntity
  8
newlayer
 62
7
100
AcDbLine
 10
166.561400
 20
854.806898
 30
0.0
 11
166.561400
 21
842.946898
 31
0.0
  0
LINE
  5
131
100
AcDbEntity
  8
newlayer
 62
7
100
AcDbLine
 10
166.561400
 20
842.946898
 30
0.0
 11
174.561398
 21
842.946898
 31
0.0
  0
LINE
  5
132
100
AcDbEntity
  8
newlayer
 62
7
100
AcDbLine
 10
174.561398
 20
842.946898
 30
0.0
 11
174.561398
 21
822.666898
 31
0.0
  0
LINE
  5
133
100
AcDbEntity
  8
newlayer
 62
7
100
AcDbLine
 10
174.561398
 20
822.666898
 30
0.0
 11
166.561400
 21
822.666898
 31
0.0
  0
LINE
  5
134
100
AcDbEntity
  8
newlayer
 62
7
100
AcDbLine
 10
166.561400
 20
822.666898
 30
0.0
 11
166.561400
 21
802.946899
 31
0.0
  0
LINE
  5
135
100
AcDbEntity
  8
newlayer
 62
7
100
AcDbLine
 10
166.561400
 20
802.946899
 30
0.0
 11
174.561398
 21
802.946899
 31
0.0
  0
LINE
  5
136
100
AcDbEntity
  8
newlayer
 62
7
100
AcDbLine
 10
174.561398
 20
802.946899
 30
0.0
 11
174.561398
 21
782.666899
 31
0.0
  0
LINE
  5
137
100
AcDbEntity
  8
newlayer
 62
7
100
AcDbLine
 10
174.561398
 20
782.666899
 30
0.0
 11
166.561400
 21
782.666899
 31
0.0
  0
LINE
  5
138
100
AcDbEntity
  8
newlayer
 62
7
100
AcDbLine
 10
166.561400
 20
782.666899
 30
0.0
 11
166.561400
 21
762.946897
 31
0.0
  0
LINE
  5
139
100
AcDbEntity
  8
newlayer
 62
7
100
AcDbLine
 10
166.561400
 20
762.946897
 30
0.0
 11
174.561398
 21
762.946897
 31
0.0
  0
LINE
  5
13a
100
AcDbEntity
  8
newlayer
 62
7
100
AcDbLine
 10
174.561398
 20
762.946897
 30
0.0
 11
174.561398
 21
742.666899
 31
0.0
  0
LINE
  5
13b
100
AcDbEntity
  8
newlayer
 62
7
100
AcDbLine
 10
174.561398
 20
742.666899
 30
0.0
 11
166.561400
 21
742.666899
 31
0.0
  0
LINE
  5
13c
100
AcDbEntity
  8
newlayer
 62
7
100
AcDbLine
 10
166.561400
 20
742.666899
 30
0.0
 11
166.561400
 21
722.946898
 31
0.0
  0
LINE
  5
13d
100
AcDbEntity
  8
newlayer
 62
7
100
AcDbLine
 10
166.561400
 20
722.946898
 30
0.0
 11
174.561398
 21
722.946898
 31
0.0
  0
LINE
  5
13e
100
AcDbEntity
  8
newlayer
 62
7
100
AcDbLine
 10
174.561398
 20
722.946898
 30
0.0
 11
174.561398
 21
702.666898
 31
0.0
  0
LINE
  5
13f
100
AcDbEntity
  8
newlayer
 62
7
100
AcDbLine
 10
174.561398
 20
702.666898
 30
0.0
 11
166.561400
 21
702.666898
 31
0.0
  0
LINE
  5
140
100
AcDbEntity
  8
newlayer
 62
7
100
AcDbLine
 10
166.561400
 20
702.666898
 30
0.0
 11
166.561400
 21
682.946899
 31
0.0
  0
LINE
  5
141
100
AcDbEntity
  8
newlayer
 62
7
100
AcDbLine
 10
166.561400
 20
682.946899
 30
0.0
 11
174.561398
 21
682.946899
 31
0.0
  0
LINE
  5
142
100
AcDbEntity
  8
newlayer
 62
7
100
AcDbLine
 10
174.561398
 20
682.946899
 30
0.0
 11
174.561398
 21
662.666899
 31
0.0
  0
LINE
  5
143
100
AcDbEntity
  8
newlayer
 62
7
100
AcDbLine
 10
174.561398
 20
662.666899
 30
0.0
 11
166.561400
 21
662.666899
 31
0.0
  0
LINE
  5
144
100
AcDbEntity
  8
newlayer
 62
7
100
AcDbLine
 10
166.561400
 20
662.666899
 30
0.0
 11
166.561400
 21
642.946897
 31
0.0
  0
LINE
  5
145
100
AcDbEntity
  8
newlayer
 62
7
100
AcDbLine
 10
166.561400
 20
642.946897
 30
0.0
 11
174.561398
 21
642.946897
 31
0.0
  0
LINE
  5
146
100
AcDbEntity
  8
newlayer
 62
7
100
AcDbLine
 10
174.561398
 20
642.946897
 30
0.0
 11
174.561398
 21
622.666900
 31
0.0
  0
LINE
  5
147
100
AcDbEntity
  8
newlayer
 62
7
100
AcDbLine
 10
174.561398
 20
622.666900
 30
0.0
 11
166.561400
 21
622.666900
 31
0.0
  0
LINE
  5
148
100
AcDbEntity
  8
newlayer
 62
7
100
AcDbLine
 10
166.561400
 20
622.666900
 30
0.0
 11
166.561400
 21
602.946887
 31
0.0
  0
LINE
  5
149
100
AcDbEntity
  8
newlayer
 62
7
100
AcDbLine
 10
166.561400
 20
602.946887
 30
0.0
 11
174.561398
 21
602.946887
 31
0.0
  0
LINE
  5
14a
100
AcDbEntity
  8
newlayer
 62
7
100
AcDbLine
 10
174.561398
 20
602.946887
 30
0.0
 11
174.561398
 21
582.666906
 31
0.0
  0
LINE
  5
14b
100
AcDbEntity
  8
newlayer
 62
7
100
AcDbLine
 10
174.561398
 20
582.666906
 30
0.0
 11
166.561400
 21
582.666906
 31
0.0
  0
LINE
  5
14c
100
AcDbEntity
  8
newlayer
 62
7
100
AcDbLine
 10
166.561400
 20
582.666906
 30
0.0
 11
166.561400
 21
570.806912
 31
0.0
  0
LINE
  5
14d
100
AcDbEntity
  8
newlayer
 62
7
100
AcDbLine
 10
166.561400
 20
570.806912
 30
0.0
 11
152.201400
 21
570.806912
 31
0.0
  0
LINE
  5
14e
100
AcDbEntity
  8
newlayer
 62
7
100
AcDbLine
 10
720.140885
 20
680.000911
 30
0.0
 11
712.140901
 21
680.000911
 31
0.0
  0
LINE
  5
14f
100
AcDbEntity
  8
newlayer
 62
7
100
AcDbLine
 10
712.140901
 20
680.000911
 30
0.0
 11
712.140901
 21
660.280924
 31
0.0
  0
LINE
  5
150
100
AcDbEntity
  8
newlayer
 62
7
100
AcDbLine
 10
712.140901
 20
660.280924
 30
0.0
 11
720.140885
 21
660.280924
 31
0.0
  0
LINE
  5
151
100
AcDbEntity
  8
newlayer
 62
7
100
AcDbLine
 10
720.140885
 20
660.280924
 30
0.0
 11
720.140885
 21
640.000938
 31
0.0
  0
LINE
  5
152
100
AcDbEntity
  8
newlayer
 62
7
100
AcDbLine
 10
720.140885
 20
640.000938
 30
0.0
 11
712.140901
 21
640.000938
 31
0.0
  0
LINE
  5
153
100
AcDbEntity
  8
newlayer
 62
7
100
AcDbLine
 10
712.140901
 20
640.000938
 30
0.0
 11
712.140901
 21
620.280951
 31
0.0
  0
LINE
  5
154
100
AcDbEntity
  8
newlayer
 62
7
100
AcDbLine
 10
712.140901
 20
620.280951
 30
0.0
 11
720.140885
 21
620.280951
 31
0.0
  0
LINE
  5
155
100
AcDbEntity
  8
newlayer
 62
7
100
AcDbLine
 10
720.140885
 20
620.280951
 30
0.0
 11
720.140885
 21
600.000967
 31
0.0
  0
LINE
  5
156
100
AcDbEntity
  8
newlayer
 62
7
100
AcDbLine
 10
720.140885
 20
600.000967
 30
0.0
 11
712.140901
 21
600.000967
 31
0.0
  0
LINE
  5
157
100
AcDbEntity
  8
newlayer
 62
7
100
AcDbLine
 10
712.140901
 20
600.000967
 30
0.0
 11
712.140901
 21
580.281000
 31
0.0
  0
LINE
  5
158
100
AcDbEntity
  8
newlayer
 62
7
100
AcDbLine
 10
712.140901
 20
580.281000
 30
0.0
 11
720.140885
 21
580.281000
 31
0.0
  0
LINE
  5
159
100
AcDbEntity
  8
newlayer
 62
7
100
AcDbLine
 10
720.140885
 20
580.281000
 30
0.0
 11
720.140885
 21
560.001019
 31
0.0
  0
LINE
  5
15a
100
AcDbEntity
  8
newlayer
 62
7
100
AcDbLine
 10
720.140885
 20
560.001019
 30
0.0
 11
712.140901
 21
560.001019
 31
0.0
  0
LINE
  5
15b
100
AcDbEntity
  8
newlayer
 62
7
100
AcDbLine
 10
712.140901
 20
560.001019
 30
0.0
 11
712.140901
 21
540.280995
 31
0.0
  0
LINE
  5
15c
100
AcDbEntity
  8
newlayer
 62
7
100
AcDbLine
 10
712.140901
 20
540.280995
 30
0.0
 11
720.140885
 21
540.280995
 31
0.0
  0
LINE
  5
15d
100
AcDbEntity
  8
newlayer
 62
7
100
AcDbLine
 10
720.140885
 20
540.280995
 30
0.0
 11
720.140885
 21
520.001042
 31
0.0
  0
LINE
  5
15e
100
AcDbEntity
  8
newlayer
 62
7
100
AcDbLine
 10
720.140885
 20
520.001042
 30
0.0
 11
712.140901
 21
520.001042
 31
0.0
  0
LINE
  5
15f
100
AcDbEntity
  8
newlayer
 62
7
100
AcDbLine
 10
712.140901
 20
520.001042
 30
0.0
 11
712.140901
 21
500.281047
 31
0.0
  0
LINE
  5
160
100
AcDbEntity
  8
newlayer
 62
7
100
AcDbLine
 10
712.140901
 20
500.281047
 30
0.0
 11
720.140885
 21
500.281047
 31
0.0
  0
LINE
  5
161
100
AcDbEntity
  8
newlayer
 62
7
100
AcDbLine
 10
720.140885
 20
500.281047
 30
0.0
 11
720.140885
 21
480.001066
 31
0.0
  0
LINE
  5
162
100
AcDbEntity
  8
newlayer
 62
7
100
AcDbLine
 10
720.140885
 20
480.001066
 30
0.0
 11
712.140901
 21
480.001066
 31
0.0
  0
LINE
  5
163
100
AcDbEntity
  8
newlayer
 62
7
100
AcDbLine
 10
712.140901
 20
480.001066
 30
0.0
 11
712.140901
 21
460.281070
 31
0.0
  0
LINE
  5
164
100
AcDbEntity
  8
newlayer
 62
7
100
AcDbLine
 10
712.140901
 20
460.281070
 30
0.0
 11
720.140885
 21
460.281070
 31
0.0
  0
LINE
  5
165
100
AcDbEntity
  8
newlayer
 62
7
100
AcDbLine
 10
720.140885
 20
460.281070
 30
0.0
 11
720.140885
 21
440.001061
 31
0.0
  0
LINE
  5
166
100
AcDbEntity
  8
newlayer
 62
7
100
AcDbLine
 10
720.140885
 20
440.001061
 30
0.0
 11
712.140901
 21
440.001061
 31
0.0
  0
LINE
  5
167
100
AcDbEntity
  8
newlayer
 62
7
100
AcDbLine
 10
712.140901
 20
440.001061
 30
0.0
 11
712.140901
 21
420.281094
 31
0.0
  0
LINE
  5
168
100
AcDbEntity
  8
newlayer
 62
7
100
AcDbLine
 10
712.140901
 20
420.281094
 30
0.0
 11
720.140885
 21
420.281094
 31
0.0
  0
LINE
  5
169
100
AcDbEntity
  8
newlayer
 62
7
100
AcDbLine
 10
720.140885
 20
420.281094
 30
0.0
 11
720.140885
 21
400.141123
 31
0.0
  0
LINE
  5
16a
100
AcDbEntity
  8
newlayer
 62
7
100
AcDbLine
 10
720.140885
 20
400.141123
 30
0.0
 11
696.667588
 21
400.141123
 31
0.0
  0
LINE
  5
16b
100
AcDbEntity
  8
newlayer
 62
7
100
AcDbLine
 10
696.667588
 20
400.141123
 30
0.0
 11
676.947564
 21
400.141123
 31
0.0
  0
LINE
  5
16c
100
AcDbEntity
  8
newlayer
 62
7
100
AcDbLine
 10
676.947564
 20
400.141123
 30
0.0
 11
653.334256
 21
400.141123
 31
0.0
  0
LINE
  5
16d
100
AcDbEntity
  8
newlayer
 62
7
100
AcDbLine
 10
653.334256
 20
400.141123
 30
0.0
 11
633.614289
 21
400.141123
 31
0.0
  0
LINE
  5
16e
100
AcDbEntity
  8
newlayer
 62
7
100
AcDbLine
 10
633.614289
 20
400.141123
 30
0.0
 11
610.000953
 21
400.141123
 31
0.0
  0
LINE
  5
16f
100
AcDbEntity
  8
newlayer
 62
7
100
AcDbLine
 10
610.000953
 20
400.141123
 30
0.0
 11
590.280958
 21
400.141123
 31
0.0
  0
LINE
  5
170
100
AcDbEntity
  8
newlayer
 62
7
100
AcDbLine
 10
590.280958
 20
400.141123
 30
0.0
 11
566.667650
 21
400.141123
 31
0.0
  0
LINE
  5
171
100
AcDbEntity
  8
newlayer
 62
7
100
AcDbLine
 10
566.667650
 20
400.141123
 30
0.0
 11
546.947626
 21
400.141123
 31
0.0
  0
LINE
  5
172
100
AcDbEntity
  8
newlayer
 62
7
100
AcDbLine
 10
546.947626
 20
400.141123
 30
0.0
 11
523.334319
 21
400.141123
 31
0.0
  0
LINE
  5
173
100
AcDbEntity
  8
newlayer
 62
7
100
AcDbLine
 10
523.334319
 20
400.141123
 30
0.0
 11
503.614323
 21
400.141123
 31
0.0
  0
LINE
  5
174
100
AcDbEntity
  8
newlayer
 62
7
100
AcDbLine
 10
503.614323
 20
400.141123
 30
0.0
 11
480.000987
 21
400.141123
 31
0.0
  0
LINE
  5
175
100
AcDbEntity
  8
newlayer
 62
7
100
AcDbLine
 10
480.000987
 20
400.141123
 30
0.0
 11
460.281020
 21
400.141123
 31
0.0
  0
LINE
  5
176
100
AcDbEntity
  8
newlayer
 62
7
100
AcDbLine
 10
460.281020
 20
400.141123
 30
0.0
 11
436.667712
 21
400.141123
 31
0.0
  0
LINE
  5
177
100
AcDbEntity
  8
newlayer
 62
7
100
AcDbLine
 10
436.667712
 20
400.141123
 30
0.0
 11
416.947689
 21
400.141123
 31
0.0
  0
LINE
  5
178
100
AcDbEntity
  8
newlayer
 62
7
100
AcDbLine
 10
416.947689
 20
400.141123
 30
0.0
 11
393.334381
 21
400.141123
 31
0.0
  0
LINE
  5
179
100
AcDbEntity
  8
newlayer
 62
7
100
AcDbLine
 10
393.334381
 20
400.141123
 30
0.0
 11
373.614386
 21
400.141123
 31
0.0
  0
LINE
  5
17a
100
AcDbEntity
  8
newlayer
 62
7
100
AcDbLine
 10
373.614386
 20
400.141123
 30
0.0
 11
350.001050
 21
400.141123
 31
0.0
  0
LINE
  5
17b
100
AcDbEntity
  8
newlayer
 62
7
100
AcDbLine
 10
350.001050
 20
400.141123
 30
0.0
 11
330.281082
 21
400.141123
 31
0.0
  0
LINE
  5
17c
100
AcDbEntity
  8
newlayer
 62
7
100
AcDbLine
 10
330.281082
 20
400.141123
 30
0.0
 11
306.667775
 21
400.141123
 31
0.0
  0
LINE
  5
17d
100
AcDbEntity
  8
newlayer
 62
7
100
AcDbLine
 10
306.667775
 20
400.141123
 30
0.0
 11
286.947751
 21
400.141123
 31
0.0
  0
LINE
  5
17e
100
AcDbEntity
  8
newlayer
 62
7
100
AcDbLine
 10
286.947751
 20
400.141123
 30
0.0
 11
263.334432
 21
400.141123
 31
0.0
  0
LINE
  5
17f
100
AcDbEntity
  8
newlayer
 62
7
100
AcDbLine
 10
263.334432
 20
400.141123
 30
0.0
 11
243.614440
 21
400.141123
 31
0.0
  0
LINE
  5
180
100
AcDbEntity
  8
newlayer
 62
7
100
AcDbLine
 10
243.614440
 20
400.141123
 30
0.0
 11
220.141120
 21
400.141123
 31
0.0
  0
LINE
  5
181
100
AcDbEntity
  8
newlayer
 62
7
100
AcDbLine
 10
220.141120
 20
400.141123
 30
0.0
 11
220.141120
 21
420.281094
 31
0.0
  0
LINE
  5
182
100
AcDbEntity
  8
newlayer
 62
7
100
AcDbLine
 10
220.141120
 20
420.281094
 30
0.0
 11
228.141118
 21
420.281094
 31
0.0
  0
LINE
  5
183
100
AcDbEntity
  8
newlayer
 62
7
100
AcDbLine
 10
228.141118
 20
420.281094
 30
0.0
 11
228.141118
 21
440.001061
 31
0.0
  0
LINE
  5
184
100
AcDbEntity
  8
newlayer
 62
7
100
AcDbLine
 10
228.141118
 20
440.001061
 30
0.0
 11
220.141120
 21
440.001061
 31
0.0
  0
LINE
  5
185
100
AcDbEntity
  8
newlayer
 62
7
100
AcDbLine
 10
220.141120
 20
440.001061
 30
0.0
 11
220.141120
 21
460.281070
 31
0.0
  0
LINE
  5
186
100
AcDbEntity
  8
newlayer
 62
7
100
AcDbLine
 10
220.141120
 20
460.281070
 30
0.0
 11
228.141118
 21
460.281070
 31
0.0
  0
LINE
  5
187
100
AcDbEntity
  8
newlayer
 62
7
100
AcDbLine
 10
228.141118
 20
460.281070
 30
0.0
 11
228.141118
 21
480.001066
 31
0.0
  0
LINE
  5
188
100
AcDbEntity
  8
newlayer
 62
7
100
AcDbLine
 10
228.141118
 20
480.001066
 30
0.0
 11
220.141120
 21
480.001066
 31
0.0
  0
LINE
  5
189
100
AcDbEntity
  8
newlayer
 62
7
100
AcDbLine
 10
220.141120
 20
480.001066
 30
0.0
 11
220.141120
 21
500.281047
 31
0.0
  0
LINE
  5
18a
100
AcDbEntity
  8
newlayer
 62
7
100
AcDbLine
 10
220.141120
 20
500.281047
 30
0.0
 11
228.141118
 21
500.281047
 31
0.0
  0
LINE
  5
18b
100
AcDbEntity
  8
newlayer
 62
7
100
AcDbLine
 10
228.141118
 20
500.281047
 30
0.0
 11
228.141118
 21
520.001042
 31
0.0
  0
LINE
  5
18c
100
AcDbEntity
  8
newlayer
 62
7
100
AcDbLine
 10
228.141118
 20
520.001042
 30
0.0
 11
220.141120
 21
520.001042
 31
0.0
  0
LINE
  5
18d
100
AcDbEntity
  8
newlayer
 62
7
100
AcDbLine
 10
220.141120
 20
520.001042
 30
0.0
 11
220.141120
 21
540.280995
 31
0.0
  0
LINE
  5
18e
100
AcDbEntity
  8
newlayer
 62
7
100
AcDbLine
 10
220.141120
 20
540.280995
 30
0.0
 11
228.141118
 21
540.280995
 31
0.0
  0
LINE
  5
18f
100
AcDbEntity
  8
newlayer
 62
7
100
AcDbLine
 10
228.141118
 20
540.280995
 30
0.0
 11
228.141118
 21
560.001019
 31
0.0
  0
LINE
  5
190
100
AcDbEntity
  8
newlayer
 62
7
100
AcDbLine
 10
228.141118
 20
560.001019
 30
0.0
 11
220.141120
 21
560.001019
 31
0.0
  0
LINE
  5
191
100
AcDbEntity
  8
newlayer
 62
7
100
AcDbLine
 10
220.141120
 20
560.001019
 30
0.0
 11
220.141120
 21
580.281000
 31
0.0
  0
LINE
  5
192
100
AcDbEntity
  8
newlayer
 62
7
100
AcDbLine
 10
220.141120
 20
580.281000
 30
0.0
 11
228.141118
 21
580.281000
 31
0.0
  0
LINE
  5
193
100
AcDbEntity
  8
newlayer
 62
7
100
AcDbLine
 10
228.141118
 20
580.281000
 30
0.0
 11
228.141118
 21
600.000967
 31
0.0
  0
LINE
  5
194
100
AcDbEntity
  8
newlayer
 62
7
100
AcDbLine
 10
228.141118
 20
600.000967
 30
0.0
 11
220.141120
 21
600.000967
 31
0.0
  0
LINE
  5
195
100
AcDbEntity
  8
newlayer
 62
7
100
AcDbLine
 10
220.141120
 20
600.000967
 30
0.0
 11
220.141120
 21
620.280951
 31
0.0
  0
LINE
  5
196
100
AcDbEntity
  8
newlayer
 62
7
100
AcDbLine
 10
220.141120
 20
620.280951
 30
0.0
 11
228.141118
 21
620.280951
 31
0.0
  0
LINE
  5
197
100
AcDbEntity
  8
newlayer
 62
7
100
AcDbLine
 10
228.141118
 20
620.280951
 30
0.0
 11
228.141118
 21
640.000938
 31
0.0
  0
LINE
  5
198
100
AcDbEntity
  8
newlayer
 62
7
100
AcDbLine
 10
228.141118
 20
640.000938
 30
0.0
 11
220.141120
 21
640.000938
 31
0.0
  0
LINE
  5
199
100
AcDbEntity
  8
newlayer
 62
7
100
AcDbLine
 10
220.141120
 20
640.000938
 30
0.0
 11
220.141120
 21
660.280924
 31
0.0
  0
LINE
  5
19a
100
AcDbEntity
  8
newlayer
 62
7
100
AcDbLine
 10
220.141120
 20
660.280924
 30
0.0
 11
228.141118
 21
660.280924
 31
0.0
  0
LINE
  5
19b
100
AcDbEntity
  8
newlayer
 62
7
100
AcDbLine
 10
228.141118
 20
660.280924
 30
0.0
 11
228.141118
 21
680.000911
 31
0.0
  0
LINE
  5
19c
100
AcDbEntity
  8
newlayer
 62
7
100
AcDbLine
 10
228.141118
 20
680.000911
 30
0.0
 11
220.141120
 21
680.000911
 31
0.0
  0
LINE
  5
19d
100
AcDbEntity
  8
newlayer
 62
7
100
AcDbLine
 10
220.141120
 20
680.000911
 30
0.0
 11
220.141120
 21
700.140899
 31
0.0
  0
LINE
  5
19e
100
AcDbEntity
  8
newlayer
 62
7
100
AcDbLine
 10
220.141120
 20
700.140899
 30
0.0
 11
243.614440
 21
700.140899
 31
0.0
  0
LINE
  5
19f
100
AcDbEntity
  8
newlayer
 62
7
100
AcDbLine
 10
243.614440
 20
700.140899
 30
0.0
 11
243.614440
 21
692.140901
 31
0.0
  0
LINE
  5
1a0
100
AcDbEntity
  8
newlayer
 62
7
100
AcDbLine
 10
243.614440
 20
692.140901
 30
0.0
 11
263.334432
 21
692.140901
 31
0.0
  0
LINE
  5
1a1
100
AcDbEntity
  8
newlayer
 62
7
100
AcDbLine
 10
263.334432
 20
692.140901
 30
0.0
 11
263.334432
 21
700.140899
 31
0.0
  0
LINE
  5
1a2
100
AcDbEntity
  8
newlayer
 62
7
100
AcDbLine
 10
263.334432
 20
700.140899
 30
0.0
 11
286.947751
 21
700.140899
 31
0.0
  0
LINE
  5
1a3
100
AcDbEntity
  8
newlayer
 62
7
100
AcDbLine
 10
286.947751
 20
700.140899
 30
0.0
 11
286.947751
 21
692.140901
 31
0.0
  0
LINE
  5
1a4
100
AcDbEntity
  8
newlayer
 62
7
100
AcDbLine
 10
286.947751
 20
692.140901
 30
0.0
 11
306.667775
 21
692.140901
 31
0.0
  0
LINE
  5
1a5
100
AcDbEntity
  8
newlayer
 62
7
100
AcDbLine
 10
306.667775
 20
692.140901
 30
0.0
 11
306.667775
 21
700.140899
 31
0.0
  0
LINE
  5
1a6
100
AcDbEntity
  8
newlayer
 62
7
100
AcDbLine
 10
306.667775
 20
700.140899
 30
0.0
 11
330.281082
 21
700.140899
 31
0.0
  0
LINE
  5
1a7
100
AcDbEntity
  8
newlayer
 62
7
100
AcDbLine
 10
330.281082
 20
700.140899
 30
0.0
 11
330.281082
 21
692.140901
 31
0.0
  0
LINE
  5
1a8
100
AcDbEntity
  8
newlayer
 62
7
100
AcDbLine
 10
330.281082
 20
692.140901
 30
0.0
 11
350.001050
 21
692.140901
 31
0.0
  0
LINE
  5
1a9
100
AcDbEntity
  8
newlayer
 62
7
100
AcDbLine
 10
350.001050
 20
692.140901
 30
0.0
 11
350.001050
 21
700.140899
 31
0.0
  0
LINE
  5
1aa
100
AcDbEntity
  8
newlayer
 62
7
100
AcDbLine
 10
350.001050
 20
700.140899
 30
0.0
 11
373.614386
 21
700.140899
 31
0.0
  0
LINE
  5
1ab
100
AcDbEntity
  8
newlayer
 62
7
100
AcDbLine
 10
373.614386
 20
700.140899
 30
0.0
 11
373.614386
 21
692.140901
 31
0.0
  0
LINE
  5
1ac
100
AcDbEntity
  8
newlayer
 62
7
100
AcDbLine
 10
373.614386
 20
692.140901
 30
0.0
 11
393.334381
 21
692.140901
 31
0.0
  0
LINE
  5
1ad
100
AcDbEntity
  8
newlayer
 62
7
100
AcDbLine
 10
393.334381
 20
692.140901
 30
0.0
 11
393.334381
 21
700.140899
 31
0.0
  0
LINE
  5
1ae
100
AcDbEntity
  8
newlayer
 62
7
100
AcDbLine
 10
393.334381
 20
700.140899
 30
0.0
 11
416.947689
 21
700.140899
 31
0.0
  0
LINE
  5
1af
100
AcDbEntity
  8
newlayer
 62
7
100
AcDbLine
 10
416.947689
 20
700.140899
 30
0.0
 11
416.947689
 21
692.140901
 31
0.0
  0
LINE
  5
1b0
100
AcDbEntity
  8
newlayer
 62
7
100
AcDbLine
 10
416.947689
 20
692.140901
 30
0.0
 11
436.667712
 21
692.140901
 31
0.0
  0
LINE
  5
1b1
100
AcDbEntity
  8
newlayer
 62
7
100
AcDbLine
 10
436.667712
 20
692.140901
 30
0.0
 11
436.667712
 21
700.140899
 31
0.0
  0
LINE
  5
1b2
100
AcDbEntity
  8
newlayer
 62
7
100
AcDbLine
 10
436.667712
 20
700.140899
 30
0.0
 11
460.281020
 21
700.140899
 31
0.0
  0
LINE
  5
1b3
100
AcDbEntity
  8
newlayer
 62
7
100
AcDbLine
 10
460.281020
 20
700.140899
 30
0.0
 11
460.281020
 21
692.140901
 31
0.0
  0
LINE
  5
1b4
100
AcDbEntity
  8
newlayer
 62
7
100
AcDbLine
 10
460.281020
 20
692.140901
 30
0.0
 11
480.000987
 21
692.140901
 31
0.0
  0
LINE
  5
1b5
100
AcDbEntity
  8
newlayer
 62
7
100
AcDbLine
 10
480.000987
 20
692.140901
 30
0.0
 11
480.000987
 21
700.140899
 31
0.0
  0
LINE
  5
1b6
100
AcDbEntity
  8
newlayer
 62
7
100
AcDbLine
 10
480.000987
 20
700.140899
 30
0.0
 11
503.614323
 21
700.140899
 31
0.0
  0
LINE
  5
1b7
100
AcDbEntity
  8
newlayer
 62
7
100
AcDbLine
 10
503.614323
 20
700.140899
 30
0.0
 11
503.614323
 21
692.140901
 31
0.0
  0
LINE
  5
1b8
100
AcDbEntity
  8
newlayer
 62
7
100
AcDbLine
 10
503.614323
 20
692.140901
 30
0.0
 11
523.334319
 21
692.140901
 31
0.0
  0
LINE
  5
1b9
100
AcDbEntity
  8
newlayer
 62
7
100
AcDbLine
 10
523.334319
 20
692.140901
 30
0.0
 11
523.334319
 21
700.140899
 31
0.0
  0
LINE
  5
1ba
100
AcDbEntity
  8
newlayer
 62
7
100
AcDbLine
 10
523.334319
 20
700.140899
 30
0.0
 11
546.947626
 21
700.140899
 31
0.0
  0
LINE
  5
1bb
100
AcDbEntity
  8
newlayer
 62
7
100
AcDbLine
 10
546.947626
 20
700.140899
 30
0.0
 11
546.947626
 21
692.140901
 31
0.0
  0
LINE
  5
1bc
100
AcDbEntity
  8
newlayer
 62
7
100
AcDbLine
 10
546.947626
 20
692.140901
 30
0.0
 11
566.667650
 21
692.140901
 31
0.0
  0
LINE
  5
1bd
100
AcDbEntity
  8
newlayer
 62
7
100
AcDbLine
 10
566.667650
 20
692.140901
 30
0.0
 11
566.667650
 21
700.140899
 31
0.0
  0
LINE
  5
1be
100
AcDbEntity
  8
newlayer
 62
7
100
AcDbLine
 10
566.667650
 20
700.140899
 30
0.0
 11
590.280958
 21
700.140899
 31
0.0
  0
LINE
  5
1bf
100
AcDbEntity
  8
newlayer
 62
7
100
AcDbLine
 10
590.280958
 20
700.140899
 30
0.0
 11
590.280958
 21
692.140901
 31
0.0
  0
LINE
  5
1c0
100
AcDbEntity
  8
newlayer
 62
7
100
AcDbLine
 10
590.280958
 20
692.140901
 30
0.0
 11
610.000953
 21
692.140901
 31
0.0
  0
LINE
  5
1c1
100
AcDbEntity
  8
newlayer
 62
7
100
AcDbLine
 10
610.000953
 20
692.140901
 30
0.0
 11
610.000953
 21
700.140899
 31
0.0
  0
LINE
  5
1c2
100
AcDbEntity
  8
newlayer
 62
7
100
AcDbLine
 10
610.000953
 20
700.140899
 30
0.0
 11
633.614289
 21
700.140899
 31
0.0
  0
LINE
  5
1c3
100
AcDbEntity
  8
newlayer
 62
7
100
AcDbLine
 10
633.614289
 20
700.140899
 30
0.0
 11
633.614289
 21
692.140901
 31
0.0
  0
LINE
  5
1c4
100
AcDbEntity
  8
newlayer
 62
7
100
AcDbLine
 10
633.614289
 20
692.140901
 30
0.0
 11
653.334256
 21
692.140901
 31
0.0
  0
LINE
  5
1c5
100
AcDbEntity
  8
newlayer
 62
7
100
AcDbLine
 10
653.334256
 20
692.140901
 30
0.0
 11
653.334256
 21
700.140899
 31
0.0
  0
LINE
  5
1c6
100
AcDbEntity
  8
newlayer
 62
7
100
AcDbLine
 10
653.334256
 20
700.140899
 30
0.0
 11
676.947564
 21
700.140899
 31
0.0
  0
LINE
  5
1c7
100
AcDbEntity
  8
newlayer
 62
7
100
AcDbLine
 10
676.947564
 20
700.140899
 30
0.0
 11
676.947564
 21
692.140901
 31
0.0
  0
LINE
  5
1c8
100
AcDbEntity
  8
newlayer
 62
7
100
AcDbLine
 10
676.947564
 20
692.140901
 30
0.0
 11
696.667588
 21
692.140901
 31
0.0
  0
LINE
  5
1c9
100
AcDbEntity
  8
newlayer
 62
7
100
AcDbLine
 10
696.667588
 20
692.140901
 30
0.0
 11
696.667588
 21
700.140899
 31
0.0
  0
LINE
  5
1ca
100
AcDbEntity
  8
newlayer
 62
7
100
AcDbLine
 10
696.667588
 20
700.140899
 30
0.0
 11
720.140885
 21
700.140899
 31
0.0
  0
LINE
  5
1cb
100
AcDbEntity
  8
newlayer
 62
7
100
AcDbLine
 10
720.140885
 20
700.140899
 30
0.0
 11
720.140885
 21
680.000911
 31
0.0
  0
LINE
  5
1cc
100
AcDbEntity
  8
newlayer
 62
7
100
AcDbLine
 10
160.947910
 20
498.561213
 30
0.0
 11
168.947911
 21
498.561213
 31
0.0
  0
LINE
  5
1cd
100
AcDbEntity
  8
newlayer
 62
7
100
AcDbLine
 10
168.947911
 20
498.561213
 30
0.0
 11
168.947911
 21
478.281204
 31
0.0
  0
LINE
  5
1ce
100
AcDbEntity
  8
newlayer
 62
7
100
AcDbLine
 10
168.947911
 20
478.281204
 30
0.0
 11
160.947910
 21
478.281204
 31
0.0
  0
LINE
  5
1cf
100
AcDbEntity
  8
newlayer
 62
7
100
AcDbLine
 10
160.947910
 20
478.281204
 30
0.0
 11
160.947910
 21
458.561208
 31
0.0
  0
LINE
  5
1d0
100
AcDbEntity
  8
newlayer
 62
7
100
AcDbLine
 10
160.947910
 20
458.561208
 30
0.0
 11
168.947911
 21
458.561208
 31
0.0
  0
LINE
  5
1d1
100
AcDbEntity
  8
newlayer
 62
7
100
AcDbLine
 10
168.947911
 20
458.561208
 30
0.0
 11
168.947911
 21
438.281199
 31
0.0
  0
LINE
  5
1d2
100
AcDbEntity
  8
newlayer
 62
7
100
AcDbLine
 10
168.947911
 20
438.281199
 30
0.0
 11
160.947910
 21
438.281199
 31
0.0
  0
LINE
  5
1d3
100
AcDbEntity
  8
newlayer
 62
7
100
AcDbLine
 10
160.947910
 20
438.281199
 30
0.0
 11
160.947910
 21
418.561203
 31
0.0
  0
LINE
  5
1d4
100
AcDbEntity
  8
newlayer
 62
7
100
AcDbLine
 10
160.947910
 20
418.561203
 30
0.0
 11
168.947911
 21
418.561203
 31
0.0
  0
LINE
  5
1d5
100
AcDbEntity
  8
newlayer
 62
7
100
AcDbLine
 10
168.947911
 20
418.561203
 30
0.0
 11
168.947911
 21
398.281194
 31
0.0
  0
LINE
  5
1d6
100
AcDbEntity
  8
newlayer
 62
7
100
AcDbLine
 10
168.947911
 20
398.281194
 30
0.0
 11
160.947910
 21
398.281194
 31
0.0
  0
LINE
  5
1d7
100
AcDbEntity
  8
newlayer
 62
7
100
AcDbLine
 10
160.947910
 20
398.281194
 30
0.0
 11
160.947910
 21
378.561199
 31
0.0
  0
LINE
  5
1d8
100
AcDbEntity
  8
newlayer
 62
7
100
AcDbLine
 10
160.947910
 20
378.561199
 30
0.0
 11
168.947911
 21
378.561199
 31
0.0
  0
LINE
  5
1d9
100
AcDbEntity
  8
newlayer
 62
7
100
AcDbLine
 10
168.947911
 20
378.561199
 30
0.0
 11
168.947911
 21
358.281190
 31
0.0
  0
LINE
  5
1da
100
AcDbEntity
  8
newlayer
 62
7
100
AcDbLine
 10
168.947911
 20
358.281190
 30
0.0
 11
160.947910
 21
358.281190
 31
0.0
  0
LINE
  5
1db
100
AcDbEntity
  8
newlayer
 62
7
100
AcDbLine
 10
160.947910
 20
358.281190
 30
0.0
 11
160.947910
 21
338.561194
 31
0.0
  0
LINE
  5
1dc
100
AcDbEntity
  8
newlayer
 62
7
100
AcDbLine
 10
160.947910
 20
338.561194
 30
0.0
 11
168.947911
 21
338.561194
 31
0.0
  0
LINE
  5
1dd
100
AcDbEntity
  8
newlayer
 62
7
100
AcDbLine
 10
168.947911
 20
338.561194
 30
0.0
 11
168.947911
 21
318.281213
 31
0.0
  0
LINE
  5
1de
100
AcDbEntity
  8
newlayer
 62
7
100
AcDbLine
 10
168.947911
 20
318.281213
 30
0.0
 11
160.947910
 21
318.281213
 31
0.0
  0
LINE
  5
1df
100
AcDbEntity
  8
newlayer
 62
7
100
AcDbLine
 10
160.947910
 20
318.281213
 30
0.0
 11
160.947910
 21
298.561189
 31
0.0
  0
LINE
  5
1e0
100
AcDbEntity
  8
newlayer
 62
7
100
AcDbLine
 10
160.947910
 20
298.561189
 30
0.0
 11
168.947911
 21
298.561189
 31
0.0
  0
LINE
  5
1e1
100
AcDbEntity
  8
newlayer
 62
7
100
AcDbLine
 10
168.947911
 20
298.561189
 30
0.0
 11
168.947911
 21
278.281208
 31
0.0
  0
LINE
  5
1e2
100
AcDbEntity
  8
newlayer
 62
7
100
AcDbLine
 10
168.947911
 20
278.281208
 30
0.0
 11
160.947910
 21
278.281208
 31
0.0
  0
LINE
  5
1e3
100
AcDbEntity
  8
newlayer
 62
7
100
AcDbLine
 10
160.947910
 20
278.281208
 30
0.0
 11
160.947910
 21
258.561213
 31
0.0
  0
LINE
  5
1e4
100
AcDbEntity
  8
newlayer
 62
7
100
AcDbLine
 10
160.947910
 20
258.561213
 30
0.0
 11
168.947911
 21
258.561213
 31
0.0
  0
LINE
  5
1e5
100
AcDbEntity
  8
newlayer
 62
7
100
AcDbLine
 10
168.947911
 20
258.561213
 30
0.0
 11
168.947911
 21
238.281204
 31
0.0
  0
LINE
  5
1e6
100
AcDbEntity
  8
newlayer
 62
7
100
AcDbLine
 10
168.947911
 20
238.281204
 30
0.0
 11
160.947910
 21
238.281204
 31
0.0
  0
LINE
  5
1e7
100
AcDbEntity
  8
newlayer
 62
7
100
AcDbLine
 10
160.947910
 20
238.281204
 30
0.0
 11
160.947910
 21
226.421210
 31
0.0
  0
LINE
  5
1e8
100
AcDbEntity
  8
newlayer
 62
7
100
AcDbLine
 10
160.947910
 20
226.421210
 30
0.0
 11
146.587910
 21
226.421210
 31
0.0
  0
LINE
  5
1e9
100
AcDbEntity
  8
newlayer
 62
7
100
AcDbLine
 10
146.587910
 20
226.421210
 30
0.0
 11
126.307909
 21
226.421210
 31
0.0
  0
LINE
  5
1ea
100
AcDbEntity
  8
newlayer
 62
7
100
AcDbLine
 10
126.307909
 20
226.421210
 30
0.0
 11
104.087910
 21
226.421210
 31
0.0
  0
LINE
  5
1eb
100
AcDbEntity
  8
newlayer
 62
7
100
AcDbLine
 10
104.087910
 20
226.421210
 30
0.0
 11
83.807910
 21
226.421210
 31
0.0
  0
LINE
  5
1ec
100
AcDbEntity
  8
newlayer
 62
7
100
AcDbLine
 10
83.807910
 20
226.421210
 30
0.0
 11
61.587911
 21
226.421210
 31
0.0
  0
LINE
  5
1ed
100
AcDbEntity
  8
newlayer
 62
7
100
AcDbLine
 10
61.587911
 20
226.421210
 30
0.0
 11
41.307910
 21
226.421210
 31
0.0
  0
LINE
  5
1ee
100
AcDbEntity
  8
newlayer
 62
7
100
AcDbLine
 10
41.307910
 20
226.421210
 30
0.0
 11
26.947910
 21
226.421210
 31
0.0
  0
LINE
  5
1ef
100
AcDbEntity
  8
newlayer
 62
7
100
AcDbLine
 10
26.947910
 20
226.421210
 30
0.0
 11
26.947910
 21
238.281204
 31
0.0
  0
LINE
  5
1f0
100
AcDbEntity
  8
newlayer
 62
7
100
AcDbLine
 10
26.947910
 20
238.281204
 30
0.0
 11
18.947910
 21
238.281204
 31
0.0
  0
LINE
  5
1f1
100
AcDbEntity
  8
newlayer
 62
7
100
AcDbLine
 10
18.947910
 20
238.281204
 30
0.0
 11
18.947910
 21
258.561213
 31
0.0
  0
LINE
  5
1f2
100
AcDbEntity
  8
newlayer
 62
7
100
AcDbLine
 10
18.947910
 20
258.561213
 30
0.0
 11
26.947910
 21
258.561213
 31
0.0
  0
LINE
  5
1f3
100
AcDbEntity
  8
newlayer
 62
7
100
AcDbLine
 10
26.947910
 20
258.561213
 30
0.0
 11
26.947910
 21
278.281208
 31
0.0
  0
LINE
  5
1f4
100
AcDbEntity
  8
newlayer
 62
7
100
AcDbLine
 10
26.947910
 20
278.281208
 30
0.0
 11
18.947910
 21
278.281208
 31
0.0
  0
LINE
  5
1f5
100
AcDbEntity
  8
newlayer
 62
7
100
AcDbLine
 10
18.947910
 20
278.281208
 30
0.0
 11
18.947910
 21
298.561189
 31
0.0
  0
LINE
  5
1f6
100
AcDbEntity
  8
newlayer
 62
7
100
AcDbLine
 10
18.947910
 20
298.561189
 30
0.0
 11
26.947910
 21
298.561189
 31
0.0
  0
LINE
  5
1f7
100
AcDbEntity
  8
newlayer
 62
7
100
AcDbLine
 10
26.947910
 20
298.561189
 30
0.0
 11
26.947910
 21
318.281213
 31
0.0
  0
LINE
  5
1f8
100
AcDbEntity
  8
newlayer
 62
7
100
AcDbLine
 10
26.947910
 20
318.281213
 30
0.0
 11
18.947910
 21
318.281213
 31
0.0
  0
LINE
  5
1f9
100
AcDbEntity
  8
newlayer
 62
7
100
AcDbLine
 10
18.947910
 20
318.281213
 30
0.0
 11
18.947910
 21
338.561194
 31
0.0
  0
LINE
  5
1fa
100
AcDbEntity
  8
newlayer
 62
7
100
AcDbLine
 10
18.947910
 20
338.561194
 30
0.0
 11
26.947910
 21
338.561194
 31
0.0
  0
LINE
  5
1fb
100
AcDbEntity
  8
newlayer
 62
7
100
AcDbLine
 10
26.947910
 20
338.561194
 30
0.0
 11
26.947910
 21
358.281190
 31
0.0
  0
LINE
  5
1fc
100
AcDbEntity
  8
newlayer
 62
7
100
AcDbLine
 10
26.947910
 20
358.281190
 30
0.0
 11
18.947910
 21
358.281190
 31
0.0
  0
LINE
  5
1fd
100
AcDbEntity
  8
newlayer
 62
7
100
AcDbLine
 10
18.947910
 20
358.281190
 30
0.0
 11
18.947910
 21
378.561199
 31
0.0
  0
LINE
  5
1fe
100
AcDbEntity
  8
newlayer
 62
7
100
AcDbLine
 10
18.947910
 20
378.561199
 30
0.0
 11
26.947910
 21
378.561199
 31
0.0
  0
LINE
  5
1ff
100
AcDbEntity
  8
newlayer
 62
7
100
AcDbLine
 10
26.947910
 20
378.561199
 30
0.0
 11
26.947910
 21
398.281194
 31
0.0
  0
LINE
  5
200
100
AcDbEntity
  8
newlayer
 62
7
100
AcDbLine
 10
26.947910
 20
398.281194
 30
0.0
 11
18.947910
 21
398.281194
 31
0.0
  0
LINE
  5
201
100
AcDbEntity
  8
newlayer
 62
7
100
AcDbLine
 10
18.947910
 20
398.281194
 30
0.0
 11
18.947910
 21
418.561203
 31
0.0
  0
LINE
  5
202
100
AcDbEntity
  8
newlayer
 62
7
100
AcDbLine
 10
18.947910
 20
418.561203
 30
0.0
 11
26.947910
 21
418.561203
 31
0.0
  0
LINE
  5
203
100
AcDbEntity
  8
newlayer
 62
7
100
AcDbLine
 10
26.947910
 20
418.561203
 30
0.0
 11
26.947910
 21
438.281199
 31
0.0
  0
LINE
  5
204
100
AcDbEntity
  8
newlayer
 62
7
100
AcDbLine
 10
26.947910
 20
438.281199
 30
0.0
 11
18.947910
 21
438.281199
 31
0.0
  0
LINE
  5
205
100
AcDbEntity
  8
newlayer
 62
7
100
AcDbLine
 10
18.947910
 20
438.281199
 30
0.0
 11
18.947910
 21
458.561208
 31
0.0
  0
LINE
  5
206
100
AcDbEntity
  8
newlayer
 62
7
100
AcDbLine
 10
18.947910
 20
458.561208
 30
0.0
 11
26.947910
 21
458.561208
 31
0.0
  0
LINE
  5
207
100
AcDbEntity
  8
newlayer
 62
7
100
AcDbLine
 10
26.947910
 20
458.561208
 30
0.0
 11
26.947910
 21
478.281204
 31
0.0
  0
LINE
  5
208
100
AcDbEntity
  8
newlayer
 62
7
100
AcDbLine
 10
26.947910
 20
478.281204
 30
0.0
 11
18.947910
 21
478.281204
 31
0.0
  0
LINE
  5
209
100
AcDbEntity
  8
newlayer
 62
7
100
AcDbLine
 10
18.947910
 20
478.281204
 30
0.0
 11
18.947910
 21
498.561213
 31
0.0
  0
LINE
  5
20a
100
AcDbEntity
  8
newlayer
 62
7
100
AcDbLine
 10
18.947910
 20
498.561213
 30
0.0
 11
26.947910
 21
498.561213
 31
0.0
  0
LINE
  5
20b
100
AcDbEntity
  8
newlayer
 62
7
100
AcDbLine
 10
26.947910
 20
498.561213
 30
0.0
 11
26.947910
 21
510.421206
 31
0.0
  0
LINE
  5
20c
100
AcDbEntity
  8
newlayer
 62
7
100
AcDbLine
 10
26.947910
 20
510.421206
 30
0.0
 11
41.307910
 21
510.421206
 31
0.0
  0
LINE
  5
20d
100
AcDbEntity
  8
newlayer
 62
7
100
AcDbLine
 10
41.307910
 20
510.421206
 30
0.0
 11
41.307910
 21
518.421190
 31
0.0
  0
LINE
  5
20e
100
AcDbEntity
  8
newlayer
 62
7
100
AcDbLine
 10
41.307910
 20
518.421190
 30
0.0
 11
61.587911
 21
518.421190
 31
0.0
  0
LINE
  5
20f
100
AcDbEntity
  8
newlayer
 62
7
100
AcDbLine
 10
61.587911
 20
518.421190
 30
0.0
 11
61.587911
 21
510.421206
 31
0.0
  0
LINE
  5
210
100
AcDbEntity
  8
newlayer
 62
7
100
AcDbLine
 10
61.587911
 20
510.421206
 30
0.0
 11
83.807910
 21
510.421206
 31
0.0
  0
LINE
  5
211
100
AcDbEntity
  8
newlayer
 62
7
100
AcDbLine
 10
83.807910
 20
510.421206
 30
0.0
 11
83.807910
 21
518.421190
 31
0.0
  0
LINE
  5
212
100
AcDbEntity
  8
newlayer
 62
7
100
AcDbLine
 10
83.807910
 20
518.421190
 30
0.0
 11
104.087910
 21
518.421190
 31
0.0
  0
LINE
  5
213
100
AcDbEntity
  8
newlayer
 62
7
100
AcDbLine
 10
104.087910
 20
518.421190
 30
0.0
 11
104.087910
 21
510.421206
 31
0.0
  0
LINE
  5
214
100
AcDbEntity
  8
newlayer
 62
7
100
AcDbLine
 10
104.087910
 20
510.421206
 30
0.0
 11
126.307909
 21
510.421206
 31
0.0
  0
LINE
  5
215
100
AcDbEntity
  8
newlayer
 62
7
100
AcDbLine
 10
126.307909
 20
510.421206
 30
0.0
 11
126.307909
 21
518.421190
 31
0.0
  0
LINE
  5
216
100
AcDbEntity
  8
newlayer
 62
7
100
AcDbLine
 10
126.307909
 20
518.421190
 30
0.0
 11
146.587910
 21
518.421190
 31
0.0
  0
LINE
  5
217
100
AcDbEntity
  8
newlayer
 62
7
100
AcDbLine
 10
146.587910
 20
518.421190
 30
0.0
 11
146.587910
 21
510.421206
 31
0.0
  0
LINE
  5
218
100
AcDbEntity
  8
newlayer
 62
7
100
AcDbLine
 10
146.587910
 20
510.421206
 30
0.0
 11
160.947910
 21
510.421206
 31
0.0
  0
LINE
  5
219
100
AcDbEntity
  8
newlayer
 62
7
100
AcDbLine
 10
160.947910
 20
510.421206
 30
0.0
 11
160.947910
 21
498.561213
 31
0.0
  0
LINE
  5
21a
100
AcDbEntity
  8
newlayer
 62
7
100
AcDbLine
 10
709.473985
 20
329.509227
 30
0.0
 11
701.473973
 21
329.509227
 31
0.0
  0
LINE
  5
21b
100
AcDbEntity
  8
newlayer
 62
7
100
AcDbLine
 10
701.473973
 20
329.509227
 30
0.0
 11
701.473973
 21
309.789231
 31
0.0
  0
LINE
  5
21c
100
AcDbEntity
  8
newlayer
 62
7
100
AcDbLine
 10
701.473973
 20
309.789231
 30
0.0
 11
709.473985
 21
309.789231
 31
0.0
  0
LINE
  5
21d
100
AcDbEntity
  8
newlayer
 62
7
100
AcDbLine
 10
709.473985
 20
309.789231
 30
0.0
 11
709.473985
 21
289.509250
 31
0.0
  0
LINE
  5
21e
100
AcDbEntity
  8
newlayer
 62
7
100
AcDbLine
 10
709.473985
 20
289.509250
 30
0.0
 11
701.473973
 21
289.509250
 31
0.0
  0
LINE
  5
21f
100
AcDbEntity
  8
newlayer
 62
7
100
AcDbLine
 10
701.473973
 20
289.509250
 30
0.0
 11
701.473973
 21
269.789255
 31
0.0
  0
LINE
  5
220
100
AcDbEntity
  8
newlayer
 62
7
100
AcDbLine
 10
701.473973
 20
269.789255
 30
0.0
 11
709.473985
 21
269.789255
 31
0.0
  0
LINE
  5
221
100
AcDbEntity
  8
newlayer
 62
7
100
AcDbLine
 10
709.473985
 20
269.789255
 30
0.0
 11
709.473985
 21
249.509274
 31
0.0
  0
LINE
  5
222
100
AcDbEntity
  8
newlayer
 62
7
100
AcDbLine
 10
709.473985
 20
249.509274
 30
0.0
 11
701.473973
 21
249.509274
 31
0.0
  0
LINE
  5
223
100
AcDbEntity
  8
newlayer
 62
7
100
AcDbLine
 10
701.473973
 20
249.509274
 30
0.0
 11
701.473973
 21
229.789306
 31
0.0
  0
LINE
  5
224
100
AcDbEntity
  8
newlayer
 62
7
100
AcDbLine
 10
701.473973
 20
229.789306
 30
0.0
 11
709.473985
 21
229.789306
 31
0.0
  0
LINE
  5
225
100
AcDbEntity
  8
newlayer
 62
7
100
AcDbLine
 10
709.473985
 20
229.789306
 30
0.0
 11
709.473985
 21
209.509326
 31
0.0
  0
LINE
  5
226
100
AcDbEntity
  8
newlayer
 62
7
100
AcDbLine
 10
709.473985
 20
209.509326
 30
0.0
 11
701.473973
 21
209.509326
 31
0.0
  0
LINE
  5
227
100
AcDbEntity
  8
newlayer
 62
7
100
AcDbLine
 10
701.473973
 20
209.509326
 30
0.0
 11
701.473973
 21
189.789330
 31
0.0
  0
LINE
  5
228
100
AcDbEntity
  8
newlayer
 62
7
100
AcDbLine
 10
701.473973
 20
189.789330
 30
0.0
 11
709.473985
 21
189.789330
 31
0.0
  0
LINE
  5
229
100
AcDbEntity
  8
newlayer
 62
7
100
AcDbLine
 10
709.473985
 20
189.789330
 30
0.0
 11
709.473985
 21
169.509349
 31
0.0
  0
LINE
  5
22a
100
AcDbEntity
  8
newlayer
 62
7
100
AcDbLine
 10
709.473985
 20
169.509349
 30
0.0
 11
701.473973
 21
169.509349
 31
0.0
  0
LINE
  5
22b
100
AcDbEntity
  8
newlayer
 62
7
100
AcDbLine
 10
701.473973
 20
169.509349
 30
0.0
 11
701.473973
 21
149.789354
 31
0.0
  0
LINE
  5
22c
100
AcDbEntity
  8
newlayer
 62
7
100
AcDbLine
 10
701.473973
 20
149.789354
 30
0.0
 11
709.473985
 21
149.789354
 31
0.0
  0
LINE
  5
22d
100
AcDbEntity
  8
newlayer
 62
7
100
AcDbLine
 10
709.473985
 20
149.789354
 30
0.0
 11
709.473985
 21
129.509344
 31
0.0
  0
LINE
  5
22e
100
AcDbEntity
  8
newlayer
 62
7
100
AcDbLine
 10
709.473985
 20
129.509344
 30
0.0
 11
701.473973
 21
129.509344
 31
0.0
  0
LINE
  5
22f
100
AcDbEntity
  8
newlayer
 62
7
100
AcDbLine
 10
701.473973
 20
129.509344
 30
0.0
 11
701.473973
 21
109.789349
 31
0.0
  0
LINE
  5
230
100
AcDbEntity
  8
newlayer
 62
7
100
AcDbLine
 10
701.473973
 20
109.789349
 30
0.0
 11
709.473985
 21
109.789349
 31
0.0
  0
LINE
  5
231
100
AcDbEntity
  8
newlayer
 62
7
100
AcDbLine
 10
709.473985
 20
109.789349
 30
0.0
 11
709.473985
 21
89.509368
 31
0.0
  0
LINE
  5
232
100
AcDbEntity
  8
newlayer
 62
7
100
AcDbLine
 10
709.473985
 20
89.509368
 30
0.0
 11
701.473973
 21
89.509368
 31
0.0
  0
LINE
  5
233
100
AcDbEntity
  8
newlayer
 62
7
100
AcDbLine
 10
701.473973
 20
89.509368
 30
0.0
 11
701.473973
 21
69.789401
 31
0.0
  0
LINE
  5
234
100
AcDbEntity
  8
newlayer
 62
7
100
AcDbLine
 10
701.473973
 20
69.789401
 30
0.0
 11
709.473985
 21
69.789401
 31
0.0
  0
LINE
  5
235
100
AcDbEntity
  8
newlayer
 62
7
100
AcDbLine
 10
709.473985
 20
69.789401
 30
0.0
 11
709.473985
 21
49.649402
 31
0.0
  0
LINE
  5
236
100
AcDbEntity
  8
newlayer
 62
7
100
AcDbLine
 10
709.473985
 20
49.649402
 30
0.0
 11
686.000688
 21
49.649402
 31
0.0
  0
LINE
  5
237
100
AcDbEntity
  8
newlayer
 62
7
100
AcDbLine
 10
686.000688
 20
49.649402
 30
0.0
 11
666.280664
 21
49.649402
 31
0.0
  0
LINE
  5
238
100
AcDbEntity
  8
newlayer
 62
7
100
AcDbLine
 10
666.280664
 20
49.649402
 30
0.0
 11
642.667357
 21
49.649402
 31
0.0
  0
LINE
  5
239
100
AcDbEntity
  8
newlayer
 62
7
100
AcDbLine
 10
642.667357
 20
49.649402
 30
0.0
 11
622.947361
 21
49.649402
 31
0.0
  0
LINE
  5
23a
100
AcDbEntity
  8
newlayer
 62
7
100
AcDbLine
 10
622.947361
 20
49.649402
 30
0.0
 11
599.334054
 21
49.649402
 31
0.0
  0
LINE
  5
23b
100
AcDbEntity
  8
newlayer
 62
7
100
AcDbLine
 10
599.334054
 20
49.649402
 30
0.0
 11
579.614030
 21
49.649402
 31
0.0
  0
LINE
  5
23c
100
AcDbEntity
  8
newlayer
 62
7
100
AcDbLine
 10
579.614030
 20
49.649402
 30
0.0
 11
556.000722
 21
49.649402
 31
0.0
  0
LINE
  5
23d
100
AcDbEntity
  8
newlayer
 62
7
100
AcDbLine
 10
556.000722
 20
49.649402
 30
0.0
 11
536.280727
 21
49.649402
 31
0.0
  0
LINE
  5
23e
100
AcDbEntity
  8
newlayer
 62
7
100
AcDbLine
 10
536.280727
 20
49.649402
 30
0.0
 11
512.667391
 21
49.649402
 31
0.0
  0
LINE
  5
23f
100
AcDbEntity
  8
newlayer
 62
7
100
AcDbLine
 10
512.667391
 20
49.649402
 30
0.0
 11
492.947396
 21
49.649402
 31
0.0
  0
LINE
  5
240
100
AcDbEntity
  8
newlayer
 62
7
100
AcDbLine
 10
492.947396
 20
49.649402
 30
0.0
 11
469.334088
 21
49.649402
 31
0.0
  0
LINE
  5
241
100
AcDbEntity
  8
newlayer
 62
7
100
AcDbLine
 10
469.334088
 20
49.649402
 30
0.0
 11
449.614121
 21
49.649402
 31
0.0
  0
LINE
  5
242
100
AcDbEntity
  8
newlayer
 62
7
100
AcDbLine
 10
449.614121
 20
49.649402
 30
0.0
 11
426.000785
 21
49.649402
 31
0.0
  0
LINE
  5
243
100
AcDbEntity
  8
newlayer
 62
7
100
AcDbLine
 10
426.000785
 20
49.649402
 30
0.0
 11
406.280789
 21
49.649402
 31
0.0
  0
LINE
  5
244
100
AcDbEntity
  8
newlayer
 62
7
100
AcDbLine
 10
406.280789
 20
49.649402
 30
0.0
 11
382.667482
 21
49.649402
 31
0.0
  0
LINE
  5
245
100
AcDbEntity
  8
newlayer
 62
7
100
AcDbLine
 10
382.667482
 20
49.649402
 30
0.0
 11
362.947486
 21
49.649402
 31
0.0
  0
LINE
  5
246
100
AcDbEntity
  8
newlayer
 62
7
100
AcDbLine
 10
362.947486
 20
49.649402
 30
0.0
 11
339.334150
 21
49.649402
 31
0.0
  0
LINE
  5
247
100
AcDbEntity
  8
newlayer
 62
7
100
AcDbLine
 10
339.334150
 20
49.649402
 30
0.0
 11
319.614183
 21
49.649402
 31
0.0
  0
LINE
  5
248
100
AcDbEntity
  8
newlayer
 62
7
100
AcDbLine
 10
319.614183
 20
49.649402
 30
0.0
 11
296.000847
 21
49.649402
 31
0.0
  0
LINE
  5
249
100
AcDbEntity
  8
newlayer
 62
7
100
AcDbLine
 10
296.000847
 20
49.649402
 30
0.0
 11
276.280860
 21
49.649402
 31
0.0
  0
LINE
  5
24a
100
AcDbEntity
  8
newlayer
 62
7
100
AcDbLine
 10
276.280860
 20
49.649402
 30
0.0
 11
252.667533
 21
49.649402
 31
0.0
  0
LINE
  5
24b
100
AcDbEntity
  8
newlayer
 62
7
100
AcDbLine
 10
252.667533
 20
49.649402
 30
0.0
 11
232.947543
 21
49.649402
 31
0.0
  0
LINE
  5
24c
100
AcDbEntity
  8
newlayer
 62
7
100
AcDbLine
 10
232.947543
 20
49.649402
 30
0.0
 11
209.474221
 21
49.649402
 31
0.0
  0
LINE
  5
24d
100
AcDbEntity
  8
newlayer
 62
7
100
AcDbLine
 10
209.474221
 20
49.649402
 30
0.0
 11
209.474221
 21
69.789401
 31
0.0
  0
LINE
  5
24e
100
AcDbEntity
  8
newlayer
 62
7
100
AcDbLine
 10
209.474221
 20
69.789401
 30
0.0
 11
217.474216
 21
69.789401
 31
0.0
  0
LINE
  5
24f
100
AcDbEntity
  8
newlayer
 62
7
100
AcDbLine
 10
217.474216
 20
69.789401
 30
0.0
 11
217.474216
 21
89.509368
 31
0.0
  0
LINE
  5
250
100
AcDbEntity
  8
newlayer
 62
7
100
AcDbLine
 10
217.474216
 20
89.509368
 30
0.0
 11
209.474221
 21
89.509368
 31
0.0
  0
LINE
  5
251
100
AcDbEntity
  8
newlayer
 62
7
100
AcDbLine
 10
209.474221
 20
89.509368
 30
0.0
 11
209.474221
 21
109.789349
 31
0.0
  0
LINE
  5
252
100
AcDbEntity
  8
newlayer
 62
7
100
AcDbLine
 10
209.474221
 20
109.789349
 30
0.0
 11
217.474216
 21
109.789349
 31
0.0
  0
LINE
  5
253
100
AcDbEntity
  8
newlayer
 62
7
100
AcDbLine
 10
217.474216
 20
109.789349
 30
0.0
 11
217.474216
 21
129.509344
 31
0.0
  0
LINE
  5
254
100
AcDbEntity
  8
newlayer
 62
7
100
AcDbLine
 10
217.474216
 20
129.509344
 30
0.0
 11
209.474221
 21
129.509344
 31
0.0
  0
LINE
  5
255
100
AcDbEntity
  8
newlayer
 62
7
100
AcDbLine
 10
209.474221
 20
129.509344
 30
0.0
 11
209.474221
 21
149.789354
 31
0.0
  0
LINE
  5
256
100
AcDbEntity
  8
newlayer
 62
7
100
AcDbLine
 10
209.474221
 20
149.789354
 30
0.0
 11
217.474216
 21
149.789354
 31
0.0
  0
LINE
  5
257
100
AcDbEntity
  8
newlayer
 62
7
100
AcDbLine
 10
217.474216
 20
149.789354
 30
0.0
 11
217.474216
 21
169.509349
 31
0.0
  0
LINE
  5
258
100
AcDbEntity
  8
newlayer
 62
7
100
AcDbLine
 10
217.474216
 20
169.509349
 30
0.0
 11
209.474221
 21
169.509349
 31
0.0
  0
LINE
  5
259
100
AcDbEntity
  8
newlayer
 62
7
100
AcDbLine
 10
209.474221
 20
169.509349
 30
0.0
 11
209.474221
 21
189.789330
 31
0.0
  0
LINE
  5
25a
100
AcDbEntity
  8
newlayer
 62
7
100
AcDbLine
 10
209.474221
 20
189.789330
 30
0.0
 11
217.474216
 21
189.789330
 31
0.0
  0
LINE
  5
25b
100
AcDbEntity
  8
newlayer
 62
7
100
AcDbLine
 10
217.474216
 20
189.789330
 30
0.0
 11
217.474216
 21
209.509326
 31
0.0
  0
LINE
  5
25c
100
AcDbEntity
  8
newlayer
 62
7
100
AcDbLine
 10
217.474216
 20
209.509326
 30
0.0
 11
209.474221
 21
209.509326
 31
0.0
  0
LINE
  5
25d
100
AcDbEntity
  8
newlayer
 62
7
100
AcDbLine
 10
209.474221
 20
209.509326
 30
0.0
 11
209.474221
 21
229.789306
 31
0.0
  0
LINE
  5
25e
100
AcDbEntity
  8
newlayer
 62
7
100
AcDbLine
 10
209.474221
 20
229.789306
 30
0.0
 11
217.474216
 21
229.789306
 31
0.0
  0
LINE
  5
25f
100
AcDbEntity
  8
newlayer
 62
7
100
AcDbLine
 10
217.474216
 20
229.789306
 30
0.0
 11
217.474216
 21
249.509274
 31
0.0
  0
LINE
  5
260
100
AcDbEntity
  8
newlayer
 62
7
100
AcDbLine
 10
217.474216
 20
249.509274
 30
0.0
 11
209.474221
 21
249.509274
 31
0.0
  0
LINE
  5
261
100
AcDbEntity
  8
newlayer
 62
7
100
AcDbLine
 10
209.474221
 20
249.509274
 30
0.0
 11
209.474221
 21
269.789255
 31
0.0
  0
LINE
  5
262
100
AcDbEntity
  8
newlayer
 62
7
100
AcDbLine
 10
209.474221
 20
269.789255
 30
0.0
 11
217.474216
 21
269.789255
 31
0.0
  0
LINE
  5
263
100
AcDbEntity
  8
newlayer
 62
7
100
AcDbLine
 10
217.474216
 20
269.789255
 30
0.0
 11
217.474216
 21
289.509250
 31
0.0
  0
LINE
  5
264
100
AcDbEntity
  8
newlayer
 62
7
100
AcDbLine
 10
217.474216
 20
289.509250
 30
0.0
 11
209.474221
 21
289.509250
 31
0.0
  0
LINE
  5
265
100
AcDbEntity
  8
newlayer
 62
7
100
AcDbLine
 10
209.474221
 20
289.509250
 30
0.0
 11
209.474221
 21
309.789231
 31
0.0
  0
LINE
  5
266
100
AcDbEntity
  8
newlayer
 62
7
100
AcDbLine
 10
209.474221
 20
309.789231
 30
0.0
 11
217.474216
 21
309.789231
 31
0.0
  0
LINE
  5
267
100
AcDbEntity
  8
newlayer
 62
7
100
AcDbLine
 10
217.474216
 20
309.789231
 30
0.0
 11
217.474216
 21
329.509227
 31
0.0
  0
LINE
  5
268
100
AcDbEntity
  8
newlayer
 62
7
100
AcDbLine
 10
217.474216
 20
329.509227
 30
0.0
 11
209.474221
 21
329.509227
 31
0.0
  0
LINE
  5
269
100
AcDbEntity
  8
newlayer
 62
7
100
AcDbLine
 10
209.474221
 20
329.509227
 30
0.0
 11
209.474221
 21
349.649197
 31
0.0
  0
LINE
  5
26a
100
AcDbEntity
  8
newlayer
 62
7
100
AcDbLine
 10
209.474221
 20
349.649197
 30
0.0
 11
232.947543
 21
349.649197
 31
0.0
  0
LINE
  5
26b
100
AcDbEntity
  8
newlayer
 62
7
100
AcDbLine
 10
232.947543
 20
349.649197
 30
0.0
 11
232.947543
 21
341.649213
 31
0.0
  0
LINE
  5
26c
100
AcDbEntity
  8
newlayer
 62
7
100
AcDbLine
 10
232.947543
 20
341.649213
 30
0.0
 11
252.667533
 21
341.649213
 31
0.0
  0
LINE
  5
26d
100
AcDbEntity
  8
newlayer
 62
7
100
AcDbLine
 10
252.667533
 20
341.649213
 30
0.0
 11
252.667533
 21
349.649197
 31
0.0
  0
LINE
  5
26e
100
AcDbEntity
  8
newlayer
 62
7
100
AcDbLine
 10
252.667533
 20
349.649197
 30
0.0
 11
276.280860
 21
349.649197
 31
0.0
  0
LINE
  5
26f
100
AcDbEntity
  8
newlayer
 62
7
100
AcDbLine
 10
276.280860
 20
349.649197
 30
0.0
 11
276.280860
 21
341.649213
 31
0.0
  0
LINE
  5
270
100
AcDbEntity
  8
newlayer
 62
7
100
AcDbLine
 10
276.280860
 20
341.649213
 30
0.0
 11
296.000847
 21
341.649213
 31
0.0
  0
LINE
  5
271
100
AcDbEntity
  8
newlayer
 62
7
100
AcDbLine
 10
296.000847
 20
341.649213
 30
0.0
 11
296.000847
 21
349.649197
 31
0.0
  0
LINE
  5
272
100
AcDbEntity
  8
newlayer
 62
7
100
AcDbLine
 10
296.000847
 20
349.649197
 30
0.0
 11
319.614183
 21
349.649197
 31
0.0
  0
LINE
  5
273
100
AcDbEntity
  8
newlayer
 62
7
100
AcDbLine
 10
319.614183
 20
349.649197
 30
0.0
 11
319.614183
 21
341.649213
 31
0.0
  0
LINE
  5
274
100
AcDbEntity
  8
newlayer
 62
7
100
AcDbLine
 10
319.614183
 20
341.649213
 30
0.0
 11
339.334150
 21
341.649213
 31
0.0
  0
LINE
  5
275
100
AcDbEntity
  8
newlayer
 62
7
100
AcDbLine
 10
339.334150
 20
341.649213
 30
0.0
 11
339.334150
 21
349.649197
 31
0.0
  0
LINE
  5
276
100
AcDbEntity
  8
newlayer
 62
7
100
AcDbLine
 10
339.334150
 20
349.649197
 30
0.0
 11
362.947486
 21
349.649197
 31
0.0
  0
LINE
  5
277
100
AcDbEntity
  8
newlayer
 62
7
100
AcDbLine
 10
362.947486
 20
349.649197
 30
0.0
 11
362.947486
 21
341.649213
 31
0.0
  0
LINE
  5
278
100
AcDbEntity
  8
newlayer
 62
7
100
AcDbLine
 10
362.947486
 20
341.649213
 30
0.0
 11
382.667482
 21
341.649213
 31
0.0
  0
LINE
  5
279
100
AcDbEntity
  8
newlayer
 62
7
100
AcDbLine
 10
382.667482
 20
341.649213
 30
0.0
 11
382.667482
 21
349.649197
 31
0.0
  0
LINE
  5
27a
100
AcDbEntity
  8
newlayer
 62
7
100
AcDbLine
 10
382.667482
 20
349.649197
 30
0.0
 11
406.280789
 21
349.649197
 31
0.0
  0
LINE
  5
27b
100
AcDbEntity
  8
newlayer
 62
7
100
AcDbLine
 10
406.280789
 20
349.649197
 30
0.0
 11
406.280789
 21
341.649213
 31
0.0
  0
LINE
  5
27c
100
AcDbEntity
  8
newlayer
 62
7
100
AcDbLine
 10
406.280789
 20
341.649213
 30
0.0
 11
426.000785
 21
341.649213
 31
0.0
  0
LINE
  5
27d
100
AcDbEntity
  8
newlayer
 62
7
100
AcDbLine
 10
426.000785
 20
341.649213
 30
0.0
 11
426.000785
 21
349.649197
 31
0.0
  0
LINE
  5
27e
100
AcDbEntity
  8
newlayer
 62
7
100
AcDbLine
 10
426.000785
 20
349.649197
 30
0.0
 11
449.614121
 21
349.649197
 31
0.0
  0
LINE
  5
27f
100
AcDbEntity
  8
newlayer
 62
7
100
AcDbLine
 10
449.614121
 20
349.649197
 30
0.0
 11
449.614121
 21
341.649213
 31
0.0
  0
LINE
  5
280
100
AcDbEntity
  8
newlayer
 62
7
100
AcDbLine
 10
449.614121
 20
341.649213
 30
0.0
 11
469.334088
 21
341.649213
 31
0.0
  0
LINE
  5
281
100
AcDbEntity
  8
newlayer
 62
7
100
AcDbLine
 10
469.334088
 20
341.649213
 30
0.0
 11
469.334088
 21
349.649197
 31
0.0
  0
LINE
  5
282
100
AcDbEntity
  8
newlayer
 62
7
100
AcDbLine
 10
469.334088
 20
349.649197
 30
0.0
 11
492.947396
 21
349.649197
 31
0.0
  0
LINE
  5
283
100
AcDbEntity
  8
newlayer
 62
7
100
AcDbLine
 10
492.947396
 20
349.649197
 30
0.0
 11
492.947396
 21
341.649213
 31
0.0
  0
LINE
  5
284
100
AcDbEntity
  8
newlayer
 62
7
100
AcDbLine
 10
492.947396
 20
341.649213
 30
0.0
 11
512.667391
 21
341.649213
 31
0.0
  0
LINE
  5
285
100
AcDbEntity
  8
newlayer
 62
7
100
AcDbLine
 10
512.667391
 20
341.649213
 30
0.0
 11
512.667391
 21
349.649197
 31
0.0
  0
LINE
  5
286
100
AcDbEntity
  8
newlayer
 62
7
100
AcDbLine
 10
512.667391
 20
349.649197
 30
0.0
 11
536.280727
 21
349.649197
 31
0.0
  0
LINE
  5
287
100
AcDbEntity
  8
newlayer
 62
7
100
AcDbLine
 10
536.280727
 20
349.649197
 30
0.0
 11
536.280727
 21
341.649213
 31
0.0
  0
LINE
  5
288
100
AcDbEntity
  8
newlayer
 62
7
100
AcDbLine
 10
536.280727
 20
341.649213
 30
0.0
 11
556.000722
 21
341.649213
 31
0.0
  0
LINE
  5
289
100
AcDbEntity
  8
newlayer
 62
7
100
AcDbLine
 10
556.000722
 20
341.649213
 30
0.0
 11
556.000722
 21
349.649197
 31
0.0
  0
LINE
  5
28a
100
AcDbEntity
  8
newlayer
 62
7
100
AcDbLine
 10
556.000722
 20
349.649197
 30
0.0
 11
579.614030
 21
349.649197
 31
0.0
  0
LINE
  5
28b
100
AcDbEntity
  8
newlayer
 62
7
100
AcDbLine
 10
579.614030
 20
349.649197
 30
0.0
 11
579.614030
 21
341.649213
 31
0.0
  0
LINE
  5
28c
100
AcDbEntity
  8
newlayer
 62
7
100
AcDbLine
 10
579.614030
 20
341.649213
 30
0.0
 11
599.334054
 21
341.649213
 31
0.0
  0
LINE
  5
28d
100
AcDbEntity
  8
newlayer
 62
7
100
AcDbLine
 10
599.334054
 20
341.649213
 30
0.0
 11
599.334054
 21
349.649197
 31
0.0
  0
LINE
  5
28e
100
AcDbEntity
  8
newlayer
 62
7
100
AcDbLine
 10
599.334054
 20
349.649197
 30
0.0
 11
622.947361
 21
349.649197
 31
0.0
  0
LINE
  5
28f
100
AcDbEntity
  8
newlayer
 62
7
100
AcDbLine
 10
622.947361
 20
349.649197
 30
0.0
 11
622.947361
 21
341.649213
 31
0.0
  0
LINE
  5
290
100
AcDbEntity
  8
newlayer
 62
7
100
AcDbLine
 10
622.947361
 20
341.649213
 30
0.0
 11
642.667357
 21
341.649213
 31
0.0
  0
LINE
  5
291
100
AcDbEntity
  8
newlayer
 62
7
100
AcDbLine
 10
642.667357
 20
341.649213
 30
0.0
 11
642.667357
 21
349.649197
 31
0.0
  0
LINE
  5
292
100
AcDbEntity
  8
newlayer
 62
7
100
AcDbLine
 10
642.667357
 20
349.649197
 30
0.0
 11
666.280664
 21
349.649197
 31
0.0
  0
LINE
  5
293
100
AcDbEntity
  8
newlayer
 62
7
100
AcDbLine
 10
666.280664
 20
349.649197
 30
0.0
 11
666.280664
 21
341.649213
 31
0.0
  0
LINE
  5
294
100
AcDbEntity
  8
newlayer
 62
7
100
AcDbLine
 10
666.280664
 20
341.649213
 30
0.0
 11
686.000688
 21
341.649213
 31
0.0
  0
LINE
  5
295
100
AcDbEntity
  8
newlayer
 62
7
100
AcDbLine
 10
686.000688
 20
341.649213
 30
0.0
 11
686.000688
 21
349.649197
 31
0.0
  0
LINE
  5
296
100
AcDbEntity
  8
newlayer
 62
7
100
AcDbLine
 10
686.000688
 20
349.649197
 30
0.0
 11
709.473985
 21
349.649197
 31
0.0
  0
LINE
  5
297
100
AcDbEntity
  8
newlayer
 62
7
100
AcDbLine
 10
709.473985
 20
349.649197
 30
0.0
 11
709.473985
 21
329.509227
 31
0.0
  0
LINE
  5
298
100
AcDbEntity
  8
newlayer
 62
7
100
AcDbLine
 10
705.964665
 20
860.868345
 30
0.0
 11
697.964681
 21
860.868345
 31
0.0
  0
LINE
  5
299
100
AcDbEntity
  8
newlayer
 62
7
100
AcDbLine
 10
697.964681
 20
860.868345
 30
0.0
 11
697.964681
 21
841.148378
 31
0.0
  0
LINE
  5
29a
100
AcDbEntity
  8
newlayer
 62
7
100
AcDbLine
 10
697.964681
 20
841.148378
 30
0.0
 11
705.964665
 21
841.148378
 31
0.0
  0
LINE
  5
29b
100
AcDbEntity
  8
newlayer
 62
7
100
AcDbLine
 10
705.964665
 20
841.148378
 30
0.0
 11
705.964665
 21
818.368410
 31
0.0
  0
LINE
  5
29c
100
AcDbEntity
  8
newlayer
 62
7
100
AcDbLine
 10
705.964665
 20
818.368410
 30
0.0
 11
697.964681
 21
818.368410
 31
0.0
  0
LINE
  5
29d
100
AcDbEntity
  8
newlayer
 62
7
100
AcDbLine
 10
697.964681
 20
818.368410
 30
0.0
 11
697.964681
 21
798.648440
 31
0.0
  0
LINE
  5
29e
100
AcDbEntity
  8
newlayer
 62
7
100
AcDbLine
 10
697.964681
 20
798.648440
 30
0.0
 11
705.964665
 21
798.648440
 31
0.0
  0
LINE
  5
29f
100
AcDbEntity
  8
newlayer
 62
7
100
AcDbLine
 10
705.964665
 20
798.648440
 30
0.0
 11
705.964665
 21
775.868476
 31
0.0
  0
LINE
  5
2a0
100
AcDbEntity
  8
newlayer
 62
7
100
AcDbLine
 10
705.964665
 20
775.868476
 30
0.0
 11
697.964681
 21
775.868476
 31
0.0
  0
LINE
  5
2a1
100
AcDbEntity
  8
newlayer
 62
7
100
AcDbLine
 10
697.964681
 20
775.868476
 30
0.0
 11
697.964681
 21
756.148505
 31
0.0
  0
LINE
  5
2a2
100
AcDbEntity
  8
newlayer
 62
7
100
AcDbLine
 10
697.964681
 20
756.148505
 30
0.0
 11
705.964665
 21
756.148505
 31
0.0
  0
LINE
  5
2a3
100
AcDbEntity
  8
newlayer
 62
7
100
AcDbLine
 10
705.964665
 20
756.148505
 30
0.0
 11
705.964665
 21
741.508527
 31
0.0
  0
LINE
  5
2a4
100
AcDbEntity
  8
newlayer
 62
7
100
AcDbLine
 10
705.964665
 20
741.508527
 30
0.0
 11
682.771332
 21
741.508527
 31
0.0
  0
LINE
  5
2a5
100
AcDbEntity
  8
newlayer
 62
7
100
AcDbLine
 10
682.771332
 20
741.508527
 30
0.0
 11
682.771332
 21
733.508537
 31
0.0
  0
LINE
  5
2a6
100
AcDbEntity
  8
newlayer
 62
7
100
AcDbLine
 10
682.771332
 20
733.508537
 30
0.0
 11
662.491380
 21
733.508537
 31
0.0
  0
LINE
  5
2a7
100
AcDbEntity
  8
newlayer
 62
7
100
AcDbLine
 10
662.491380
 20
733.508537
 30
0.0
 11
662.491380
 21
741.508527
 31
0.0
  0
LINE
  5
2a8
100
AcDbEntity
  8
newlayer
 62
7
100
AcDbLine
 10
662.491380
 20
741.508527
 30
0.0
 11
639.438029
 21
741.508527
 31
0.0
  0
LINE
  5
2a9
100
AcDbEntity
  8
newlayer
 62
7
100
AcDbLine
 10
639.438029
 20
741.508527
 30
0.0
 11
639.438029
 21
733.508537
 31
0.0
  0
LINE
  5
2aa
100
AcDbEntity
  8
newlayer
 62
7
100
AcDbLine
 10
639.438029
 20
733.508537
 30
0.0
 11
619.158048
 21
733.508537
 31
0.0
  0
LINE
  5
2ab
100
AcDbEntity
  8
newlayer
 62
7
100
AcDbLine
 10
619.158048
 20
733.508537
 30
0.0
 11
619.158048
 21
741.508527
 31
0.0
  0
LINE
  5
2ac
100
AcDbEntity
  8
newlayer
 62
7
100
AcDbLine
 10
619.158048
 20
741.508527
 30
0.0
 11
596.104698
 21
741.508527
 31
0.0
  0
LINE
  5
2ad
100
AcDbEntity
  8
newlayer
 62
7
100
AcDbLine
 10
596.104698
 20
741.508527
 30
0.0
 11
596.104698
 21
733.508537
 31
0.0
  0
LINE
  5
2ae
100
AcDbEntity
  8
newlayer
 62
7
100
AcDbLine
 10
596.104698
 20
733.508537
 30
0.0
 11
575.824717
 21
733.508537
 31
0.0
  0
LINE
  5
2af
100
AcDbEntity
  8
newlayer
 62
7
100
AcDbLine
 10
575.824717
 20
733.508537
 30
0.0
 11
575.824717
 21
741.508527
 31
0.0
  0
LINE
  5
2b0
100
AcDbEntity
  8
newlayer
 62
7
100
AcDbLine
 10
575.824717
 20
741.508527
 30
0.0
 11
552.771395
 21
741.508527
 31
0.0
  0
LINE
  5
2b1
100
AcDbEntity
  8
newlayer
 62
7
100
AcDbLine
 10
552.771395
 20
741.508527
 30
0.0
 11
552.771395
 21
733.508537
 31
0.0
  0
LINE
  5
2b2
100
AcDbEntity
  8
newlayer
 62
7
100
AcDbLine
 10
552.771395
 20
733.508537
 30
0.0
 11
532.491414
 21
733.508537
 31
0.0
  0
LINE
  5
2b3
100
AcDbEntity
  8
newlayer
 62
7
100
AcDbLine
 10
532.491414
 20
733.508537
 30
0.0
 11
532.491414
 21
741.508527
 31
0.0
  0
LINE
  5
2b4
100
AcDbEntity
  8
newlayer
 62
7
100
AcDbLine
 10
532.491414
 20
741.508527
 30
0.0
 11
509.438092
 21
741.508527
 31
0.0
  0
LINE
  5
2b5
100
AcDbEntity
  8
newlayer
 62
7
100
AcDbLine
 10
509.438092
 20
741.508527
 30
0.0
 11
509.438092
 21
733.508537
 31
0.0
  0
LINE
  5
2b6
100
AcDbEntity
  8
newlayer
 62
7
100
AcDbLine
 10
509.438092
 20
733.508537
 30
0.0
 11
489.158082
 21
733.508537
 31
0.0
  0
LINE
  5
2b7
100
AcDbEntity
  8
newlayer
 62
7
100
AcDbLine
 10
489.158082
 20
733.508537
 30
0.0
 11
489.158082
 21
741.508527
 31
0.0
  0
LINE
  5
2b8
100
AcDbEntity
  8
newlayer
 62
7
100
AcDbLine
 10
489.158082
 20
741.508527
 30
0.0
 11
466.104760
 21
741.508527
 31
0.0
  0
LINE
  5
2b9
100
AcDbEntity
  8
newlayer
 62
7
100
AcDbLine
 10
466.104760
 20
741.508527
 30
0.0
 11
466.104760
 21
733.508537
 31
0.0
  0
LINE
  5
2ba
100
AcDbEntity
  8
newlayer
 62
7
100
AcDbLine
 10
466.104760
 20
733.508537
 30
0.0
 11
445.824779
 21
733.508537
 31
0.0
  0
LINE
  5
2bb
100
AcDbEntity
  8
newlayer
 62
7
100
AcDbLine
 10
445.824779
 20
733.508537
 30
0.0
 11
445.824779
 21
741.508527
 31
0.0
  0
LINE
  5
2bc
100
AcDbEntity
  8
newlayer
 62
7
100
AcDbLine
 10
445.824779
 20
741.508527
 30
0.0
 11
422.771457
 21
741.508527
 31
0.0
  0
LINE
  5
2bd
100
AcDbEntity
  8
newlayer
 62
7
100
AcDbLine
 10
422.771457
 20
741.508527
 30
0.0
 11
422.771457
 21
733.508537
 31
0.0
  0
LINE
  5
2be
100
AcDbEntity
  8
newlayer
 62
7
100
AcDbLine
 10
422.771457
 20
733.508537
 30
0.0
 11
402.491476
 21
733.508537
 31
0.0
  0
LINE
  5
2bf
100
AcDbEntity
  8
newlayer
 62
7
100
AcDbLine
 10
402.491476
 20
733.508537
 30
0.0
 11
402.491476
 21
741.508527
 31
0.0
  0
LINE
  5
2c0
100
AcDbEntity
  8
newlayer
 62
7
100
AcDbLine
 10
402.491476
 20
741.508527
 30
0.0
 11
379.438154
 21
741.508527
 31
0.0
  0
LINE
  5
2c1
100
AcDbEntity
  8
newlayer
 62
7
100
AcDbLine
 10
379.438154
 20
741.508527
 30
0.0
 11
379.438154
 21
733.508537
 31
0.0
  0
LINE
  5
2c2
100
AcDbEntity
  8
newlayer
 62
7
100
AcDbLine
 10
379.438154
 20
733.508537
 30
0.0
 11
359.158145
 21
733.508537
 31
0.0
  0
LINE
  5
2c3
100
AcDbEntity
  8
newlayer
 62
7
100
AcDbLine
 10
359.158145
 20
733.508537
 30
0.0
 11
359.158145
 21
741.508527
 31
0.0
  0
LINE
  5
2c4
100
AcDbEntity
  8
newlayer
 62
7
100
AcDbLine
 10
359.158145
 20
741.508527
 30
0.0
 11
336.104823
 21
741.508527
 31
0.0
  0
LINE
  5
2c5
100
AcDbEntity
  8
newlayer
 62
7
100
AcDbLine
 10
336.104823
 20
741.508527
 30
0.0
 11
336.104823
 21
733.508537
 31
0.0
  0
LINE
  5
2c6
100
AcDbEntity
  8
newlayer
 62
7
100
AcDbLine
 10
336.104823
 20
733.508537
 30
0.0
 11
315.824842
 21
733.508537
 31
0.0
  0
LINE
  5
2c7
100
AcDbEntity
  8
newlayer
 62
7
100
AcDbLine
 10
315.824842
 20
733.508537
 30
0.0
 11
315.824842
 21
741.508527
 31
0.0
  0
LINE
  5
2c8
100
AcDbEntity
  8
newlayer
 62
7
100
AcDbLine
 10
315.824842
 20
741.508527
 30
0.0
 11
292.771520
 21
741.508527
 31
0.0
  0
LINE
  5
2c9
100
AcDbEntity
  8
newlayer
 62
7
100
AcDbLine
 10
292.771520
 20
741.508527
 30
0.0
 11
292.771520
 21
733.508537
 31
0.0
  0
LINE
  5
2ca
100
AcDbEntity
  8
newlayer
 62
7
100
AcDbLine
 10
292.771520
 20
733.508537
 30
0.0
 11
272.491530
 21
733.508537
 31
0.0
  0
LINE
  5
2cb
100
AcDbEntity
  8
newlayer
 62
7
100
AcDbLine
 10
272.491530
 20
733.508537
 30
0.0
 11
272.491530
 21
741.508527
 31
0.0
  0
LINE
  5
2cc
100
AcDbEntity
  8
newlayer
 62
7
100
AcDbLine
 10
272.491530
 20
741.508527
 30
0.0
 11
249.438205
 21
741.508527
 31
0.0
  0
LINE
  5
2cd
100
AcDbEntity
  8
newlayer
 62
7
100
AcDbLine
 10
249.438205
 20
741.508527
 30
0.0
 11
249.438205
 21
733.508537
 31
0.0
  0
LINE
  5
2ce
100
AcDbEntity
  8
newlayer
 62
7
100
AcDbLine
 10
249.438205
 20
733.508537
 30
0.0
 11
229.158213
 21
733.508537
 31
0.0
  0
LINE
  5
2cf
100
AcDbEntity
  8
newlayer
 62
7
100
AcDbLine
 10
229.158213
 20
733.508537
 30
0.0
 11
229.158213
 21
741.508527
 31
0.0
  0
LINE
  5
2d0
100
AcDbEntity
  8
newlayer
 62
7
100
AcDbLine
 10
229.158213
 20
741.508527
 30
0.0
 11
205.964892
 21
741.508527
 31
0.0
  0
LINE
  5
2d1
100
AcDbEntity
  8
newlayer
 62
7
100
AcDbLine
 10
205.964892
 20
741.508527
 30
0.0
 11
205.964892
 21
756.148505
 31
0.0
  0
LINE
  5
2d2
100
AcDbEntity
  8
newlayer
 62
7
100
AcDbLine
 10
205.964892
 20
756.148505
 30
0.0
 11
213.964890
 21
756.148505
 31
0.0
  0
LINE
  5
2d3
100
AcDbEntity
  8
newlayer
 62
7
100
AcDbLine
 10
213.964890
 20
756.148505
 30
0.0
 11
213.964890
 21
775.868476
 31
0.0
  0
LINE
  5
2d4
100
AcDbEntity
  8
newlayer
 62
7
100
AcDbLine
 10
213.964890
 20
775.868476
 30
0.0
 11
205.964892
 21
775.868476
 31
0.0
  0
LINE
  5
2d5
100
AcDbEntity
  8
newlayer
 62
7
100
AcDbLine
 10
205.964892
 20
775.868476
 30
0.0
 11
205.964892
 21
798.648440
 31
0.0
  0
LINE
  5
2d6
100
AcDbEntity
  8
newlayer
 62
7
100
AcDbLine
 10
205.964892
 20
798.648440
 30
0.0
 11
213.964890
 21
798.648440
 31
0.0
  0
LINE
  5
2d7
100
AcDbEntity
  8
newlayer
 62
7
100
AcDbLine
 10
213.964890
 20
798.648440
 30
0.0
 11
213.964890
 21
818.368410
 31
0.0
  0
LINE
  5
2d8
100
AcDbEntity
  8
newlayer
 62
7
100
AcDbLine
 10
213.964890
 20
818.368410
 30
0.0
 11
205.964892
 21
818.368410
 31
0.0
  0
LINE
  5
2d9
100
AcDbEntity
  8
newlayer
 62
7
100
AcDbLine
 10
205.964892
 20
818.368410
 30
0.0
 11
205.964892
 21
841.148378
 31
0.0
  0
LINE
  5
2da
100
AcDbEntity
  8
newlayer
 62
7
100
AcDbLine
 10
205.964892
 20
841.148378
 30
0.0
 11
213.964890
 21
841.148378
 31
0.0
  0
LINE
  5
2db
100
AcDbEntity
  8
newlayer
 62
7
100
AcDbLine
 10
213.964890
 20
841.148378
 30
0.0
 11
213.964890
 21
860.868345
 31
0.0
  0
LINE
  5
2dc
100
AcDbEntity
  8
newlayer
 62
7
100
AcDbLine
 10
213.964890
 20
860.868345
 30
0.0
 11
205.964892
 21
860.868345
 31
0.0
  0
LINE
  5
2dd
100
AcDbEntity
  8
newlayer
 62
7
100
AcDbLine
 10
205.964892
 20
860.868345
 30
0.0
 11
205.964892
 21
875.508326
 31
0.0
  0
LINE
  5
2de
100
AcDbEntity
  8
newlayer
 62
7
100
AcDbLine
 10
205.964892
 20
875.508326
 30
0.0
 11
229.158213
 21
875.508326
 31
0.0
  0
LINE
  5
2df
100
AcDbEntity
  8
newlayer
 62
7
100
AcDbLine
 10
229.158213
 20
875.508326
 30
0.0
 11
229.158213
 21
883.508315
 31
0.0
  0
LINE
  5
2e0
100
AcDbEntity
  8
newlayer
 62
7
100
AcDbLine
 10
229.158213
 20
883.508315
 30
0.0
 11
249.438205
 21
883.508315
 31
0.0
  0
LINE
  5
2e1
100
AcDbEntity
  8
newlayer
 62
7
100
AcDbLine
 10
249.438205
 20
883.508315
 30
0.0
 11
249.438205
 21
875.508326
 31
0.0
  0
LINE
  5
2e2
100
AcDbEntity
  8
newlayer
 62
7
100
AcDbLine
 10
249.438205
 20
875.508326
 30
0.0
 11
272.491530
 21
875.508326
 31
0.0
  0
LINE
  5
2e3
100
AcDbEntity
  8
newlayer
 62
7
100
AcDbLine
 10
272.491530
 20
875.508326
 30
0.0
 11
272.491530
 21
883.508315
 31
0.0
  0
LINE
  5
2e4
100
AcDbEntity
  8
newlayer
 62
7
100
AcDbLine
 10
272.491530
 20
883.508315
 30
0.0
 11
292.771520
 21
883.508315
 31
0.0
  0
LINE
  5
2e5
100
AcDbEntity
  8
newlayer
 62
7
100
AcDbLine
 10
292.771520
 20
883.508315
 30
0.0
 11
292.771520
 21
875.508326
 31
0.0
  0
LINE
  5
2e6
100
AcDbEntity
  8
newlayer
 62
7
100
AcDbLine
 10
292.771520
 20
875.508326
 30
0.0
 11
315.824842
 21
875.508326
 31
0.0
  0
LINE
  5
2e7
100
AcDbEntity
  8
newlayer
 62
7
100
AcDbLine
 10
315.824842
 20
875.508326
 30
0.0
 11
315.824842
 21
883.508315
 31
0.0
  0
LINE
  5
2e8
100
AcDbEntity
  8
newlayer
 62
7
100
AcDbLine
 10
315.824842
 20
883.508315
 30
0.0
 11
336.104823
 21
883.508315
 31
0.0
  0
LINE
  5
2e9
100
AcDbEntity
  8
newlayer
 62
7
100
AcDbLine
 10
336.104823
 20
883.508315
 30
0.0
 11
336.104823
 21
875.508326
 31
0.0
  0
LINE
  5
2ea
100
AcDbEntity
  8
newlayer
 62
7
100
AcDbLine
 10
336.104823
 20
875.508326
 30
0.0
 11
359.158145
 21
875.508326
 31
0.0
  0
LINE
  5
2eb
100
AcDbEntity
  8
newlayer
 62
7
100
AcDbLine
 10
359.158145
 20
875.508326
 30
0.0
 11
359.158145
 21
883.508315
 31
0.0
  0
LINE
  5
2ec
100
AcDbEntity
  8
newlayer
 62
7
100
AcDbLine
 10
359.158145
 20
883.508315
 30
0.0
 11
379.438154
 21
883.508315
 31
0.0
  0
LINE
  5
2ed
100
AcDbEntity
  8
newlayer
 62
7
100
AcDbLine
 10
379.438154
 20
883.508315
 30
0.0
 11
379.438154
 21
875.508326
 31
0.0
  0
LINE
  5
2ee
100
AcDbEntity
  8
newlayer
 62
7
100
AcDbLine
 10
379.438154
 20
875.508326
 30
0.0
 11
402.491476
 21
875.508326
 31
0.0
  0
LINE
  5
2ef
100
AcDbEntity
  8
newlayer
 62
7
100
AcDbLine
 10
402.491476
 20
875.508326
 30
0.0
 11
402.491476
 21
883.508315
 31
0.0
  0
LINE
  5
2f0
100
AcDbEntity
  8
newlayer
 62
7
100
AcDbLine
 10
402.491476
 20
883.508315
 30
0.0
 11
422.771457
 21
883.508315
 31
0.0
  0
LINE
  5
2f1
100
AcDbEntity
  8
newlayer
 62
7
100
AcDbLine
 10
422.771457
 20
883.508315
 30
0.0
 11
422.771457
 21
875.508326
 31
0.0
  0
LINE
  5
2f2
100
AcDbEntity
  8
newlayer
 62
7
100
AcDbLine
 10
422.771457
 20
875.508326
 30
0.0
 11
445.824779
 21
875.508326
 31
0.0
  0
LINE
  5
2f3
100
AcDbEntity
  8
newlayer
 62
7
100
AcDbLine
 10
445.824779
 20
875.508326
 30
0.0
 11
445.824779
 21
883.508315
 31
0.0
  0
LINE
  5
2f4
100
AcDbEntity
  8
newlayer
 62
7
100
AcDbLine
 10
445.824779
 20
883.508315
 30
0.0
 11
466.104760
 21
883.508315
 31
0.0
  0
LINE
  5
2f5
100
AcDbEntity
  8
newlayer
 62
7
100
AcDbLine
 10
466.104760
 20
883.508315
 30
0.0
 11
466.104760
 21
875.508326
 31
0.0
  0
LINE
  5
2f6
100
AcDbEntity
  8
newlayer
 62
7
100
AcDbLine
 10
466.104760
 20
875.508326
 30
0.0
 11
489.158082
 21
875.508326
 31
0.0
  0
LINE
  5
2f7
100
AcDbEntity
  8
newlayer
 62
7
100
AcDbLine
 10
489.158082
 20
875.508326
 30
0.0
 11
489.158082
 21
883.508315
 31
0.0
  0
LINE
  5
2f8
100
AcDbEntity
  8
newlayer
 62
7
100
AcDbLine
 10
489.158082
 20
883.508315
 30
0.0
 11
509.438092
 21
883.508315
 31
0.0
  0
LINE
  5
2f9
100
AcDbEntity
  8
newlayer
 62
7
100
AcDbLine
 10
509.438092
 20
883.508315
 30
0.0
 11
509.438092
 21
875.508326
 31
0.0
  0
LINE
  5
2fa
100
AcDbEntity
  8
newlayer
 62
7
100
AcDbLine
 10
509.438092
 20
875.508326
 30
0.0
 11
532.491414
 21
875.508326
 31
0.0
  0
LINE
  5
2fb
100
AcDbEntity
  8
newlayer
 62
7
100
AcDbLine
 10
532.491414
 20
875.508326
 30
0.0
 11
532.491414
 21
883.508315
 31
0.0
  0
LINE
  5
2fc
100
AcDbEntity
  8
newlayer
 62
7
100
AcDbLine
 10
532.491414
 20
883.508315
 30
0.0
 11
552.771395
 21
883.508315
 31
0.0
  0
LINE
  5
2fd
100
AcDbEntity
  8
newlayer
 62
7
100
AcDbLine
 10
552.771395
 20
883.508315
 30
0.0
 11
552.771395
 21
875.508326
 31
0.0
  0
LINE
  5
2fe
100
AcDbEntity
  8
newlayer
 62
7
100
AcDbLine
 10
552.771395
 20
875.508326
 30
0.0
 11
575.824717
 21
875.508326
 31
0.0
  0
LINE
  5
2ff
100
AcDbEntity
  8
newlayer
 62
7
100
AcDbLine
 10
575.824717
 20
875.508326
 30
0.0
 11
575.824717
 21
883.508315
 31
0.0
  0
LINE
  5
300
100
AcDbEntity
  8
newlayer
 62
7
100
AcDbLine
 10
575.824717
 20
883.508315
 30
0.0
 11
596.104698
 21
883.508315
 31
0.0
  0
LINE
  5
301
100
AcDbEntity
  8
newlayer
 62
7
100
AcDbLine
 10
596.104698
 20
883.508315
 30
0.0
 11
596.104698
 21
875.508326
 31
0.0
  0
LINE
  5
302
100
AcDbEntity
  8
newlayer
 62
7
100
AcDbLine
 10
596.104698
 20
875.508326
 30
0.0
 11
619.158048
 21
875.508326
 31
0.0
  0
LINE
  5
303
100
AcDbEntity
  8
newlayer
 62
7
100
AcDbLine
 10
619.158048
 20
875.508326
 30
0.0
 11
619.158048
 21
883.508315
 31
0.0
  0
LINE
  5
304
100
AcDbEntity
  8
newlayer
 62
7
100
AcDbLine
 10
619.158048
 20
883.508315
 30
0.0
 11
639.438029
 21
883.508315
 31
0.0
  0
LINE
  5
305
100
AcDbEntity
  8
newlayer
 62
7
100
AcDbLine
 10
639.438029
 20
883.508315
 30
0.0
 11
639.438029
 21
875.508326
 31
0.0
  0
LINE
  5
306
100
AcDbEntity
  8
newlayer
 62
7
100
AcDbLine
 10
639.438029
 20
875.508326
 30
0.0
 11
662.491380
 21
875.508326
 31
0.0
  0
LINE
  5
307
100
AcDbEntity
  8
newlayer
 62
7
100
AcDbLine
 10
662.491380
 20
875.508326
 30
0.0
 11
662.491380
 21
883.508315
 31
0.0
  0
LINE
  5
308
100
AcDbEntity
  8
newlayer
 62
7
100
AcDbLine
 10
662.491380
 20
883.508315
 30
0.0
 11
682.771332
 21
883.508315
 31
0.0
  0
LINE
  5
309
100
AcDbEntity
  8
newlayer
 62
7
100
AcDbLine
 10
682.771332
 20
883.508315
 30
0.0
 11
682.771332
 21
875.508326
 31
0.0
  0
LINE
  5
30a
100
AcDbEntity
  8
newlayer
 62
7
100
AcDbLine
 10
682.771332
 20
875.508326
 30
0.0
 11
705.964665
 21
875.508326
 31
0.0
  0
LINE
  5
30b
100
AcDbEntity
  8
newlayer
 62
7
100
AcDbLine
 10
705.964665
 20
875.508326
 30
0.0
 11
705.964665
 21
860.868345
 31
0.0
  0
LINE
  5
30c
100
AcDbEntity
  8
newlayer
 62
7
100
AcDbLine
 10
250.139976
 20
462.859989
 30
0.0
 11
279.860014
 21
462.859989
 31
0.0
  0
LINE
  5
30d
100
AcDbEntity
  8
newlayer
 62
7
100
AcDbLine
 10
279.860014
 20
462.859989
 30
0.0
 11
279.860014
 21
430.139963
 31
0.0
  0
LINE
  5
30e
100
AcDbEntity
  8
newlayer
 62
7
100
AcDbLine
 10
279.860014
 20
430.139963
 30
0.0
 11
250.139976
 21
430.139963
 31
0.0
  0
LINE
  5
30f
100
AcDbEntity
  8
newlayer
 62
7
100
AcDbLine
 10
250.139976
 20
430.139963
 30
0.0
 11
250.139976
 21
462.859989
 31
0.0
  0
LINE
  5
310
100
AcDbEntity
  8
newlayer
 62
7
100
AcDbLine
 10
660.139960
 20
462.859989
 30
0.0
 11
689.859992
 21
462.859989
 31
0.0
  0
LINE
  5
311
100
AcDbEntity
  8
newlayer
 62
7
100
AcDbLine
 10
689.859992
 20
462.859989
 30
0.0
 11
689.859992
 21
430.139963
 31
0.0
  0
LINE
  5
312
100
AcDbEntity
  8
newlayer
 62
7
100
AcDbLine
 10
689.859992
 20
430.139963
 30
0.0
 11
660.139960
 21
430.139963
 31
0.0
  0
LINE
  5
313
100
AcDbEntity
  8
newlayer
 62
7
100
AcDbLine
 10
660.139960
 20
430.139963
 30
0.0
 11
660.139960
 21
462.859989
 31
0.0
  0
LINE
  5
314
100
AcDbEntity
  8
newlayer
 62
7
100
AcDbLine
 10
250.257626
 20
672.860032
 30
0.0
 11
279.977664
 21
672.860032
 31
0.0
  0
LINE
  5
315
100
AcDbEntity
  8
newlayer
 62
7
100
AcDbLine
 10
279.977664
 20
672.860032
 30
0.0
 11
279.977664
 21
640.139997
 31
0.0
  0
LINE
  5
316
100
AcDbEntity
  8
newlayer
 62
7
100
AcDbLine
 10
279.977664
 20
640.139997
 30
0.0
 11
250.257626
 21
640.139997
 31
0.0
  0
LINE
  5
317
100
AcDbEntity
  8
newlayer
 62
7
100
AcDbLine
 10
250.257626
 20
640.139997
 30
0.0
 11
250.257626
 21
672.860032
 31
0.0
  0
LINE
  5
318
100
AcDbEntity
  8
newlayer
 62
7
100
AcDbLine
 10
660.139960
 20
672.860032
 30
0.0
 11
689.859992
 21
672.860032
 31
0.0
  0
LINE
  5
319
100
AcDbEntity
  8
newlayer
 62
7
100
AcDbLine
 10
689.859992
 20
672.860032
 30
0.0
 11
689.859992
 21
640.139997
 31
0.0
  0
LINE
  5
31a
100
AcDbEntity
  8
newlayer
 62
7
100
AcDbLine
 10
689.859992
 20
640.139997
 30
0.0
 11
660.139960
 21
640.139997
 31
0.0
  0
LINE
  5
31b
100
AcDbEntity
  8
newlayer
 62
7
100
AcDbLine
 10
660.139960
 20
640.139997
 30
0.0
 11
660.139960
 21
672.860032
 31
0.0
  0
SPLINE
  5
31c
100
AcDbEntity
  8
newlayer
 62
7
100
AcDbSpline
 70
8
 71
3
 72
8
 73
4
 74
0
 40
0
 40
0
 40
0
 40
0
 40
1
 40
1
 40
1
 40
1
 10
772.156015
 20
119.946285
 30
0.0
 10
752.903359
 20
119.947644
 30
0.0
 10
737.294896
 20
104.341389
 30
0.0
 10
737.293536
 20
85.088738
 30
0.0
  0
SPLINE
  5
31d
100
AcDbEntity
  8
newlayer
 62
7
100
AcDbSpline
 70
8
 71
3
 72
8
 73
4
 74
0
 40
0
 40
0
 40
0
 40
0
 40
1
 40
1
 40
1
 40
1
 10
737.293536
 20
85.088738
 30
0.0
 10
737.292878
 20
75.843285
 30
0.0
 10
740.964992
 20
66.976240
 30
0.0
 10
747.502054
 20
60.438254
 30
0.0
  0
SPLINE
  5
31e
100
AcDbEntity
  8
newlayer
 62
7
100
AcDbSpline
 70
8
 71
3
 72
8
 73
4
 74
0
 40
0
 40
0
 40
0
 40
0
 40
1
 40
1
 40
1
 40
1
 10
747.502054
 20
60.438254
 30
0.0
 10
754.039116
 20
53.900268
 30
0.0
 10
762.905644
 20
50.226900
 30
0.0
 10
772.151100
 20
50.226248
 30
0.0
  0
SPLINE
  5
31f
100
AcDbEntity
  8
newlayer
 62
7
100
AcDbSpline
 70
8
 71
3
 72
8
 73
4
 74
0
 40
0
 40
0
 40
0
 40
0
 40
1
 40
1
 40
1
 40
1
 10
772.151100
 20
50.226248
 30
0.0
 10
781.396555
 20
50.225597
 30
0.0
 10
790.263600
 20
53.897715
 30
0.0
 10
796.801583
 20
60.434779
 30
0.0
  0
SPLINE
  5
320
100
AcDbEntity
  8
newlayer
 62
7
100
AcDbSpline
 70
8
 71
3
 72
8
 73
4
 74
0
 40
0
 40
0
 40
0
 40
0
 40
1
 40
1
 40
1
 40
1
 10
796.801583
 20
60.434779
 30
0.0
 10
803.339566
 20
66.971843
 30
0.0
 10
807.012930
 20
75.838370
 30
0.0
 10
807.013576
 20
85.083823
 30
0.0
  0
SPLINE
  5
321
100
AcDbEntity
  8
newlayer
 62
7
100
AcDbSpline
 70
8
 71
3
 72
8
 73
4
 74
0
 40
0
 40
0
 40
0
 40
0
 40
1
 40
1
 40
1
 40
1
 10
807.013576
 20
85.083823
 30
0.0
 10
807.014930
 20
104.336473
 30
0.0
 10
791.408669
 20
119.944928
 30
0.0
 10
772.156015
 20
119.946285
 30
0.0
  0
LINE
  5
322
100
AcDbEntity
  8
newlayer
 62
7
100
AcDbLine
 10
772.156015
 20
119.946285
 30
0.0
 11
772.156015
 21
119.946285
 31
0.0
  0
LINE
  5
323
100
AcDbEntity
  8
newlayer
 62
7
100
AcDbLine
 10
757.292385
 20
68.727296
 30
0.0
 11
757.294692
 21
101.447333
 31
0.0
  0
LINE
  5
324
100
AcDbEntity
  8
newlayer
 62
7
100
AcDbLine
 10
757.294692
 20
101.447333
 30
0.0
 11
787.014727
 21
101.445238
 31
0.0
  0
LINE
  5
325
100
AcDbEntity
  8
newlayer
 62
7
100
AcDbLine
 10
787.014727
 20
101.445238
 30
0.0
 11
787.012420
 21
68.725201
 31
0.0
  0
LINE
  5
326
100
AcDbEntity
  8
newlayer
 62
7
100
AcDbLine
 10
787.012420
 20
68.725201
 30
0.0
 11
757.292385
 21
68.727296
 31
0.0
  0
SPLINE
  5
327
100
AcDbEntity
  8
newlayer
 62
7
100
AcDbSpline
 70
8
 71
3
 72
8
 73
4
 74
0
 40
0
 40
0
 40
0
 40
0
 40
1
 40
1
 40
1
 40
1
 10
772.163093
 20
219.946257
 30
0.0
 10
752.910438
 20
219.947616
 30
0.0
 10
737.301975
 20
204.341361
 30
0.0
 10
737.300615
 20
185.088710
 30
0.0
  0
SPLINE
  5
328
100
AcDbEntity
  8
newlayer
 62
7
100
AcDbSpline
 70
8
 71
3
 72
8
 73
4
 74
0
 40
0
 40
0
 40
0
 40
0
 40
1
 40
1
 40
1
 40
1
 10
737.300615
 20
185.088710
 30
0.0
 10
737.299957
 20
175.843256
 30
0.0
 10
740.972071
 20
166.976211
 30
0.0
 10
747.509133
 20
160.438226
 30
0.0
  0
SPLINE
  5
329
100
AcDbEntity
  8
newlayer
 62
7
100
AcDbSpline
 70
8
 71
3
 72
8
 73
4
 74
0
 40
0
 40
0
 40
0
 40
0
 40
1
 40
1
 40
1
 40
1
 10
747.509133
 20
160.438226
 30
0.0
 10
754.046195
 20
153.900240
 30
0.0
 10
762.912722
 20
150.226871
 30
0.0
 10
772.158178
 20
150.226220
 30
0.0
  0
SPLINE
  5
32a
100
AcDbEntity
  8
newlayer
 62
7
100
AcDbSpline
 70
8
 71
3
 72
8
 73
4
 74
0
 40
0
 40
0
 40
0
 40
0
 40
1
 40
1
 40
1
 40
1
 10
772.158178
 20
150.226220
 30
0.0
 10
781.403634
 20
150.225569
 30
0.0
 10
790.270678
 20
153.897687
 30
0.0
 10
796.808661
 20
160.434751
 30
0.0
  0
SPLINE
  5
32b
100
AcDbEntity
  8
newlayer
 62
7
100
AcDbSpline
 70
8
 71
3
 72
8
 73
4
 74
0
 40
0
 40
0
 40
0
 40
0
 40
1
 40
1
 40
1
 40
1
 10
796.808661
 20
160.434751
 30
0.0
 10
803.346644
 20
166.971815
 30
0.0
 10
807.020008
 20
175.838342
 30
0.0
 10
807.020654
 20
185.083795
 30
0.0
  0
SPLINE
  5
32c
100
AcDbEntity
  8
newlayer
 62
7
100
AcDbSpline
 70
8
 71
3
 72
8
 73
4
 74
0
 40
0
 40
0
 40
0
 40
0
 40
1
 40
1
 40
1
 40
1
 10
807.020654
 20
185.083795
 30
0.0
 10
807.022008
 20
204.336445
 30
0.0
 10
791.415747
 20
219.944900
 30
0.0
 10
772.163093
 20
219.946257
 30
0.0
  0
LINE
  5
32d
100
AcDbEntity
  8
newlayer
 62
7
100
AcDbLine
 10
772.163093
 20
219.946257
 30
0.0
 11
772.163093
 21
219.946257
 31
0.0
  0
LINE
  5
32e
100
AcDbEntity
  8
newlayer
 62
7
100
AcDbLine
 10
757.299464
 20
168.727268
 30
0.0
 11
757.301770
 21
201.447305
 31
0.0
  0
LINE
  5
32f
100
AcDbEntity
  8
newlayer
 62
7
100
AcDbLine
 10
757.301770
 20
201.447305
 30
0.0
 11
787.021805
 21
201.445210
 31
0.0
  0
LINE
  5
330
100
AcDbEntity
  8
newlayer
 62
7
100
AcDbLine
 10
787.021805
 20
201.445210
 30
0.0
 11
787.019498
 21
168.725173
 31
0.0
  0
LINE
  5
331
100
AcDbEntity
  8
newlayer
 62
7
100
AcDbLine
 10
787.019498
 20
168.725173
 30
0.0
 11
757.299464
 21
168.727268
 31
0.0
  0
SPLINE
  5
332
100
AcDbEntity
  8
newlayer
 62
7
100
AcDbSpline
 70
8
 71
3
 72
8
 73
4
 74
0
 40
0
 40
0
 40
0
 40
0
 40
1
 40
1
 40
1
 40
1
 10
772.170126
 20
319.946308
 30
0.0
 10
752.917470
 20
319.947667
 30
0.0
 10
737.309008
 20
304.341412
 30
0.0
 10
737.307647
 20
285.088762
 30
0.0
  0
SPLINE
  5
333
100
AcDbEntity
  8
newlayer
 62
7
100
AcDbSpline
 70
8
 71
3
 72
8
 73
4
 74
0
 40
0
 40
0
 40
0
 40
0
 40
1
 40
1
 40
1
 40
1
 10
737.307647
 20
285.088762
 30
0.0
 10
737.306989
 20
275.843308
 30
0.0
 10
740.979104
 20
266.976263
 30
0.0
 10
747.516166
 20
260.438277
 30
0.0
  0
SPLINE
  5
334
100
AcDbEntity
  8
newlayer
 62
7
100
AcDbSpline
 70
8
 71
3
 72
8
 73
4
 74
0
 40
0
 40
0
 40
0
 40
0
 40
1
 40
1
 40
1
 40
1
 10
747.516166
 20
260.438277
 30
0.0
 10
754.053227
 20
253.900291
 30
0.0
 10
762.919755
 20
250.226923
 30
0.0
 10
772.165211
 20
250.226272
 30
0.0
  0
SPLINE
  5
335
100
AcDbEntity
  8
newlayer
 62
7
100
AcDbSpline
 70
8
 71
3
 72
8
 73
4
 74
0
 40
0
 40
0
 40
0
 40
0
 40
1
 40
1
 40
1
 40
1
 10
772.165211
 20
250.226272
 30
0.0
 10
781.410667
 20
250.225620
 30
0.0
 10
790.277711
 20
253.897739
 30
0.0
 10
796.815694
 20
260.434803
 30
0.0
  0
SPLINE
  5
336
100
AcDbEntity
  8
newlayer
 62
7
100
AcDbSpline
 70
8
 71
3
 72
8
 73
4
 74
0
 40
0
 40
0
 40
0
 40
0
 40
1
 40
1
 40
1
 40
1
 10
796.815694
 20
260.434803
 30
0.0
 10
803.353677
 20
266.971867
 30
0.0
 10
807.027041
 20
275.838393
 30
0.0
 10
807.027687
 20
285.083847
 30
0.0
  0
SPLINE
  5
337
100
AcDbEntity
  8
newlayer
 62
7
100
AcDbSpline
 70
8
 71
3
 72
8
 73
4
 74
0
 40
0
 40
0
 40
0
 40
0
 40
1
 40
1
 40
1
 40
1
 10
807.027687
 20
285.083847
 30
0.0
 10
807.029041
 20
304.336496
 30
0.0
 10
791.422780
 20
319.944951
 30
0.0
 10
772.170126
 20
319.946308
 30
0.0
  0
LINE
  5
338
100
AcDbEntity
  8
newlayer
 62
7
100
AcDbLine
 10
772.170126
 20
319.946308
 30
0.0
 11
772.170126
 21
319.946308
 31
0.0
  0
LINE
  5
339
100
AcDbEntity
  8
newlayer
 62
7
100
AcDbLine
 10
757.306496
 20
268.727319
 30
0.0
 11
757.308803
 21
301.447356
 31
0.0
  0
LINE
  5
33a
100
AcDbEntity
  8
newlayer
 62
7
100
AcDbLine
 10
757.308803
 20
301.447356
 30
0.0
 11
787.028838
 21
301.445261
 31
0.0
  0
LINE
  5
33b
100
AcDbEntity
  8
newlayer
 62
7
100
AcDbLine
 10
787.028838
 20
301.445261
 30
0.0
 11
787.026531
 21
268.725224
 31
0.0
  0
LINE
  5
33c
100
AcDbEntity
  8
newlayer
 62
7
100
AcDbLine
 10
787.026531
 20
268.725224
 30
0.0
 11
757.306496
 21
268.727319
 31
0.0
  0
SPLINE
  5
33d
100
AcDbEntity
  8
newlayer
 62
7
100
AcDbSpline
 70
8
 71
3
 72
8
 73
4
 74
0
 40
0
 40
0
 40
0
 40
0
 40
1
 40
1
 40
1
 40
1
 10
772.177181
 20
419.946278
 30
0.0
 10
752.924526
 20
419.947637
 30
0.0
 10
737.316063
 20
404.341382
 30
0.0
 10
737.314703
 20
385.088731
 30
0.0
  0
SPLINE
  5
33e
100
AcDbEntity
  8
newlayer
 62
7
100
AcDbSpline
 70
8
 71
3
 72
8
 73
4
 74
0
 40
0
 40
0
 40
0
 40
0
 40
1
 40
1
 40
1
 40
1
 10
737.314703
 20
385.088731
 30
0.0
 10
737.314045
 20
375.843277
 30
0.0
 10
740.986159
 20
366.976232
 30
0.0
 10
747.523221
 20
360.438246
 30
0.0
  0
SPLINE
  5
33f
100
AcDbEntity
  8
newlayer
 62
7
100
AcDbSpline
 70
8
 71
3
 72
8
 73
4
 74
0
 40
0
 40
0
 40
0
 40
0
 40
1
 40
1
 40
1
 40
1
 10
747.523221
 20
360.438246
 30
0.0
 10
754.060283
 20
353.900261
 30
0.0
 10
762.926810
 20
350.226892
 30
0.0
 10
772.172266
 20
350.226241
 30
0.0
  0
SPLINE
  5
340
100
AcDbEntity
  8
newlayer
 62
7
100
AcDbSpline
 70
8
 71
3
 72
8
 73
4
 74
0
 40
0
 40
0
 40
0
 40
0
 40
1
 40
1
 40
1
 40
1
 10
772.172266
 20
350.226241
 30
0.0
 10
781.417722
 20
350.225589
 30
0.0
 10
790.284766
 20
353.897708
 30
0.0
 10
796.822750
 20
360.434772
 30
0.0
  0
SPLINE
  5
341
100
AcDbEntity
  8
newlayer
 62
7
100
AcDbSpline
 70
8
 71
3
 72
8
 73
4
 74
0
 40
0
 40
0
 40
0
 40
0
 40
1
 40
1
 40
1
 40
1
 10
796.822750
 20
360.434772
 30
0.0
 10
803.360733
 20
366.971836
 30
0.0
 10
807.034096
 20
375.838363
 30
0.0
 10
807.034742
 20
385.083816
 30
0.0
  0
SPLINE
  5
342
100
AcDbEntity
  8
newlayer
 62
7
100
AcDbSpline
 70
8
 71
3
 72
8
 73
4
 74
0
 40
0
 40
0
 40
0
 40
0
 40
1
 40
1
 40
1
 40
1
 10
807.034742
 20
385.083816
 30
0.0
 10
807.036096
 20
404.336466
 30
0.0
 10
791.429836
 20
419.944921
 30
0.0
 10
772.177181
 20
419.946278
 30
0.0
  0
LINE
  5
343
100
AcDbEntity
  8
newlayer
 62
7
100
AcDbLine
 10
772.177181
 20
419.946278
 30
0.0
 11
772.177181
 21
419.946278
 31
0.0
  0
LINE
  5
344
100
AcDbEntity
  8
newlayer
 62
7
100
AcDbLine
 10
757.313552
 20
368.727288
 30
0.0
 11
757.315858
 21
401.447326
 31
0.0
  0
LINE
  5
345
100
AcDbEntity
  8
newlayer
 62
7
100
AcDbLine
 10
757.315858
 20
401.447326
 30
0.0
 11
787.035893
 21
401.445231
 31
0.0
  0
LINE
  5
346
100
AcDbEntity
  8
newlayer
 62
7
100
AcDbLine
 10
787.035893
 20
401.445231
 30
0.0
 11
787.033587
 21
368.725193
 31
0.0
  0
LINE
  5
347
100
AcDbEntity
  8
newlayer
 62
7
100
AcDbLine
 10
787.033587
 20
368.725193
 30
0.0
 11
757.313552
 21
368.727288
 31
0.0
  0
ENDSEC
  0
SECTION
  2
OBJECTS
  0
DICTIONARY
  5
C
330
0
100
AcDbDictionary
  3
ACAD_GROUP
350
D
  3
ACAD_MLINESTYLE
350
17
  0
DICTIONARY
  5
D
330
C
100
AcDbDictionary
  0
DICTIONARY
  5
1A
330
C
100
AcDbDictionary
  0
DICTIONARY
  5
17
330
C
100
AcDbDictionary
  3
STANDARD
350
18
  0
DICTIONARY
  5
19
330
C
100
AcDbDictionary
  0
ENDSEC
  0
EOF
