999
OBJ Export
0
SECTION
2
HEADER
9
$ACADVER
1
AC1006
9
$INSBASE
10
0
20
0
9
$EXTMIN
10
0
20
0
9
$EXTMAX
10
0
20
0
0
ENDSEC
0
SECTION
2
ENTITIES
0
POLYLINE
8
Cuts
62
1
66
1
10
0
20
0
30
0
39
0
70
0
0
VERTEX
8
Cuts
62
1
10
176
20
50.5
30
0
0
VERTEX
8
Cuts
62
1
10
176
20
38.5
30
0
0
VERTEX
8
Cuts
62
1
10
183
20
38.5
30
0
0
VERTEX
8
Cuts
62
1
10
183
20
35.5
30
0
0
VERTEX
8
Cuts
62
1
10
189
20
35.5
30
0
0
VERTEX
8
Cuts
62
1
10
189
20
38.5
30
0
0
VERTEX
8
Cuts
62
1
10
196
20
38.5
30
0
0
VERTEX
8
Cuts
62
1
10
196
20
50.5
30
0
0
VERTEX
8
Cuts
62
1
10
176
20
50.5
30
0
0
SEQEND
8
Cuts
62
1
0
POLYLINE
8
Cuts
62
1
66
1
10
0
20
0
30
0
39
0
70
0
0
VERTEX
8
Cuts
62
1
10
77.25
20
92.5
30
0
0
VERTEX
8
Cuts
62
1
10
57.25
20
92.5
30
0
0
VERTEX
8
Cuts
62
1
10
57.25
20
82.5
30
0
0
VERTEX
8
Cuts
62
1
10
61.45
20
82.5
30
0
0
VERTEX
8
Cuts
62
1
10
61.45
20
85.5
30
0
0
VERTEX
8
Cuts
62
1
10
72.85
20
85.5
30
0
0
VERTEX
8
Cuts
62
1
10
72.85
20
82.5
30
0
0
VERTEX
8
Cuts
62
1
10
77.25
20
82.5
30
0
0
VERTEX
8
Cuts
62
1
10
77.25
20
92.5
30
0
0
SEQEND
8
Cuts
62
1
0
POLYLINE
8
Cuts
62
1
66
1
10
0
20
0
30
0
39
0
70
0
0
VERTEX
8
Cuts
62
1
10
68.25
20
89.5
30
0
0
VERTEX
8
Cuts
62
1
10
68.231
20
89.695
30
0
0
VERTEX
8
Cuts
62
1
10
68.174
20
89.883
30
0
0
VERTEX
8
Cuts
62
1
10
68.081
20
90.056
30
0
0
VERTEX
8
Cuts
62
1
10
67.957
20
90.207
30
0
0
VERTEX
8
Cuts
62
1
10
67.806
20
90.331
30
0
0
VERTEX
8
Cuts
62
1
10
67.633
20
90.424
30
0
0
VERTEX
8
Cuts
62
1
10
67.445
20
90.481
30
0
0
VERTEX
8
Cuts
62
1
10
67.25
20
90.5
30
0
0
VERTEX
8
Cuts
62
1
10
67.055
20
90.481
30
0
0
VERTEX
8
Cuts
62
1
10
66.867
20
90.424
30
0
0
VERTEX
8
Cuts
62
1
10
66.694
20
90.331
30
0
0
VERTEX
8
Cuts
62
1
10
66.543
20
90.207
30
0
0
VERTEX
8
Cuts
62
1
10
66.419
20
90.056
30
0
0
VERTEX
8
Cuts
62
1
10
66.326
20
89.883
30
0
0
VERTEX
8
Cuts
62
1
10
66.269
20
89.695
30
0
0
VERTEX
8
Cuts
62
1
10
66.25
20
89.5
30
0
0
VERTEX
8
Cuts
62
1
10
66.269
20
89.305
30
0
0
VERTEX
8
Cuts
62
1
10
66.326
20
89.117
30
0
0
VERTEX
8
Cuts
62
1
10
66.419
20
88.944
30
0
0
VERTEX
8
Cuts
62
1
10
66.543
20
88.793
30
0
0
VERTEX
8
Cuts
62
1
10
66.694
20
88.669
30
0
0
VERTEX
8
Cuts
62
1
10
66.867
20
88.576
30
0
0
VERTEX
8
Cuts
62
1
10
67.055
20
88.519
30
0
0
VERTEX
8
Cuts
62
1
10
67.25
20
88.5
30
0
0
VERTEX
8
Cuts
62
1
10
67.445
20
88.519
30
0
0
VERTEX
8
Cuts
62
1
10
67.633
20
88.576
30
0
0
VERTEX
8
Cuts
62
1
10
67.806
20
88.669
30
0
0
VERTEX
8
Cuts
62
1
10
67.957
20
88.793
30
0
0
VERTEX
8
Cuts
62
1
10
68.081
20
88.944
30
0
0
VERTEX
8
Cuts
62
1
10
68.174
20
89.117
30
0
0
VERTEX
8
Cuts
62
1
10
68.231
20
89.305
30
0
0
VERTEX
8
Cuts
62
1
10
68.25
20
89.5
30
0
0
SEQEND
8
Cuts
62
1
0
POLYLINE
8
Cuts
62
1
66
1
10
0
20
0
30
0
39
0
70
0
0
VERTEX
8
Cuts
62
1
10
213.5
20
-5.7
30
0
0
VERTEX
8
Cuts
62
1
10
210.5
20
-5.7
30
0
0
VERTEX
8
Cuts
62
1
10
210.5
20
1.5
30
0
0
VERTEX
8
Cuts
62
1
10
207.5
20
1.5
30
0
0
VERTEX
8
Cuts
62
1
10
207.5
20
5.7
30
0
0
VERTEX
8
Cuts
62
1
10
210.5
20
5.7
30
0
0
VERTEX
8
Cuts
62
1
10
213.5
20
5.7
30
0
0
VERTEX
8
Cuts
62
1
10
213.5
20
17.1
30
0
0
VERTEX
8
Cuts
62
1
10
210.5
20
17.1
30
0
0
VERTEX
8
Cuts
62
1
10
207.5
20
17.1
30
0
0
VERTEX
8
Cuts
62
1
10
207.5
20
21.5
30
0
0
VERTEX
8
Cuts
62
1
10
210.5
20
21.5
30
0
0
VERTEX
8
Cuts
62
1
10
210.5
20
28.5
30
0
0
VERTEX
8
Cuts
62
1
10
200.056
20
28.5
30
0
0
VERTEX
8
Cuts
62
1
10
200.056
20
31.5
30
0
0
VERTEX
8
Cuts
62
1
10
188.611
20
31.5
30
0
0
VERTEX
8
Cuts
62
1
10
188.611
20
28.5
30
0
0
VERTEX
8
Cuts
62
1
10
177.167
20
28.5
30
0
0
VERTEX
8
Cuts
62
1
10
177.167
20
31.5
30
0
0
VERTEX
8
Cuts
62
1
10
164
20
31.5
30
0
0
VERTEX
8
Cuts
62
1
10
164
20
28.5
30
0
0
VERTEX
8
Cuts
62
1
10
153
20
28.5
30
0
0
VERTEX
8
Cuts
62
1
10
153
20
31.5
30
0
0
VERTEX
8
Cuts
62
1
10
142.833
20
31.5
30
0
0
VERTEX
8
Cuts
62
1
10
142.833
20
28.5
30
0
0
VERTEX
8
Cuts
62
1
10
131.389
20
28.5
30
0
0
VERTEX
8
Cuts
62
1
10
131.389
20
31.5
30
0
0
VERTEX
8
Cuts
62
1
10
119.944
20
31.5
30
0
0
VERTEX
8
Cuts
62
1
10
119.944
20
28.5
30
0
0
VERTEX
8
Cuts
62
1
10
108.5
20
28.5
30
0
0
VERTEX
8
Cuts
62
1
10
108.5
20
21.5
30
0
0
VERTEX
8
Cuts
62
1
10
111.5
20
21.5
30
0
0
VERTEX
8
Cuts
62
1
10
111.5
20
17.1
30
0
0
VERTEX
8
Cuts
62
1
10
108.5
20
17.1
30
0
0
VERTEX
8
Cuts
62
1
10
105.5
20
17.1
30
0
0
VERTEX
8
Cuts
62
1
10
105.5
20
5.7
30
0
0
VERTEX
8
Cuts
62
1
10
108.5
20
5.7
30
0
0
VERTEX
8
Cuts
62
1
10
111.5
20
5.7
30
0
0
VERTEX
8
Cuts
62
1
10
111.5
20
1.5
30
0
0
VERTEX
8
Cuts
62
1
10
108.5
20
1.5
30
0
0
VERTEX
8
Cuts
62
1
10
108.5
20
-5.7
30
0
0
VERTEX
8
Cuts
62
1
10
105.5
20
-5.7
30
0
0
VERTEX
8
Cuts
62
1
10
105.5
20
-17.1
30
0
0
VERTEX
8
Cuts
62
1
10
108.5
20
-17.1
30
0
0
VERTEX
8
Cuts
62
1
10
108.5
20
-28.5
30
0
0
VERTEX
8
Cuts
62
1
10
119.944
20
-28.5
30
0
0
VERTEX
8
Cuts
62
1
10
119.944
20
-31.5
30
0
0
VERTEX
8
Cuts
62
1
10
131.389
20
-31.5
30
0
0
VERTEX
8
Cuts
62
1
10
131.389
20
-28.5
30
0
0
VERTEX
8
Cuts
62
1
10
142.833
20
-28.5
30
0
0
VERTEX
8
Cuts
62
1
10
142.833
20
-31.5
30
0
0
VERTEX
8
Cuts
62
1
10
154.278
20
-31.5
30
0
0
VERTEX
8
Cuts
62
1
10
154.278
20
-28.5
30
0
0
VERTEX
8
Cuts
62
1
10
165.722
20
-28.5
30
0
0
VERTEX
8
Cuts
62
1
10
165.722
20
-31.5
30
0
0
VERTEX
8
Cuts
62
1
10
174.5
20
-31.5
30
0
0
VERTEX
8
Cuts
62
1
10
174.5
20
-17.1
30
0
0
VERTEX
8
Cuts
62
1
10
171.5
20
-17.1
30
0
0
VERTEX
8
Cuts
62
1
10
171.5
20
-9.5
30
0
0
VERTEX
8
Cuts
62
1
10
174.5
20
-9.5
30
0
0
VERTEX
8
Cuts
62
1
10
174.5
20
-12.5
30
0
0
VERTEX
8
Cuts
62
1
10
180.167
20
-12.5
30
0
0
VERTEX
8
Cuts
62
1
10
180.167
20
-9.5
30
0
0
VERTEX
8
Cuts
62
1
10
186.611
20
-9.5
30
0
0
VERTEX
8
Cuts
62
1
10
186.611
20
-12.5
30
0
0
VERTEX
8
Cuts
62
1
10
195.056
20
-12.5
30
0
0
VERTEX
8
Cuts
62
1
10
195.056
20
-9.5
30
0
0
VERTEX
8
Cuts
62
1
10
201.5
20
-9.5
30
0
0
VERTEX
8
Cuts
62
1
10
201.5
20
-12.5
30
0
0
VERTEX
8
Cuts
62
1
10
213.5
20
-12.5
30
0
0
VERTEX
8
Cuts
62
1
10
213.5
20
-5.7
30
0
0
SEQEND
8
Cuts
62
1
0
POLYLINE
8
Cuts
62
1
66
1
10
0
20
0
30
0
39
0
70
0
0
VERTEX
8
Cuts
62
1
10
164
20
-19
30
0
0
VERTEX
8
Cuts
62
1
10
164
20
-16
30
0
0
VERTEX
8
Cuts
62
1
10
158
20
-16
30
0
0
VERTEX
8
Cuts
62
1
10
158
20
-19
30
0
0
VERTEX
8
Cuts
62
1
10
164
20
-19
30
0
0
SEQEND
8
Cuts
62
1
0
POLYLINE
8
Cuts
62
1
66
1
10
0
20
0
30
0
39
0
70
0
0
VERTEX
8
Cuts
62
1
10
100.75
20
92.5
30
0
0
VERTEX
8
Cuts
62
1
10
80.75
20
92.5
30
0
0
VERTEX
8
Cuts
62
1
10
80.75
20
82.5
30
0
0
VERTEX
8
Cuts
62
1
10
84.95
20
82.5
30
0
0
VERTEX
8
Cuts
62
1
10
84.95
20
85.5
30
0
0
VERTEX
8
Cuts
62
1
10
96.35
20
85.5
30
0
0
VERTEX
8
Cuts
62
1
10
96.35
20
82.5
30
0
0
VERTEX
8
Cuts
62
1
10
100.75
20
82.5
30
0
0
VERTEX
8
Cuts
62
1
10
100.75
20
92.5
30
0
0
SEQEND
8
Cuts
62
1
0
POLYLINE
8
Cuts
62
1
66
1
10
0
20
0
30
0
39
0
70
0
0
VERTEX
8
Cuts
62
1
10
91.75
20
89.5
30
0
0
VERTEX
8
Cuts
62
1
10
91.731
20
89.695
30
0
0
VERTEX
8
Cuts
62
1
10
91.674
20
89.883
30
0
0
VERTEX
8
Cuts
62
1
10
91.581
20
90.056
30
0
0
VERTEX
8
Cuts
62
1
10
91.457
20
90.207
30
0
0
VERTEX
8
Cuts
62
1
10
91.306
20
90.331
30
0
0
VERTEX
8
Cuts
62
1
10
91.133
20
90.424
30
0
0
VERTEX
8
Cuts
62
1
10
90.945
20
90.481
30
0
0
VERTEX
8
Cuts
62
1
10
90.75
20
90.5
30
0
0
VERTEX
8
Cuts
62
1
10
90.555
20
90.481
30
0
0
VERTEX
8
Cuts
62
1
10
90.367
20
90.424
30
0
0
VERTEX
8
Cuts
62
1
10
90.194
20
90.331
30
0
0
VERTEX
8
Cuts
62
1
10
90.043
20
90.207
30
0
0
VERTEX
8
Cuts
62
1
10
89.919
20
90.056
30
0
0
VERTEX
8
Cuts
62
1
10
89.826
20
89.883
30
0
0
VERTEX
8
Cuts
62
1
10
89.769
20
89.695
30
0
0
VERTEX
8
Cuts
62
1
10
89.75
20
89.5
30
0
0
VERTEX
8
Cuts
62
1
10
89.769
20
89.305
30
0
0
VERTEX
8
Cuts
62
1
10
89.826
20
89.117
30
0
0
VERTEX
8
Cuts
62
1
10
89.919
20
88.944
30
0
0
VERTEX
8
Cuts
62
1
10
90.043
20
88.793
30
0
0
VERTEX
8
Cuts
62
1
10
90.194
20
88.669
30
0
0
VERTEX
8
Cuts
62
1
10
90.367
20
88.576
30
0
0
VERTEX
8
Cuts
62
1
10
90.555
20
88.519
30
0
0
VERTEX
8
Cuts
62
1
10
90.75
20
88.5
30
0
0
VERTEX
8
Cuts
62
1
10
90.945
20
88.519
30
0
0
VERTEX
8
Cuts
62
1
10
91.133
20
88.576
30
0
0
VERTEX
8
Cuts
62
1
10
91.306
20
88.669
30
0
0
VERTEX
8
Cuts
62
1
10
91.457
20
88.793
30
0
0
VERTEX
8
Cuts
62
1
10
91.581
20
88.944
30
0
0
VERTEX
8
Cuts
62
1
10
91.674
20
89.117
30
0
0
VERTEX
8
Cuts
62
1
10
91.731
20
89.305
30
0
0
VERTEX
8
Cuts
62
1
10
91.75
20
89.5
30
0
0
SEQEND
8
Cuts
62
1
0
POLYLINE
8
Cuts
62
1
66
1
10
0
20
0
30
0
39
0
70
0
0
VERTEX
8
Cuts
62
1
10
213.75
20
59.05
30
0
0
VERTEX
8
Cuts
62
1
10
210.75
20
59.05
30
0
0
VERTEX
8
Cuts
62
1
10
210.75
20
70.45
30
0
0
VERTEX
8
Cuts
62
1
10
213.75
20
70.45
30
0
0
VERTEX
8
Cuts
62
1
10
213.75
20
81.85
30
0
0
VERTEX
8
Cuts
62
1
10
210.75
20
81.85
30
0
0
VERTEX
8
Cuts
62
1
10
210.75
20
93.25
30
0
0
VERTEX
8
Cuts
62
1
10
200.306
20
93.25
30
0
0
VERTEX
8
Cuts
62
1
10
200.306
20
96.25
30
0
0
VERTEX
8
Cuts
62
1
10
188.861
20
96.25
30
0
0
VERTEX
8
Cuts
62
1
10
188.861
20
93.25
30
0
0
VERTEX
8
Cuts
62
1
10
177.417
20
93.25
30
0
0
VERTEX
8
Cuts
62
1
10
177.417
20
96.25
30
0
0
VERTEX
8
Cuts
62
1
10
165.972
20
96.25
30
0
0
VERTEX
8
Cuts
62
1
10
165.972
20
93.25
30
0
0
VERTEX
8
Cuts
62
1
10
154.528
20
93.25
30
0
0
VERTEX
8
Cuts
62
1
10
154.528
20
96.25
30
0
0
VERTEX
8
Cuts
62
1
10
143.083
20
96.25
30
0
0
VERTEX
8
Cuts
62
1
10
143.083
20
93.25
30
0
0
VERTEX
8
Cuts
62
1
10
131.639
20
93.25
30
0
0
VERTEX
8
Cuts
62
1
10
131.639
20
96.25
30
0
0
VERTEX
8
Cuts
62
1
10
120.194
20
96.25
30
0
0
VERTEX
8
Cuts
62
1
10
120.194
20
93.25
30
0
0
VERTEX
8
Cuts
62
1
10
108.75
20
93.25
30
0
0
VERTEX
8
Cuts
62
1
10
108.75
20
81.85
30
0
0
VERTEX
8
Cuts
62
1
10
105.75
20
81.85
30
0
0
VERTEX
8
Cuts
62
1
10
105.75
20
70.45
30
0
0
VERTEX
8
Cuts
62
1
10
108.75
20
70.45
30
0
0
VERTEX
8
Cuts
62
1
10
108.75
20
59.05
30
0
0
VERTEX
8
Cuts
62
1
10
105.75
20
59.05
30
0
0
VERTEX
8
Cuts
62
1
10
105.75
20
47.65
30
0
0
VERTEX
8
Cuts
62
1
10
108.75
20
47.65
30
0
0
VERTEX
8
Cuts
62
1
10
108.75
20
36.25
30
0
0
VERTEX
8
Cuts
62
1
10
120.194
20
36.25
30
0
0
VERTEX
8
Cuts
62
1
10
120.194
20
33.25
30
0
0
VERTEX
8
Cuts
62
1
10
131.639
20
33.25
30
0
0
VERTEX
8
Cuts
62
1
10
131.639
20
36.25
30
0
0
VERTEX
8
Cuts
62
1
10
143.083
20
36.25
30
0
0
VERTEX
8
Cuts
62
1
10
143.083
20
33.25
30
0
0
VERTEX
8
Cuts
62
1
10
154.528
20
33.25
30
0
0
VERTEX
8
Cuts
62
1
10
154.528
20
36.25
30
0
0
VERTEX
8
Cuts
62
1
10
165.972
20
36.25
30
0
0
VERTEX
8
Cuts
62
1
10
165.972
20
33.25
30
0
0
VERTEX
8
Cuts
62
1
10
174.75
20
33.25
30
0
0
VERTEX
8
Cuts
62
1
10
174.75
20
47.65
30
0
0
VERTEX
8
Cuts
62
1
10
171.75
20
47.65
30
0
0
VERTEX
8
Cuts
62
1
10
171.75
20
55.25
30
0
0
VERTEX
8
Cuts
62
1
10
174.75
20
55.25
30
0
0
VERTEX
8
Cuts
62
1
10
174.75
20
52.25
30
0
0
VERTEX
8
Cuts
62
1
10
180.417
20
52.25
30
0
0
VERTEX
8
Cuts
62
1
10
180.417
20
55.25
30
0
0
VERTEX
8
Cuts
62
1
10
186.861
20
55.25
30
0
0
VERTEX
8
Cuts
62
1
10
186.861
20
52.25
30
0
0
VERTEX
8
Cuts
62
1
10
195.306
20
52.25
30
0
0
VERTEX
8
Cuts
62
1
10
195.306
20
55.25
30
0
0
VERTEX
8
Cuts
62
1
10
201.75
20
55.25
30
0
0
VERTEX
8
Cuts
62
1
10
201.75
20
52.25
30
0
0
VERTEX
8
Cuts
62
1
10
213.75
20
52.25
30
0
0
VERTEX
8
Cuts
62
1
10
213.75
20
59.05
30
0
0
SEQEND
8
Cuts
62
1
0
POLYLINE
8
Cuts
62
1
66
1
10
0
20
0
30
0
39
0
70
0
0
VERTEX
8
Cuts
62
1
10
166.194
20
47.25
30
0
0
VERTEX
8
Cuts
62
1
10
166.109
20
48.117
30
0
0
VERTEX
8
Cuts
62
1
10
165.856
20
48.951
30
0
0
VERTEX
8
Cuts
62
1
10
165.445
20
49.719
30
0
0
VERTEX
8
Cuts
62
1
10
164.893
20
50.393
30
0
0
VERTEX
8
Cuts
62
1
10
164.219
20
50.945
30
0
0
VERTEX
8
Cuts
62
1
10
163.451
20
51.356
30
0
0
VERTEX
8
Cuts
62
1
10
162.617
20
51.609
30
0
0
VERTEX
8
Cuts
62
1
10
161.75
20
51.694
30
0
0
VERTEX
8
Cuts
62
1
10
160.883
20
51.609
30
0
0
VERTEX
8
Cuts
62
1
10
160.049
20
51.356
30
0
0
VERTEX
8
Cuts
62
1
10
159.281
20
50.945
30
0
0
VERTEX
8
Cuts
62
1
10
158.607
20
50.393
30
0
0
VERTEX
8
Cuts
62
1
10
158.055
20
49.719
30
0
0
VERTEX
8
Cuts
62
1
10
157.644
20
48.951
30
0
0
VERTEX
8
Cuts
62
1
10
157.391
20
48.117
30
0
0
VERTEX
8
Cuts
62
1
10
157.306
20
47.25
30
0
0
VERTEX
8
Cuts
62
1
10
157.391
20
46.383
30
0
0
VERTEX
8
Cuts
62
1
10
157.644
20
45.549
30
0
0
VERTEX
8
Cuts
62
1
10
158.055
20
44.781
30
0
0
VERTEX
8
Cuts
62
1
10
158.607
20
44.107
30
0
0
VERTEX
8
Cuts
62
1
10
159.281
20
43.555
30
0
0
VERTEX
8
Cuts
62
1
10
160.049
20
43.144
30
0
0
VERTEX
8
Cuts
62
1
10
160.883
20
42.891
30
0
0
VERTEX
8
Cuts
62
1
10
161.75
20
42.806
30
0
0
VERTEX
8
Cuts
62
1
10
162.617
20
42.891
30
0
0
VERTEX
8
Cuts
62
1
10
163.451
20
43.144
30
0
0
VERTEX
8
Cuts
62
1
10
164.219
20
43.555
30
0
0
VERTEX
8
Cuts
62
1
10
164.893
20
44.107
30
0
0
VERTEX
8
Cuts
62
1
10
165.445
20
44.781
30
0
0
VERTEX
8
Cuts
62
1
10
165.856
20
45.549
30
0
0
VERTEX
8
Cuts
62
1
10
166.109
20
46.383
30
0
0
VERTEX
8
Cuts
62
1
10
166.194
20
47.25
30
0
0
SEQEND
8
Cuts
62
1
0
POLYLINE
8
Cuts
62
1
66
1
10
0
20
0
30
0
39
0
70
0
0
VERTEX
8
Cuts
62
1
10
156.25
20
90.25
30
0
0
VERTEX
8
Cuts
62
1
10
118.75
20
90.25
30
0
0
VERTEX
8
Cuts
62
1
10
118.75
20
59.75
30
0
0
VERTEX
8
Cuts
62
1
10
156.25
20
59.75
30
0
0
VERTEX
8
Cuts
62
1
10
156.25
20
90.25
30
0
0
SEQEND
8
Cuts
62
1
0
POLYLINE
8
Cuts
62
1
66
1
10
0
20
0
30
0
39
0
70
0
0
VERTEX
8
Cuts
62
1
10
149.25
20
46.75
30
0
0
VERTEX
8
Cuts
62
1
10
149.173
20
47.53
30
0
0
VERTEX
8
Cuts
62
1
10
148.946
20
48.281
30
0
0
VERTEX
8
Cuts
62
1
10
148.576
20
48.972
30
0
0
VERTEX
8
Cuts
62
1
10
148.078
20
49.578
30
0
0
VERTEX
8
Cuts
62
1
10
147.472
20
50.076
30
0
0
VERTEX
8
Cuts
62
1
10
146.781
20
50.446
30
0
0
VERTEX
8
Cuts
62
1
10
146.03
20
50.673
30
0
0
VERTEX
8
Cuts
62
1
10
145.25
20
50.75
30
0
0
VERTEX
8
Cuts
62
1
10
144.47
20
50.673
30
0
0
VERTEX
8
Cuts
62
1
10
143.719
20
50.446
30
0
0
VERTEX
8
Cuts
62
1
10
143.028
20
50.076
30
0
0
VERTEX
8
Cuts
62
1
10
142.422
20
49.578
30
0
0
VERTEX
8
Cuts
62
1
10
141.924
20
48.972
30
0
0
VERTEX
8
Cuts
62
1
10
141.554
20
48.281
30
0
0
VERTEX
8
Cuts
62
1
10
141.327
20
47.53
30
0
0
VERTEX
8
Cuts
62
1
10
141.25
20
46.75
30
0
0
VERTEX
8
Cuts
62
1
10
141.327
20
45.97
30
0
0
VERTEX
8
Cuts
62
1
10
141.554
20
45.219
30
0
0
VERTEX
8
Cuts
62
1
10
141.924
20
44.528
30
0
0
VERTEX
8
Cuts
62
1
10
142.422
20
43.922
30
0
0
VERTEX
8
Cuts
62
1
10
143.028
20
43.424
30
0
0
VERTEX
8
Cuts
62
1
10
143.719
20
43.054
30
0
0
VERTEX
8
Cuts
62
1
10
144.47
20
42.827
30
0
0
VERTEX
8
Cuts
62
1
10
145.25
20
42.75
30
0
0
VERTEX
8
Cuts
62
1
10
146.03
20
42.827
30
0
0
VERTEX
8
Cuts
62
1
10
146.781
20
43.054
30
0
0
VERTEX
8
Cuts
62
1
10
147.472
20
43.424
30
0
0
VERTEX
8
Cuts
62
1
10
148.078
20
43.922
30
0
0
VERTEX
8
Cuts
62
1
10
148.576
20
44.528
30
0
0
VERTEX
8
Cuts
62
1
10
148.946
20
45.219
30
0
0
VERTEX
8
Cuts
62
1
10
149.173
20
45.97
30
0
0
VERTEX
8
Cuts
62
1
10
149.25
20
46.75
30
0
0
SEQEND
8
Cuts
62
1
0
POLYLINE
8
Cuts
62
1
66
1
10
0
20
0
30
0
39
0
70
0
0
VERTEX
8
Cuts
62
1
10
129.75
20
46.75
30
0
0
VERTEX
8
Cuts
62
1
10
129.683
20
47.433
30
0
0
VERTEX
8
Cuts
62
1
10
129.484
20
48.089
30
0
0
VERTEX
8
Cuts
62
1
10
129.16
20
48.695
30
0
0
VERTEX
8
Cuts
62
1
10
128.725
20
49.225
30
0
0
VERTEX
8
Cuts
62
1
10
128.194
20
49.66
30
0
0
VERTEX
8
Cuts
62
1
10
127.589
20
49.984
30
0
0
VERTEX
8
Cuts
62
1
10
126.933
20
50.183
30
0
0
VERTEX
8
Cuts
62
1
10
126.25
20
50.25
30
0
0
VERTEX
8
Cuts
62
1
10
125.567
20
50.183
30
0
0
VERTEX
8
Cuts
62
1
10
124.911
20
49.984
30
0
0
VERTEX
8
Cuts
62
1
10
124.305
20
49.66
30
0
0
VERTEX
8
Cuts
62
1
10
123.775
20
49.225
30
0
0
VERTEX
8
Cuts
62
1
10
123.34
20
48.694
30
0
0
VERTEX
8
Cuts
62
1
10
123.016
20
48.089
30
0
0
VERTEX
8
Cuts
62
1
10
122.817
20
47.433
30
0
0
VERTEX
8
Cuts
62
1
10
122.75
20
46.75
30
0
0
VERTEX
8
Cuts
62
1
10
122.817
20
46.067
30
0
0
VERTEX
8
Cuts
62
1
10
123.016
20
45.411
30
0
0
VERTEX
8
Cuts
62
1
10
123.34
20
44.806
30
0
0
VERTEX
8
Cuts
62
1
10
123.775
20
44.275
30
0
0
VERTEX
8
Cuts
62
1
10
124.305
20
43.84
30
0
0
VERTEX
8
Cuts
62
1
10
124.911
20
43.516
30
0
0
VERTEX
8
Cuts
62
1
10
125.567
20
43.317
30
0
0
VERTEX
8
Cuts
62
1
10
126.25
20
43.25
30
0
0
VERTEX
8
Cuts
62
1
10
126.933
20
43.317
30
0
0
VERTEX
8
Cuts
62
1
10
127.589
20
43.516
30
0
0
VERTEX
8
Cuts
62
1
10
128.194
20
43.84
30
0
0
VERTEX
8
Cuts
62
1
10
128.725
20
44.275
30
0
0
VERTEX
8
Cuts
62
1
10
129.16
20
44.806
30
0
0
VERTEX
8
Cuts
62
1
10
129.484
20
45.411
30
0
0
VERTEX
8
Cuts
62
1
10
129.683
20
46.067
30
0
0
VERTEX
8
Cuts
62
1
10
129.75
20
46.75
30
0
0
SEQEND
8
Cuts
62
1
0
POLYLINE
8
Cuts
62
1
66
1
10
0
20
0
30
0
39
0
70
0
0
VERTEX
8
Cuts
62
1
10
216.5
20
26.833
30
0
0
VERTEX
8
Cuts
62
1
10
216.5
20
20.389
30
0
0
VERTEX
8
Cuts
62
1
10
219.5
20
20.389
30
0
0
VERTEX
8
Cuts
62
1
10
219.5
20
11.944
30
0
0
VERTEX
8
Cuts
62
1
10
216.5
20
11.944
30
0
0
VERTEX
8
Cuts
62
1
10
216.5
20
5.5
30
0
0
VERTEX
8
Cuts
62
1
10
219.5
20
5.5
30
0
0
VERTEX
8
Cuts
62
1
10
219.5
20
-3.5
30
0
0
VERTEX
8
Cuts
62
1
10
227.5
20
-3.5
30
0
0
VERTEX
8
Cuts
62
1
10
227.5
20
-6.5
30
0
0
VERTEX
8
Cuts
62
1
10
237.5
20
-6.5
30
0
0
VERTEX
8
Cuts
62
1
10
237.5
20
-3.5
30
0
0
VERTEX
8
Cuts
62
1
10
246.5
20
-3.5
30
0
0
VERTEX
8
Cuts
62
1
10
246.5
20
5.5
30
0
0
VERTEX
8
Cuts
62
1
10
249.5
20
5.5
30
0
0
VERTEX
8
Cuts
62
1
10
249.5
20
11.944
30
0
0
VERTEX
8
Cuts
62
1
10
246.5
20
11.944
30
0
0
VERTEX
8
Cuts
62
1
10
246.5
20
20.389
30
0
0
VERTEX
8
Cuts
62
1
10
249.5
20
20.389
30
0
0
VERTEX
8
Cuts
62
1
10
249.5
20
26.833
30
0
0
VERTEX
8
Cuts
62
1
10
246.5
20
26.833
30
0
0
VERTEX
8
Cuts
62
1
10
246.5
20
32.5
30
0
0
VERTEX
8
Cuts
62
1
10
237.5
20
32.5
30
0
0
VERTEX
8
Cuts
62
1
10
237.5
20
35.5
30
0
0
VERTEX
8
Cuts
62
1
10
228.5
20
35.5
30
0
0
VERTEX
8
Cuts
62
1
10
228.5
20
32.5
30
0
0
VERTEX
8
Cuts
62
1
10
219.5
20
32.5
30
0
0
VERTEX
8
Cuts
62
1
10
219.5
20
26.833
30
0
0
VERTEX
8
Cuts
62
1
10
216.5
20
26.833
30
0
0
SEQEND
8
Cuts
62
1
0
POLYLINE
8
Cuts
62
1
66
1
10
0
20
0
30
0
39
0
70
0
0
VERTEX
8
Cuts
62
1
10
225
20
20
30
0
0
VERTEX
8
Cuts
62
1
10
225
20
12
30
0
0
VERTEX
8
Cuts
62
1
10
230
20
12
30
0
0
VERTEX
8
Cuts
62
1
10
230
20
8.889
30
0
0
VERTEX
8
Cuts
62
1
10
235
20
8.889
30
0
0
VERTEX
8
Cuts
62
1
10
235
20
23.889
30
0
0
VERTEX
8
Cuts
62
1
10
230
20
23.889
30
0
0
VERTEX
8
Cuts
62
1
10
230
20
20
30
0
0
VERTEX
8
Cuts
62
1
10
225
20
20
30
0
0
SEQEND
8
Cuts
62
1
0
POLYLINE
8
Cuts
62
1
66
1
10
0
20
0
30
0
39
0
70
0
0
VERTEX
8
Cuts
62
1
10
236
20
-7.75
30
0
0
VERTEX
8
Cuts
62
1
10
236
20
-10.75
30
0
0
VERTEX
8
Cuts
62
1
10
227
20
-10.75
30
0
0
VERTEX
8
Cuts
62
1
10
227
20
-7.75
30
0
0
VERTEX
8
Cuts
62
1
10
215
20
-7.75
30
0
0
VERTEX
8
Cuts
62
1
10
215
20
-15.35
30
0
0
VERTEX
8
Cuts
62
1
10
218
20
-15.35
30
0
0
VERTEX
8
Cuts
62
1
10
218
20
-26.75
30
0
0
VERTEX
8
Cuts
62
1
10
227
20
-26.75
30
0
0
VERTEX
8
Cuts
62
1
10
227
20
-29.75
30
0
0
VERTEX
8
Cuts
62
1
10
236
20
-29.75
30
0
0
VERTEX
8
Cuts
62
1
10
236
20
-26.75
30
0
0
VERTEX
8
Cuts
62
1
10
245
20
-26.75
30
0
0
VERTEX
8
Cuts
62
1
10
245
20
-15.35
30
0
0
VERTEX
8
Cuts
62
1
10
248
20
-15.35
30
0
0
VERTEX
8
Cuts
62
1
10
248
20
-7.75
30
0
0
VERTEX
8
Cuts
62
1
10
236
20
-7.75
30
0
0
SEQEND
8
Cuts
62
1
0
POLYLINE
8
Cuts
62
1
66
1
10
0
20
0
30
0
39
0
70
0
0
VERTEX
8
Cuts
62
1
10
104.75
20
63.056
30
0
0
VERTEX
8
Cuts
62
1
10
104.75
20
73.5
30
0
0
VERTEX
8
Cuts
62
1
10
92.35
20
73.5
30
0
0
VERTEX
8
Cuts
62
1
10
92.35
20
76.5
30
0
0
VERTEX
8
Cuts
62
1
10
78.75
20
76.5
30
0
0
VERTEX
8
Cuts
62
1
10
78.75
20
73.5
30
0
0
VERTEX
8
Cuts
62
1
10
71.75
20
73.5
30
0
0
VERTEX
8
Cuts
62
1
10
71.75
20
63.056
30
0
0
VERTEX
8
Cuts
62
1
10
74.75
20
63.056
30
0
0
VERTEX
8
Cuts
62
1
10
74.75
20
51.611
30
0
0
VERTEX
8
Cuts
62
1
10
71.75
20
51.611
30
0
0
VERTEX
8
Cuts
62
1
10
71.75
20
40.167
30
0
0
VERTEX
8
Cuts
62
1
10
74.75
20
40.167
30
0
0
VERTEX
8
Cuts
62
1
10
74.75
20
27
30
0
0
VERTEX
8
Cuts
62
1
10
71.75
20
27
30
0
0
VERTEX
8
Cuts
62
1
10
71.75
20
23
30
0
0
VERTEX
8
Cuts
62
1
10
87.75
20
23
30
0
0
VERTEX
8
Cuts
62
1
10
87.75
20
27.5
30
0
0
VERTEX
8
Cuts
62
1
10
91.25
20
27.5
30
0
0
VERTEX
8
Cuts
62
1
10
91.25
20
15.5
30
0
0
VERTEX
8
Cuts
62
1
10
87.75
20
15.5
30
0
0
VERTEX
8
Cuts
62
1
10
87.75
20
20
30
0
0
VERTEX
8
Cuts
62
1
10
71.75
20
20
30
0
0
VERTEX
8
Cuts
62
1
10
71.75
20
16
30
0
0
VERTEX
8
Cuts
62
1
10
74.75
20
16
30
0
0
VERTEX
8
Cuts
62
1
10
74.75
20
5.833
30
0
0
VERTEX
8
Cuts
62
1
10
71.75
20
5.833
30
0
0
VERTEX
8
Cuts
62
1
10
71.75
20
-5.611
30
0
0
VERTEX
8
Cuts
62
1
10
74.75
20
-5.611
30
0
0
VERTEX
8
Cuts
62
1
10
74.75
20
-17.056
30
0
0
VERTEX
8
Cuts
62
1
10
71.75
20
-17.056
30
0
0
VERTEX
8
Cuts
62
1
10
71.75
20
-28.5
30
0
0
VERTEX
8
Cuts
62
1
10
78.75
20
-28.5
30
0
0
VERTEX
8
Cuts
62
1
10
78.75
20
-31.5
30
0
0
VERTEX
8
Cuts
62
1
10
92.35
20
-31.5
30
0
0
VERTEX
8
Cuts
62
1
10
92.35
20
-28.5
30
0
0
VERTEX
8
Cuts
62
1
10
104.75
20
-28.5
30
0
0
VERTEX
8
Cuts
62
1
10
104.75
20
-17.056
30
0
0
VERTEX
8
Cuts
62
1
10
101.75
20
-17.056
30
0
0
VERTEX
8
Cuts
62
1
10
101.75
20
-5.611
30
0
0
VERTEX
8
Cuts
62
1
10
104.75
20
-5.611
30
0
0
VERTEX
8
Cuts
62
1
10
104.75
20
5.833
30
0
0
VERTEX
8
Cuts
62
1
10
101.75
20
5.833
30
0
0
VERTEX
8
Cuts
62
1
10
101.75
20
17.278
30
0
0
VERTEX
8
Cuts
62
1
10
104.75
20
17.278
30
0
0
VERTEX
8
Cuts
62
1
10
104.75
20
28.722
30
0
0
VERTEX
8
Cuts
62
1
10
101.75
20
28.722
30
0
0
VERTEX
8
Cuts
62
1
10
101.75
20
40.167
30
0
0
VERTEX
8
Cuts
62
1
10
104.75
20
40.167
30
0
0
VERTEX
8
Cuts
62
1
10
104.75
20
51.611
30
0
0
VERTEX
8
Cuts
62
1
10
101.75
20
51.611
30
0
0
VERTEX
8
Cuts
62
1
10
101.75
20
63.056
30
0
0
VERTEX
8
Cuts
62
1
10
104.75
20
63.056
30
0
0
SEQEND
8
Cuts
62
1
0
POLYLINE
8
Cuts
62
1
66
1
10
0
20
0
30
0
39
0
70
0
0
VERTEX
8
Cuts
62
1
10
95.75
20
46.5
30
0
0
VERTEX
8
Cuts
62
1
10
95.75
20
58.5
30
0
0
VERTEX
8
Cuts
62
1
10
90.75
20
58.5
30
0
0
VERTEX
8
Cuts
62
1
10
90.75
20
46.5
30
0
0
VERTEX
8
Cuts
62
1
10
95.75
20
46.5
30
0
0
SEQEND
8
Cuts
62
1
0
POLYLINE
8
Cuts
62
1
66
1
10
0
20
0
30
0
39
0
70
0
0
VERTEX
8
Cuts
62
1
10
93.75
20
-12.5
30
0
0
VERTEX
8
Cuts
62
1
10
93.75
20
-0.5
30
0
0
VERTEX
8
Cuts
62
1
10
88.75
20
-0.5
30
0
0
VERTEX
8
Cuts
62
1
10
88.75
20
-12.5
30
0
0
VERTEX
8
Cuts
62
1
10
93.75
20
-12.5
30
0
0
SEQEND
8
Cuts
62
1
0
POLYLINE
8
Cuts
62
1
66
1
10
0
20
0
30
0
39
0
70
0
0
VERTEX
8
Cuts
62
1
10
90.75
20
68
30
0
0
VERTEX
8
Cuts
62
1
10
90.654
20
68.975
30
0
0
VERTEX
8
Cuts
62
1
10
90.369
20
69.913
30
0
0
VERTEX
8
Cuts
62
1
10
89.907
20
70.778
30
0
0
VERTEX
8
Cuts
62
1
10
89.286
20
71.536
30
0
0
VERTEX
8
Cuts
62
1
10
88.528
20
72.157
30
0
0
VERTEX
8
Cuts
62
1
10
87.663
20
72.619
30
0
0
VERTEX
8
Cuts
62
1
10
86.725
20
72.904
30
0
0
VERTEX
8
Cuts
62
1
10
85.75
20
73
30
0
0
VERTEX
8
Cuts
62
1
10
84.775
20
72.904
30
0
0
VERTEX
8
Cuts
62
1
10
83.837
20
72.619
30
0
0
VERTEX
8
Cuts
62
1
10
82.972
20
72.157
30
0
0
VERTEX
8
Cuts
62
1
10
82.214
20
71.536
30
0
0
VERTEX
8
Cuts
62
1
10
81.593
20
70.778
30
0
0
VERTEX
8
Cuts
62
1
10
81.131
20
69.913
30
0
0
VERTEX
8
Cuts
62
1
10
80.846
20
68.975
30
0
0
VERTEX
8
Cuts
62
1
10
80.75
20
68
30
0
0
VERTEX
8
Cuts
62
1
10
80.846
20
67.025
30
0
0
VERTEX
8
Cuts
62
1
10
81.131
20
66.087
30
0
0
VERTEX
8
Cuts
62
1
10
81.593
20
65.222
30
0
0
VERTEX
8
Cuts
62
1
10
82.214
20
64.464
30
0
0
VERTEX
8
Cuts
62
1
10
82.972
20
63.843
30
0
0
VERTEX
8
Cuts
62
1
10
83.837
20
63.381
30
0
0
VERTEX
8
Cuts
62
1
10
84.775
20
63.096
30
0
0
VERTEX
8
Cuts
62
1
10
85.75
20
63
30
0
0
VERTEX
8
Cuts
62
1
10
86.725
20
63.096
30
0
0
VERTEX
8
Cuts
62
1
10
87.663
20
63.381
30
0
0
VERTEX
8
Cuts
62
1
10
88.528
20
63.843
30
0
0
VERTEX
8
Cuts
62
1
10
89.286
20
64.464
30
0
0
VERTEX
8
Cuts
62
1
10
89.907
20
65.222
30
0
0
VERTEX
8
Cuts
62
1
10
90.369
20
66.087
30
0
0
VERTEX
8
Cuts
62
1
10
90.654
20
67.025
30
0
0
VERTEX
8
Cuts
62
1
10
90.75
20
68
30
0
0
SEQEND
8
Cuts
62
1
0
POLYLINE
8
Cuts
62
1
66
1
10
0
20
0
30
0
39
0
70
0
0
VERTEX
8
Cuts
62
1
10
70.75
20
17.528
30
0
0
VERTEX
8
Cuts
62
1
10
70.75
20
28.972
30
0
0
VERTEX
8
Cuts
62
1
10
67.75
20
28.972
30
0
0
VERTEX
8
Cuts
62
1
10
67.75
20
37.75
30
0
0
VERTEX
8
Cuts
62
1
10
58.75
20
37.75
30
0
0
VERTEX
8
Cuts
62
1
10
58.75
20
34.75
30
0
0
VERTEX
8
Cuts
62
1
10
49.75
20
34.75
30
0
0
VERTEX
8
Cuts
62
1
10
49.75
20
37.75
30
0
0
VERTEX
8
Cuts
62
1
10
40.75
20
37.75
30
0
0
VERTEX
8
Cuts
62
1
10
40.75
20
28.972
30
0
0
VERTEX
8
Cuts
62
1
10
37.75
20
28.972
30
0
0
VERTEX
8
Cuts
62
1
10
37.75
20
17.528
30
0
0
VERTEX
8
Cuts
62
1
10
40.75
20
17.528
30
0
0
VERTEX
8
Cuts
62
1
10
40.75
20
6.083
30
0
0
VERTEX
8
Cuts
62
1
10
37.75
20
6.083
30
0
0
VERTEX
8
Cuts
62
1
10
37.75
20
-5.361
30
0
0
VERTEX
8
Cuts
62
1
10
40.75
20
-5.361
30
0
0
VERTEX
8
Cuts
62
1
10
40.75
20
-16.806
30
0
0
VERTEX
8
Cuts
62
1
10
37.75
20
-16.806
30
0
0
VERTEX
8
Cuts
62
1
10
37.75
20
-28.25
30
0
0
VERTEX
8
Cuts
62
1
10
45.95
20
-28.25
30
0
0
VERTEX
8
Cuts
62
1
10
45.95
20
-31.25
30
0
0
VERTEX
8
Cuts
62
1
10
58.35
20
-31.25
30
0
0
VERTEX
8
Cuts
62
1
10
58.35
20
-28.25
30
0
0
VERTEX
8
Cuts
62
1
10
70.75
20
-28.25
30
0
0
VERTEX
8
Cuts
62
1
10
70.75
20
-16.806
30
0
0
VERTEX
8
Cuts
62
1
10
67.75
20
-16.806
30
0
0
VERTEX
8
Cuts
62
1
10
67.75
20
-5.361
30
0
0
VERTEX
8
Cuts
62
1
10
70.75
20
-5.361
30
0
0
VERTEX
8
Cuts
62
1
10
70.75
20
6.083
30
0
0
VERTEX
8
Cuts
62
1
10
67.75
20
6.083
30
0
0
VERTEX
8
Cuts
62
1
10
67.75
20
17.528
30
0
0
VERTEX
8
Cuts
62
1
10
70.75
20
17.528
30
0
0
SEQEND
8
Cuts
62
1
0
POLYLINE
8
Cuts
62
1
66
1
10
0
20
0
30
0
39
0
70
0
0
VERTEX
8
Cuts
62
1
10
64.75
20
19.673
30
0
0
VERTEX
8
Cuts
62
1
10
64.75
20
20.985
30
0
0
VERTEX
8
Cuts
62
1
10
43.75
20
9.985
30
0
0
VERTEX
8
Cuts
62
1
10
43.75
20
8.673
30
0
0
VERTEX
8
Cuts
62
1
10
64.75
20
19.673
30
0
0
SEQEND
8
Cuts
62
1
0
POLYLINE
8
Cuts
62
1
66
1
10
0
20
0
30
0
39
0
70
0
0
VERTEX
8
Cuts
62
1
10
64.75
20
-1.31
30
0
0
VERTEX
8
Cuts
62
1
10
64.75
20
0.001
30
0
0
VERTEX
8
Cuts
62
1
10
43.75
20
-10.999
30
0
0
VERTEX
8
Cuts
62
1
10
43.75
20
-12.31
30
0
0
VERTEX
8
Cuts
62
1
10
64.75
20
-1.31
30
0
0
SEQEND
8
Cuts
62
1
0
POLYLINE
8
Cuts
62
1
66
1
10
0
20
0
30
0
39
0
70
0
0
VERTEX
8
Cuts
62
1
10
64.75
20
17.051
30
0
0
VERTEX
8
Cuts
62
1
10
64.75
20
18.362
30
0
0
VERTEX
8
Cuts
62
1
10
43.75
20
7.362
30
0
0
VERTEX
8
Cuts
62
1
10
43.75
20
6.051
30
0
0
VERTEX
8
Cuts
62
1
10
64.75
20
17.051
30
0
0
SEQEND
8
Cuts
62
1
0
POLYLINE
8
Cuts
62
1
66
1
10
0
20
0
30
0
39
0
70
0
0
VERTEX
8
Cuts
62
1
10
64.75
20
-3.933
30
0
0
VERTEX
8
Cuts
62
1
10
64.75
20
-2.622
30
0
0
VERTEX
8
Cuts
62
1
10
43.75
20
-13.622
30
0
0
VERTEX
8
Cuts
62
1
10
43.75
20
-14.933
30
0
0
VERTEX
8
Cuts
62
1
10
64.75
20
-3.933
30
0
0
SEQEND
8
Cuts
62
1
0
POLYLINE
8
Cuts
62
1
66
1
10
0
20
0
30
0
39
0
70
0
0
VERTEX
8
Cuts
62
1
10
64.75
20
14.428
30
0
0
VERTEX
8
Cuts
62
1
10
64.75
20
15.739
30
0
0
VERTEX
8
Cuts
62
1
10
43.75
20
4.739
30
0
0
VERTEX
8
Cuts
62
1
10
43.75
20
3.428
30
0
0
VERTEX
8
Cuts
62
1
10
64.75
20
14.428
30
0
0
SEQEND
8
Cuts
62
1
0
POLYLINE
8
Cuts
62
1
66
1
10
0
20
0
30
0
39
0
70
0
0
VERTEX
8
Cuts
62
1
10
64.75
20
32.788
30
0
0
VERTEX
8
Cuts
62
1
10
64.75
20
34.1
30
0
0
VERTEX
8
Cuts
62
1
10
43.75
20
23.1
30
0
0
VERTEX
8
Cuts
62
1
10
43.75
20
21.788
30
0
0
VERTEX
8
Cuts
62
1
10
64.75
20
32.788
30
0
0
SEQEND
8
Cuts
62
1
0
POLYLINE
8
Cuts
62
1
66
1
10
0
20
0
30
0
39
0
70
0
0
VERTEX
8
Cuts
62
1
10
64.75
20
-6.556
30
0
0
VERTEX
8
Cuts
62
1
10
64.75
20
-5.245
30
0
0
VERTEX
8
Cuts
62
1
10
43.75
20
-16.245
30
0
0
VERTEX
8
Cuts
62
1
10
43.75
20
-17.556
30
0
0
VERTEX
8
Cuts
62
1
10
64.75
20
-6.556
30
0
0
SEQEND
8
Cuts
62
1
0
POLYLINE
8
Cuts
62
1
66
1
10
0
20
0
30
0
39
0
70
0
0
VERTEX
8
Cuts
62
1
10
64.75
20
11.805
30
0
0
VERTEX
8
Cuts
62
1
10
64.75
20
13.116
30
0
0
VERTEX
8
Cuts
62
1
10
43.75
20
2.116
30
0
0
VERTEX
8
Cuts
62
1
10
43.75
20
0.805
30
0
0
VERTEX
8
Cuts
62
1
10
64.75
20
11.805
30
0
0
SEQEND
8
Cuts
62
1
0
POLYLINE
8
Cuts
62
1
66
1
10
0
20
0
30
0
39
0
70
0
0
VERTEX
8
Cuts
62
1
10
64.75
20
30.165
30
0
0
VERTEX
8
Cuts
62
1
10
64.75
20
31.477
30
0
0
VERTEX
8
Cuts
62
1
10
43.75
20
20.477
30
0
0
VERTEX
8
Cuts
62
1
10
43.75
20
19.165
30
0
0
VERTEX
8
Cuts
62
1
10
64.75
20
30.165
30
0
0
SEQEND
8
Cuts
62
1
0
POLYLINE
8
Cuts
62
1
66
1
10
0
20
0
30
0
39
0
70
0
0
VERTEX
8
Cuts
62
1
10
64.75
20
-9.179
30
0
0
VERTEX
8
Cuts
62
1
10
64.75
20
-7.867
30
0
0
VERTEX
8
Cuts
62
1
10
43.75
20
-18.867
30
0
0
VERTEX
8
Cuts
62
1
10
43.75
20
-20.179
30
0
0
VERTEX
8
Cuts
62
1
10
64.75
20
-9.179
30
0
0
SEQEND
8
Cuts
62
1
0
POLYLINE
8
Cuts
62
1
66
1
10
0
20
0
30
0
39
0
70
0
0
VERTEX
8
Cuts
62
1
10
64.75
20
9.182
30
0
0
VERTEX
8
Cuts
62
1
10
64.75
20
10.493
30
0
0
VERTEX
8
Cuts
62
1
10
43.75
20
-0.507
30
0
0
VERTEX
8
Cuts
62
1
10
43.75
20
-1.818
30
0
0
VERTEX
8
Cuts
62
1
10
64.75
20
9.182
30
0
0
SEQEND
8
Cuts
62
1
0
POLYLINE
8
Cuts
62
1
66
1
10
0
20
0
30
0
39
0
70
0
0
VERTEX
8
Cuts
62
1
10
64.75
20
27.542
30
0
0
VERTEX
8
Cuts
62
1
10
64.75
20
28.854
30
0
0
VERTEX
8
Cuts
62
1
10
43.75
20
17.854
30
0
0
VERTEX
8
Cuts
62
1
10
43.75
20
16.542
30
0
0
VERTEX
8
Cuts
62
1
10
64.75
20
27.542
30
0
0
SEQEND
8
Cuts
62
1
0
POLYLINE
8
Cuts
62
1
66
1
10
0
20
0
30
0
39
0
70
0
0
VERTEX
8
Cuts
62
1
10
64.75
20
-11.802
30
0
0
VERTEX
8
Cuts
62
1
10
64.75
20
-10.49
30
0
0
VERTEX
8
Cuts
62
1
10
43.75
20
-21.49
30
0
0
VERTEX
8
Cuts
62
1
10
43.75
20
-22.802
30
0
0
VERTEX
8
Cuts
62
1
10
64.75
20
-11.802
30
0
0
SEQEND
8
Cuts
62
1
0
POLYLINE
8
Cuts
62
1
66
1
10
0
20
0
30
0
39
0
70
0
0
VERTEX
8
Cuts
62
1
10
64.75
20
6.559
30
0
0
VERTEX
8
Cuts
62
1
10
64.75
20
7.87
30
0
0
VERTEX
8
Cuts
62
1
10
43.75
20
-3.13
30
0
0
VERTEX
8
Cuts
62
1
10
43.75
20
-4.441
30
0
0
VERTEX
8
Cuts
62
1
10
64.75
20
6.559
30
0
0
SEQEND
8
Cuts
62
1
0
POLYLINE
8
Cuts
62
1
66
1
10
0
20
0
30
0
39
0
70
0
0
VERTEX
8
Cuts
62
1
10
64.75
20
24.919
30
0
0
VERTEX
8
Cuts
62
1
10
64.75
20
26.231
30
0
0
VERTEX
8
Cuts
62
1
10
43.75
20
15.231
30
0
0
VERTEX
8
Cuts
62
1
10
43.75
20
13.919
30
0
0
VERTEX
8
Cuts
62
1
10
64.75
20
24.919
30
0
0
SEQEND
8
Cuts
62
1
0
POLYLINE
8
Cuts
62
1
66
1
10
0
20
0
30
0
39
0
70
0
0
VERTEX
8
Cuts
62
1
10
64.75
20
-14.425
30
0
0
VERTEX
8
Cuts
62
1
10
64.75
20
-13.113
30
0
0
VERTEX
8
Cuts
62
1
10
43.75
20
-24.113
30
0
0
VERTEX
8
Cuts
62
1
10
43.75
20
-25.425
30
0
0
VERTEX
8
Cuts
62
1
10
64.75
20
-14.425
30
0
0
SEQEND
8
Cuts
62
1
0
POLYLINE
8
Cuts
62
1
66
1
10
0
20
0
30
0
39
0
70
0
0
VERTEX
8
Cuts
62
1
10
64.75
20
3.936
30
0
0
VERTEX
8
Cuts
62
1
10
64.75
20
5.247
30
0
0
VERTEX
8
Cuts
62
1
10
43.75
20
-5.753
30
0
0
VERTEX
8
Cuts
62
1
10
43.75
20
-7.064
30
0
0
VERTEX
8
Cuts
62
1
10
64.75
20
3.936
30
0
0
SEQEND
8
Cuts
62
1
0
POLYLINE
8
Cuts
62
1
66
1
10
0
20
0
30
0
39
0
70
0
0
VERTEX
8
Cuts
62
1
10
64.75
20
22.296
30
0
0
VERTEX
8
Cuts
62
1
10
64.75
20
23.608
30
0
0
VERTEX
8
Cuts
62
1
10
43.75
20
12.608
30
0
0
VERTEX
8
Cuts
62
1
10
43.75
20
11.296
30
0
0
VERTEX
8
Cuts
62
1
10
64.75
20
22.296
30
0
0
SEQEND
8
Cuts
62
1
0
POLYLINE
8
Cuts
62
1
66
1
10
0
20
0
30
0
39
0
70
0
0
VERTEX
8
Cuts
62
1
10
64.75
20
1.313
30
0
0
VERTEX
8
Cuts
62
1
10
64.75
20
2.624
30
0
0
VERTEX
8
Cuts
62
1
10
43.75
20
-8.376
30
0
0
VERTEX
8
Cuts
62
1
10
43.75
20
-9.687
30
0
0
VERTEX
8
Cuts
62
1
10
64.75
20
1.313
30
0
0
SEQEND
8
Cuts
62
1
0
POLYLINE
8
Cuts
62
1
66
1
10
0
20
0
30
0
39
0
70
0
0
VERTEX
8
Cuts
62
1
10
50.4
20
83
30
0
0
VERTEX
8
Cuts
62
1
10
38
20
83
30
0
0
VERTEX
8
Cuts
62
1
10
38
20
68.6
30
0
0
VERTEX
8
Cuts
62
1
10
41
20
68.6
30
0
0
VERTEX
8
Cuts
62
1
10
41
20
57.2
30
0
0
VERTEX
8
Cuts
62
1
10
38
20
57.2
30
0
0
VERTEX
8
Cuts
62
1
10
38
20
45.8
30
0
0
VERTEX
8
Cuts
62
1
10
41
20
45.8
30
0
0
VERTEX
8
Cuts
62
1
10
41
20
39
30
0
0
VERTEX
8
Cuts
62
1
10
49
20
39
30
0
0
VERTEX
8
Cuts
62
1
10
49
20
42
30
0
0
VERTEX
8
Cuts
62
1
10
59
20
42
30
0
0
VERTEX
8
Cuts
62
1
10
59
20
39
30
0
0
VERTEX
8
Cuts
62
1
10
68
20
39
30
0
0
VERTEX
8
Cuts
62
1
10
68
20
45.8
30
0
0
VERTEX
8
Cuts
62
1
10
71
20
45.8
30
0
0
VERTEX
8
Cuts
62
1
10
71
20
57.2
30
0
0
VERTEX
8
Cuts
62
1
10
68
20
57.2
30
0
0
VERTEX
8
Cuts
62
1
10
68
20
68.6
30
0
0
VERTEX
8
Cuts
62
1
10
71
20
68.6
30
0
0
VERTEX
8
Cuts
62
1
10
71
20
83
30
0
0
VERTEX
8
Cuts
62
1
10
64
20
83
30
0
0
VERTEX
8
Cuts
62
1
10
64
20
80
30
0
0
VERTEX
8
Cuts
62
1
10
50.4
20
80
30
0
0
VERTEX
8
Cuts
62
1
10
50.4
20
83
30
0
0
SEQEND
8
Cuts
62
1
0
POLYLINE
8
Cuts
62
1
66
1
10
0
20
0
30
0
39
0
70
0
0
VERTEX
8
Cuts
62
1
10
64
20
64.5
30
0
0
VERTEX
8
Cuts
62
1
10
63.707
20
64.471
30
0
0
VERTEX
8
Cuts
62
1
10
63.426
20
64.386
30
0
0
VERTEX
8
Cuts
62
1
10
63.167
20
64.247
30
0
0
VERTEX
8
Cuts
62
1
10
62.939
20
64.061
30
0
0
VERTEX
8
Cuts
62
1
10
62.753
20
63.833
30
0
0
VERTEX
8
Cuts
62
1
10
62.614
20
63.574
30
0
0
VERTEX
8
Cuts
62
1
10
62.529
20
63.293
30
0
0
VERTEX
8
Cuts
62
1
10
62.5
20
63
30
0
0
VERTEX
8
Cuts
62
1
10
62.529
20
62.707
30
0
0
VERTEX
8
Cuts
62
1
10
62.614
20
62.426
30
0
0
VERTEX
8
Cuts
62
1
10
62.753
20
62.167
30
0
0
VERTEX
8
Cuts
62
1
10
62.939
20
61.939
30
0
0
VERTEX
8
Cuts
62
1
10
63.167
20
61.753
30
0
0
VERTEX
8
Cuts
62
1
10
63.426
20
61.614
30
0
0
VERTEX
8
Cuts
62
1
10
63.707
20
61.529
30
0
0
VERTEX
8
Cuts
62
1
10
64
20
61.5
30
0
0
VERTEX
8
Cuts
62
1
10
64.293
20
61.529
30
0
0
VERTEX
8
Cuts
62
1
10
64.574
20
61.614
30
0
0
VERTEX
8
Cuts
62
1
10
64.833
20
61.753
30
0
0
VERTEX
8
Cuts
62
1
10
65.061
20
61.939
30
0
0
VERTEX
8
Cuts
62
1
10
65.247
20
62.167
30
0
0
VERTEX
8
Cuts
62
1
10
65.386
20
62.426
30
0
0
VERTEX
8
Cuts
62
1
10
65.471
20
62.707
30
0
0
VERTEX
8
Cuts
62
1
10
65.5
20
63
30
0
0
VERTEX
8
Cuts
62
1
10
65.471
20
63.293
30
0
0
VERTEX
8
Cuts
62
1
10
65.386
20
63.574
30
0
0
VERTEX
8
Cuts
62
1
10
65.247
20
63.833
30
0
0
VERTEX
8
Cuts
62
1
10
65.061
20
64.061
30
0
0
VERTEX
8
Cuts
62
1
10
64.833
20
64.247
30
0
0
VERTEX
8
Cuts
62
1
10
64.574
20
64.386
30
0
0
VERTEX
8
Cuts
62
1
10
64.293
20
64.471
30
0
0
VERTEX
8
Cuts
62
1
10
64
20
64.5
30
0
0
SEQEND
8
Cuts
62
1
0
POLYLINE
8
Cuts
62
1
66
1
10
0
20
0
30
0
39
0
70
0
0
VERTEX
8
Cuts
62
1
10
227.65
20
96.25
30
0
0
VERTEX
8
Cuts
62
1
10
215.25
20
96.25
30
0
0
VERTEX
8
Cuts
62
1
10
215.25
20
81.85
30
0
0
VERTEX
8
Cuts
62
1
10
218.25
20
81.85
30
0
0
VERTEX
8
Cuts
62
1
10
218.25
20
70.45
30
0
0
VERTEX
8
Cuts
62
1
10
215.25
20
70.45
30
0
0
VERTEX
8
Cuts
62
1
10
215.25
20
59.05
30
0
0
VERTEX
8
Cuts
62
1
10
218.25
20
59.05
30
0
0
VERTEX
8
Cuts
62
1
10
218.25
20
47.65
30
0
0
VERTEX
8
Cuts
62
1
10
215.25
20
47.65
30
0
0
VERTEX
8
Cuts
62
1
10
215.25
20
33.25
30
0
0
VERTEX
8
Cuts
62
1
10
227.65
20
33.25
30
0
0
VERTEX
8
Cuts
62
1
10
227.65
20
36.25
30
0
0
VERTEX
8
Cuts
62
1
10
240.05
20
36.25
30
0
0
VERTEX
8
Cuts
62
1
10
240.05
20
33.25
30
0
0
VERTEX
8
Cuts
62
1
10
248.25
20
33.25
30
0
0
VERTEX
8
Cuts
62
1
10
248.25
20
47.65
30
0
0
VERTEX
8
Cuts
62
1
10
245.25
20
47.65
30
0
0
VERTEX
8
Cuts
62
1
10
245.25
20
59.05
30
0
0
VERTEX
8
Cuts
62
1
10
248.25
20
59.05
30
0
0
VERTEX
8
Cuts
62
1
10
248.25
20
70.45
30
0
0
VERTEX
8
Cuts
62
1
10
245.25
20
70.45
30
0
0
VERTEX
8
Cuts
62
1
10
245.25
20
81.85
30
0
0
VERTEX
8
Cuts
62
1
10
248.25
20
81.85
30
0
0
VERTEX
8
Cuts
62
1
10
248.25
20
96.25
30
0
0
VERTEX
8
Cuts
62
1
10
241.25
20
96.25
30
0
0
VERTEX
8
Cuts
62
1
10
241.25
20
93.25
30
0
0
VERTEX
8
Cuts
62
1
10
227.65
20
93.25
30
0
0
VERTEX
8
Cuts
62
1
10
227.65
20
96.25
30
0
0
SEQEND
8
Cuts
62
1
0
POLYLINE
8
Cuts
62
1
66
1
10
0
20
0
30
0
39
0
70
0
0
VERTEX
8
Cuts
62
1
10
241.25
20
77.75
30
0
0
VERTEX
8
Cuts
62
1
10
240.957
20
77.721
30
0
0
VERTEX
8
Cuts
62
1
10
240.676
20
77.636
30
0
0
VERTEX
8
Cuts
62
1
10
240.417
20
77.497
30
0
0
VERTEX
8
Cuts
62
1
10
240.189
20
77.311
30
0
0
VERTEX
8
Cuts
62
1
10
240.003
20
77.083
30
0
0
VERTEX
8
Cuts
62
1
10
239.864
20
76.824
30
0
0
VERTEX
8
Cuts
62
1
10
239.779
20
76.543
30
0
0
VERTEX
8
Cuts
62
1
10
239.75
20
76.25
30
0
0
VERTEX
8
Cuts
62
1
10
239.779
20
75.957
30
0
0
VERTEX
8
Cuts
62
1
10
239.864
20
75.676
30
0
0
VERTEX
8
Cuts
62
1
10
240.003
20
75.417
30
0
0
VERTEX
8
Cuts
62
1
10
240.189
20
75.189
30
0
0
VERTEX
8
Cuts
62
1
10
240.417
20
75.003
30
0
0
VERTEX
8
Cuts
62
1
10
240.676
20
74.864
30
0
0
VERTEX
8
Cuts
62
1
10
240.957
20
74.779
30
0
0
VERTEX
8
Cuts
62
1
10
241.25
20
74.75
30
0
0
VERTEX
8
Cuts
62
1
10
241.543
20
74.779
30
0
0
VERTEX
8
Cuts
62
1
10
241.824
20
74.864
30
0
0
VERTEX
8
Cuts
62
1
10
242.083
20
75.003
30
0
0
VERTEX
8
Cuts
62
1
10
242.311
20
75.189
30
0
0
VERTEX
8
Cuts
62
1
10
242.497
20
75.417
30
0
0
VERTEX
8
Cuts
62
1
10
242.636
20
75.676
30
0
0
VERTEX
8
Cuts
62
1
10
242.721
20
75.957
30
0
0
VERTEX
8
Cuts
62
1
10
242.75
20
76.25
30
0
0
VERTEX
8
Cuts
62
1
10
242.721
20
76.543
30
0
0
VERTEX
8
Cuts
62
1
10
242.636
20
76.824
30
0
0
VERTEX
8
Cuts
62
1
10
242.497
20
77.083
30
0
0
VERTEX
8
Cuts
62
1
10
242.311
20
77.311
30
0
0
VERTEX
8
Cuts
62
1
10
242.083
20
77.497
30
0
0
VERTEX
8
Cuts
62
1
10
241.824
20
77.636
30
0
0
VERTEX
8
Cuts
62
1
10
241.543
20
77.721
30
0
0
VERTEX
8
Cuts
62
1
10
241.25
20
77.75
30
0
0
SEQEND
8
Cuts
62
1
0
ENDSEC
0
EOF
