  0
SECTION
  2
HEADER
  9
$ACADVER
  1
AC1009
  9
$EXTMAX
 10
101.5
 20
36.0
 30
0.0
  9
$EXTMIN
 10
4.0
 20
4.0
 30
0.0
  9
$INSUNITS
 70
     4
  9
$LUNITS
 70
     2
  9
$LUPREC
 70
     4
  9
$MEASUREMENT
 70
     1
  0
ENDSEC
  0
SECTION
  2
TABLES
  0
TABLE
  2
LAYER
 70
     1
  0
LAYER
  2
0
 70
     0
 62
     3
  6
Continuous
  0
LAYER
  2
Traces
 70
     0
 62
    70
  6
Continuous
  0
LAYER
  2
Holes
 70
     0
 62
    70
  6
Continuous
  0
LAYER
  2
Terminal_Holes
 70
     0
 62
    70
  6
Continuous
  0
LAYER
  2
Mounting_Hole
 70
     0
 62
    70
  6
Continuous
  0
LAYER
  2
Border
 70
     0
 62
    70
  6
Continuous
  0
ENDTAB
  0
TABLE
  2
APPID
 70
     1
  0
APPID
  2
ACAD
 70
     0
  0
ENDTAB
  0
ENDSEC
  0
SECTION
  2
ENTITIES
  0
POLYLINE
  8
Traces
 66
     1
 10
0.0
 20
0.0
 30
0.0
 70
     1
  0
VERTEX
  8
Traces
 10
15.4958459161981
 20
10.5384088404416
 42
0.0
  0
VERTEX
  8
Traces
 10
14.7792798619795
 20
10.5382667290966
 42
0.0
  0
VERTEX
  8
Traces
 10
14.7922268968669
 20
14.2100849300385
 42
0.4476372294953
  0
VERTEX
  8
Traces
 10
15.320850184363
 20
15.815056495273
 42
0.0979884709324
  0
VERTEX
  8
Traces
 10
15.0312037509877
 20
16.1459994661147
 42
0.3758047676584
  0
VERTEX
  8
Traces
 10
15.320850184363
 20
17.6097702586082
 42
0.1570700666803
  0
VERTEX
  8
Traces
 10
14.8058578654689
 20
18.0758687982911
 42
0.0
  0
VERTEX
  8
Traces
 10
14.7965223094564
 20
19.8265214831957
 42
0.1628709679448
  0
VERTEX
  8
Traces
 10
15.5232410892025
 20
19.5833480510226
 42
0.5773502691896
  0
VERTEX
  8
Traces
 10
16.5689483596708
 20
21.394566173318
 42
0.4467336106956
  0
VERTEX
  8
Traces
 10
14.808606964051
 20
21.7641217157357
 42
0.0
  0
VERTEX
  8
Traces
 10
14.808606964051
 20
22.7895677332902
 42
0.4338189837867
  0
VERTEX
  8
Traces
 10
15.2896646357152
 20
24.3724947397072
 42
0.5773502691896
  0
VERTEX
  8
Traces
 10
13.3275492923867
 20
24.3724947397072
 42
0.4338189837867
  0
VERTEX
  8
Traces
 10
13.808606964051
 20
22.7895677332902
 42
0.0
  0
VERTEX
  8
Traces
 10
13.7994509496587
 20
18.0390118448091
 42
0.5423749697365
  0
VERTEX
  8
Traces
 10
13.6483812744099
 20
16.1459994661147
 42
0.0979884709324
  0
VERTEX
  8
Traces
 10
13.3587348410345
 20
15.815056495273
 42
0.4180106509942
  0
VERTEX
  8
Traces
 10
13.7861271223553
 20
14.2603341765884
 42
0.0
  0
VERTEX
  8
Traces
 10
13.7696074450975
 20
9.5753038081162
 42
0.0
  0
VERTEX
  8
Traces
 10
13.7696074450975
 20
9.4757457420746
 42
0.0
  0
VERTEX
  8
Traces
 10
15.4897165495607
 20
9.4757457420746
 42
0.3005680145529
  0
VERTEX
  8
Traces
 10
16.7197883123037
 20
8.6628690907579
 42
0.5773502691896
  0
VERTEX
  8
Traces
 10
17.8777776478927
 20
10.6685654546211
 42
0.5773502691896
  0
VERTEX
  8
Traces
 10
15.5617989767147
 20
10.6685654546211
 42
0.0273012863643
  0
SEQEND
  0
POLYLINE
  8
Traces
 66
     1
 10
0.0
 20
0.0
 30
0.0
 70
     1
  0
VERTEX
  8
Traces
 10
6.9127827616189
 20
19.5451930079193
 42
0.4259720434809
  0
VERTEX
  8
Traces
 10
7.3871417034723
 20
21.183784867173
 42
0.5773502691896
  0
VERTEX
  8
Traces
 10
5.3384238197654
 20
21.1837848671731
 42
0.4259720434809
  0
VERTEX
  8
Traces
 10
5.8127827616188
 20
19.5451930079193
 42
0.0
  0
VERTEX
  8
Traces
 10
5.8127827616189
 20
18.0838959031502
 42
0.1328209002633
  0
VERTEX
  8
Traces
 10
5.3673304524563
 20
17.6404850005861
 42
0.5773502691896
  0
VERTEX
  8
Traces
 10
6.4099360769709
 20
15.8346390866697
 42
0.5773502691896
  0
VERTEX
  8
Traces
 10
7.4525417014855
 20
17.6404850005861
 42
0.155307043791
  0
VERTEX
  8
Traces
 10
6.9127827616188
 20
18.1323891236218
 42
0.0
  0
SEQEND
  0
POLYLINE
  8
Traces
 66
     1
 10
0.0
 20
0.0
 30
0.0
 70
     1
  0
VERTEX
  8
Traces
 10
6.8627827616189
 20
19.575857860756
 42
0.4338189837867
  0
VERTEX
  8
Traces
 10
7.3438404332831
 20
21.158784867173
 42
0.5773502691896
  0
VERTEX
  8
Traces
 10
5.3817250899546
 20
21.1587848671731
 42
0.4338189837867
  0
VERTEX
  8
Traces
 10
5.8627827616188
 20
19.575857860756
 42
0.0
  0
VERTEX
  8
Traces
 10
5.8627827616189
 20
18.0544606574957
 42
0.1391800842106
  0
VERTEX
  8
Traces
 10
5.4106317226455
 20
17.6154850005861
 42
0.5773502691896
  0
VERTEX
  8
Traces
 10
6.4099360769709
 20
15.8846390866697
 42
0.5773502691896
  0
VERTEX
  8
Traces
 10
7.4092404312963
 20
17.6154850005861
 42
0.1623810503142
  0
VERTEX
  8
Traces
 10
6.8627827616188
 20
18.099860443013
 42
0.0
  0
SEQEND
  0
POLYLINE
  8
Traces
 66
     1
 10
0.0
 20
0.0
 30
0.0
 70
     1
  0
VERTEX
  8
Traces
 10
9.5909783793933
 20
14.2257623711626
 42
0.4376574541279
  0
VERTEX
  8
Traces
 10
10.0851942463823
 20
15.815056495273
 42
0.0979884709324
  0
VERTEX
  8
Traces
 10
9.795547813007
 20
16.1459994661147
 42
0.3758047676584
  0
VERTEX
  8
Traces
 10
10.0851942463823
 20
17.6097702586082
 42
0.1485966964364
  0
VERTEX
  8
Traces
 10
9.6041365747181
 20
18.0598694433735
 42
0.0
  0
VERTEX
  8
Traces
 10
9.6041365747181
 20
22.7562413702891
 42
0.4331397201343
  0
VERTEX
  8
Traces
 10
10.0828705193098
 20
24.338022085146
 42
0.5773502691896
  0
VERTEX
  8
Traces
 10
8.1207551759813
 20
24.338022085146
 42
0.4344978206049
  0
VERTEX
  8
Traces
 10
8.6041365747181
 20
22.7539553843798
 42
0.0
  0
VERTEX
  8
Traces
 10
8.6041365747181
 20
18.0598694433735
 42
0.1485966964364
  0
VERTEX
  8
Traces
 10
8.1230789030538
 20
17.6097702586082
 42
0.3758047676584
  0
VERTEX
  8
Traces
 10
8.4127253364292
 20
16.1459994661147
 42
0.0979884709324
  0
VERTEX
  8
Traces
 10
8.1230789030538
 20
15.815056495273
 42
0.429966823922
  0
VERTEX
  8
Traces
 10
8.5909783793933
 20
14.2387081607941
 42
0.0
  0
VERTEX
  8
Traces
 10
8.5909783793933
 20
12.2387081607941
 42
0.0
  0
VERTEX
  8
Traces
 10
8.5909783793933
 20
10.5370394481759
 42
0.0
  0
VERTEX
  8
Traces
 10
7.9370062148417
 20
10.5369097506228
 42
0.0276076357915
  0
VERTEX
  8
Traces
 10
7.870394804009
 20
10.6685654546211
 42
0.5773502691896
  0
VERTEX
  8
Traces
 10
5.5544161328309
 20
10.6685654546211
 42
0.5773502691896
  0
VERTEX
  8
Traces
 10
6.71240546842
 20
8.6628690907579
 42
0.3005680145529
  0
VERTEX
  8
Traces
 10
7.9424772311629
 20
9.4757457420746
 42
0.0
  0
VERTEX
  8
Traces
 10
8.5909783793933
 20
9.4757457420746
 42
0.0
  0
VERTEX
  8
Traces
 10
9.5909783793933
 20
9.4757457420747
 42
0.0
  0
VERTEX
  8
Traces
 10
9.5909783793933
 20
10.5372377709183
 42
0.0
  0
VERTEX
  8
Traces
 10
9.5909783793933
 20
12.2387081607941
 42
0.0
  0
SEQEND
  0
POLYLINE
  8
Traces
 66
     1
 10
0.0
 20
0.0
 30
0.0
 70
     1
  0
VERTEX
  8
Traces
 10
9.6409783793933
 20
14.1946584610246
 42
0.4296762766008
  0
VERTEX
  8
Traces
 10
10.1284955165716
 20
15.840056495273
 42
0.084612457188
  0
VERTEX
  8
Traces
 10
9.8747417152391
 20
16.1459994661147
 42
0.3607402957315
  0
VERTEX
  8
Traces
 10
10.1284955165716
 20
17.6347702586082
 42
0.1418340711442
  0
VERTEX
  8
Traces
 10
9.6541365747181
 20
18.0905342962102
 42
0.0
  0
VERTEX
  8
Traces
 10
9.6541365747181
 20
22.7256539897661
 42
0.4253163938588
  0
VERTEX
  8
Traces
 10
10.1261717894991
 20
24.363022085146
 42
0.5773502691896
  0
VERTEX
  8
Traces
 10
8.0774539057921
 20
24.363022085146
 42
0.4266272389833
  0
VERTEX
  8
Traces
 10
8.5541365747181
 20
22.7232130409159
 42
0.0
  0
VERTEX
  8
Traces
 10
8.5541365747181
 20
18.0905342962102
 42
0.1418340711442
  0
VERTEX
  8
Traces
 10
8.0797776328646
 20
17.6347702586082
 42
0.3607402957315
  0
VERTEX
  8
Traces
 10
8.3335314341971
 20
16.1459994661147
 42
0.084612457188
  0
VERTEX
  8
Traces
 10
8.0797776328646
 20
15.840056495273
 42
0.4222532459536
  0
VERTEX
  8
Traces
 10
8.5409783793933
 20
14.2084817782676
 42
0.0
  0
VERTEX
  8
Traces
 10
8.5409783793933
 20
12.2387081607941
 42
0.0
  0
VERTEX
  8
Traces
 10
8.5409783793933
 20
10.5870295330221
 42
0.0
  0
VERTEX
  8
Traces
 10
7.9692513604415
 20
10.5869161465518
 42
0.0216829226296
  0
VERTEX
  8
Traces
 10
7.9136960741983
 20
10.6935654546211
 42
0.5773502691896
  0
VERTEX
  8
Traces
 10
5.5111148626417
 20
10.6935654546211
 42
0.5773502691896
  0
VERTEX
  8
Traces
 10
6.71240546842
 20
8.6128690907579
 42
0.2940526766346
  0
VERTEX
  8
Traces
 10
7.9750868243563
 20
9.4257457420746
 42
0.0
  0
VERTEX
  8
Traces
 10
8.5909783793933
 20
9.4257457420746
 42
0.0
  0
VERTEX
  8
Traces
 10
9.5909783793933
 20
9.4257457420747
 42
0.4142135623731
  0
VERTEX
  8
Traces
 10
9.6409783793933
 20
9.4757457420747
 42
0.0
  0
VERTEX
  8
Traces
 10
9.6409783793933
 20
10.5372377709183
 42
0.0
  0
VERTEX
  8
Traces
 10
9.6409783793933
 20
12.2387081607941
 42
0.0
  0
SEQEND
  0
POLYLINE
  8
Traces
 66
     1
 10
0.0
 20
0.0
 30
0.0
 70
     1
  0
VERTEX
  8
Traces
 10
12.233061155979
 20
11.2331532818452
 42
0.0
  0
VERTEX
  8
Traces
 10
12.233061155979
 20
22.7885635172557
 42
0.4344167990537
  0
VERTEX
  8
Traces
 10
12.7161651335879
 20
24.372494500216
 42
0.5773502691896
  0
VERTEX
  8
Traces
 10
10.7540497902594
 20
24.372494500216
 42
0.4290078691513
  0
VERTEX
  8
Traces
 10
11.218681335528
 20
22.7978132986957
 42
0.0
  0
VERTEX
  8
Traces
 10
11.195409247895
 20
11.2315857450591
 42
0.1632295123177
  0
VERTEX
  8
Traces
 10
10.5581075547728
 20
10.6685654546211
 42
0.0275041146524
  0
VERTEX
  8
Traces
 10
10.4917184061091
 20
10.5374164081506
 42
0.2070068688165
  0
VERTEX
  8
Traces
 10
10.4860251276189
 20
9.4757457420746
 42
0.3005680145529
  0
VERTEX
  8
Traces
 10
11.7160968903619
 20
8.6628690907579
 42
0.3005680145529
  0
VERTEX
  8
Traces
 10
12.9461686531049
 20
9.4757457420746
 42
0.207110281557
  0
VERTEX
  8
Traces
 10
12.940262114517
 20
10.5379020100537
 42
0.0274048785396
  0
VERTEX
  8
Traces
 10
12.8740862259509
 20
10.6685654546211
 42
0.1640050612015
  0
SEQEND
  0
POLYLINE
  8
Traces
 66
     1
 10
0.0
 20
0.0
 30
0.0
 70
     1
  0
VERTEX
  8
Traces
 10
12.283061155979
 20
11.2659714376273
 42
0.0
  0
VERTEX
  8
Traces
 10
12.283061155979
 20
22.7578304260967
 42
0.4265490413231
  0
VERTEX
  8
Traces
 10
12.7594664037772
 20
24.397494500216
 42
0.5773502691896
  0
VERTEX
  8
Traces
 10
10.7107485200702
 20
24.397494500216
 42
0.4213100926393
  0
VERTEX
  8
Traces
 10
11.1686207021576
 20
22.7677288153351
 42
0.0
  0
VERTEX
  8
Traces
 10
11.1454750245265
 20
11.2643270326958
 42
0.1570838979679
  0
VERTEX
  8
Traces
 10
10.5148062845836
 20
10.6935654546211
 42
0.0275041146524
  0
VERTEX
  8
Traces
 10
10.4459346135204
 20
10.557512286738
 42
0.2070068688165
  0
VERTEX
  8
Traces
 10
10.4400284434408
 20
9.4561420423059
 42
0.3005680145529
  0
VERTEX
  8
Traces
 10
11.7160968903619
 20
8.6128690907579
 42
0.3005680145529
  0
VERTEX
  8
Traces
 10
12.992165337283
 20
9.4561420423059
 42
0.207110281557
  0
VERTEX
  8
Traces
 10
12.986037932565
 20
10.5580160469941
 42
0.0274048785396
  0
VERTEX
  8
Traces
 10
12.9173874961401
 20
10.6935654546211
 42
0.1578245766725
  0
SEQEND
  0
POLYLINE
  8
Traces
 66
     1
 10
0.0
 20
0.0
 30
0.0
 70
     1
  0
VERTEX
  8
Traces
 10
15.4636375602975
 20
10.5884024537754
 42
0.0
  0
VERTEX
  8
Traces
 10
14.8294565106738
 20
10.5882766812505
 42
0.0
  0
VERTEX
  8
Traces
 10
14.8421132841887
 20
14.1777758802289
 42
0.439332221007
  0
VERTEX
  8
Traces
 10
15.3641514545522
 20
15.840056495273
 42
0.084612457188
  0
VERTEX
  8
Traces
 10
15.1103976532198
 20
16.1459994661147
 42
0.3607402957315
  0
VERTEX
  8
Traces
 10
15.3641514545522
 20
17.6347702586082
 42
0.1500809231298
  0
VERTEX
  8
Traces
 10
14.8556885685564
 20
18.107749562353
 42
0.0
  0
VERTEX
  8
Traces
 10
14.8470343222856
 20
19.730639452312
 42
0.1429019420792
  0
VERTEX
  8
Traces
 10
15.5232410892025
 20
19.5333480510226
 42
0.5773502691896
  0
VERTEX
  8
Traces
 10
16.61224962986
 20
21.419566173318
 42
0.423997024741
  0
VERTEX
  8
Traces
 10
14.858606964051
 20
21.8583071418259
 42
0.0
  0
VERTEX
  8
Traces
 10
14.858606964051
 20
22.7589028804535
 42
0.4259720434809
  0
VERTEX
  8
Traces
 10
15.3329659059044
 20
24.3974947397072
 42
0.5773502691896
  0
VERTEX
  8
Traces
 10
13.2842480221975
 20
24.3974947397072
 42
0.4259553639108
  0
VERTEX
  8
Traces
 10
13.7585478289484
 20
22.7589339415901
 42
0.0
  0
VERTEX
  8
Traces
 10
13.7495074330805
 20
18.0683661918587
 42
0.5172927256404
  0
VERTEX
  8
Traces
 10
13.5691873721778
 20
16.1459994661147
 42
0.084612457188
  0
VERTEX
  8
Traces
 10
13.3154335708453
 20
15.840056495273
 42
0.410673330016
  0
VERTEX
  8
Traces
 10
13.7360251967005
 20
14.2315159041335
 42
0.0
  0
VERTEX
  8
Traces
 10
13.7196077559213
 20
9.5754801097969
 42
0.0008815104586
  0
VERTEX
  8
Traces
 10
13.7196074450975
 20
9.5753038081162
 42
0.0
  0
VERTEX
  8
Traces
 10
13.7196074450975
 20
9.4757457420746
 42
0.4142135623731
  0
VERTEX
  8
Traces
 10
13.7696074450975
 20
9.4257457420746
 42
0.0
  0
VERTEX
  8
Traces
 10
15.4571069563673
 20
9.4257457420746
 42
0.2940526766346
  0
VERTEX
  8
Traces
 10
16.7197883123037
 20
8.6128690907579
 42
0.5773502691896
  0
VERTEX
  8
Traces
 10
17.9210789180819
 20
10.6935654546211
 42
0.5773502691896
  0
VERTEX
  8
Traces
 10
15.5184977065255
 20
10.6935654546211
 42
0.0213870614416
  0
SEQEND
  0
POLYLINE
  8
Traces
 66
     1
 10
0.0
 20
0.0
 30
0.0
 70
     1
  0
VERTEX
  8
Traces
 10
27.4127827616189
 20
19.5451930079193
 42
0.4259720434809
  0
VERTEX
  8
Traces
 10
27.8871417034723
 20
21.183784867173
 42
0.5773502691896
  0
VERTEX
  8
Traces
 10
25.8384238197654
 20
21.1837848671731
 42
0.4259720434809
  0
VERTEX
  8
Traces
 10
26.3127827616188
 20
19.5451930079193
 42
0.0
  0
VERTEX
  8
Traces
 10
26.3127827616189
 20
18.0838959031502
 42
0.1328209002633
  0
VERTEX
  8
Traces
 10
25.8673304524563
 20
17.6404850005861
 42
0.5773502691896
  0
VERTEX
  8
Traces
 10
26.9099360769709
 20
15.8346390866697
 42
0.5773502691896
  0
VERTEX
  8
Traces
 10
27.9525417014855
 20
17.6404850005861
 42
0.155307043791
  0
VERTEX
  8
Traces
 10
27.4127827616188
 20
18.1323891236218
 42
0.0
  0
SEQEND
  0
POLYLINE
  8
Traces
 66
     1
 10
0.0
 20
0.0
 30
0.0
 70
     1
  0
VERTEX
  8
Traces
 10
27.3627827616189
 20
19.575857860756
 42
0.4338189837867
  0
VERTEX
  8
Traces
 10
27.8438404332831
 20
21.158784867173
 42
0.5773502691896
  0
VERTEX
  8
Traces
 10
25.8817250899546
 20
21.1587848671731
 42
0.4338189837867
  0
VERTEX
  8
Traces
 10
26.3627827616188
 20
19.575857860756
 42
0.0
  0
VERTEX
  8
Traces
 10
26.3627827616189
 20
18.0544606574957
 42
0.1391800842106
  0
VERTEX
  8
Traces
 10
25.9106317226455
 20
17.6154850005861
 42
0.5773502691896
  0
VERTEX
  8
Traces
 10
26.9099360769709
 20
15.8846390866697
 42
0.5773502691896
  0
VERTEX
  8
Traces
 10
27.9092404312963
 20
17.6154850005861
 42
0.1623810503142
  0
VERTEX
  8
Traces
 10
27.3627827616188
 20
18.099860443013
 42
0.0
  0
SEQEND
  0
POLYLINE
  8
Traces
 66
     1
 10
0.0
 20
0.0
 30
0.0
 70
     1
  0
VERTEX
  8
Traces
 10
30.0909783793933
 20
14.2257623711626
 42
0.4376574541279
  0
VERTEX
  8
Traces
 10
30.5851942463823
 20
15.815056495273
 42
0.0979884709324
  0
VERTEX
  8
Traces
 10
30.295547813007
 20
16.1459994661147
 42
0.3758047676584
  0
VERTEX
  8
Traces
 10
30.5851942463823
 20
17.6097702586082
 42
0.1485966964364
  0
VERTEX
  8
Traces
 10
30.1041365747181
 20
18.0598694433735
 42
0.0
  0
VERTEX
  8
Traces
 10
30.1041365747181
 20
22.7562413702891
 42
0.4331397201343
  0
VERTEX
  8
Traces
 10
30.5828705193098
 20
24.338022085146
 42
0.5773502691896
  0
VERTEX
  8
Traces
 10
28.6207551759813
 20
24.338022085146
 42
0.4344978206049
  0
VERTEX
  8
Traces
 10
29.1041365747181
 20
22.7539553843798
 42
0.0
  0
VERTEX
  8
Traces
 10
29.1041365747181
 20
18.0598694433735
 42
0.1485966964364
  0
VERTEX
  8
Traces
 10
28.6230789030538
 20
17.6097702586082
 42
0.3758047676584
  0
VERTEX
  8
Traces
 10
28.9127253364292
 20
16.1459994661147
 42
0.0979884709324
  0
VERTEX
  8
Traces
 10
28.6230789030538
 20
15.815056495273
 42
0.429966823922
  0
VERTEX
  8
Traces
 10
29.0909783793933
 20
14.2387081607941
 42
0.0
  0
VERTEX
  8
Traces
 10
29.0909783793933
 20
12.2387081607941
 42
0.0
  0
VERTEX
  8
Traces
 10
29.0909783793933
 20
10.5370394481759
 42
0.0
  0
VERTEX
  8
Traces
 10
28.4370062148417
 20
10.5369097506228
 42
0.0276076357915
  0
VERTEX
  8
Traces
 10
28.370394804009
 20
10.6685654546211
 42
0.5773502691896
  0
VERTEX
  8
Traces
 10
26.0544161328309
 20
10.6685654546211
 42
0.5773502691896
  0
VERTEX
  8
Traces
 10
27.21240546842
 20
8.6628690907579
 42
0.3005680145529
  0
VERTEX
  8
Traces
 10
28.4424772311629
 20
9.4757457420746
 42
0.0
  0
VERTEX
  8
Traces
 10
29.0909783793933
 20
9.4757457420746
 42
0.0
  0
VERTEX
  8
Traces
 10
30.0909783793933
 20
9.4757457420747
 42
0.0
  0
VERTEX
  8
Traces
 10
30.0909783793933
 20
10.5372377709183
 42
0.0
  0
VERTEX
  8
Traces
 10
30.0909783793933
 20
12.2387081607941
 42
0.0
  0
SEQEND
  0
POLYLINE
  8
Traces
 66
     1
 10
0.0
 20
0.0
 30
0.0
 70
     1
  0
VERTEX
  8
Traces
 10
30.1409783793933
 20
14.1946584610246
 42
0.4296762766008
  0
VERTEX
  8
Traces
 10
30.6284955165716
 20
15.840056495273
 42
0.084612457188
  0
VERTEX
  8
Traces
 10
30.3747417152391
 20
16.1459994661147
 42
0.3607402957315
  0
VERTEX
  8
Traces
 10
30.6284955165716
 20
17.6347702586082
 42
0.1418340711442
  0
VERTEX
  8
Traces
 10
30.1541365747181
 20
18.0905342962102
 42
0.0
  0
VERTEX
  8
Traces
 10
30.1541365747181
 20
22.7256539897661
 42
0.4253163938588
  0
VERTEX
  8
Traces
 10
30.6261717894991
 20
24.363022085146
 42
0.5773502691896
  0
VERTEX
  8
Traces
 10
28.5774539057921
 20
24.363022085146
 42
0.4266272389833
  0
VERTEX
  8
Traces
 10
29.0541365747181
 20
22.7232130409159
 42
0.0
  0
VERTEX
  8
Traces
 10
29.0541365747181
 20
18.0905342962102
 42
0.1418340711442
  0
VERTEX
  8
Traces
 10
28.5797776328646
 20
17.6347702586082
 42
0.3607402957315
  0
VERTEX
  8
Traces
 10
28.8335314341971
 20
16.1459994661147
 42
0.084612457188
  0
VERTEX
  8
Traces
 10
28.5797776328646
 20
15.840056495273
 42
0.4222532459536
  0
VERTEX
  8
Traces
 10
29.0409783793933
 20
14.2084817782676
 42
0.0
  0
VERTEX
  8
Traces
 10
29.0409783793933
 20
12.2387081607941
 42
0.0
  0
VERTEX
  8
Traces
 10
29.0409783793933
 20
10.5870295330221
 42
0.0
  0
VERTEX
  8
Traces
 10
28.4692513604415
 20
10.5869161465518
 42
0.0216829226296
  0
VERTEX
  8
Traces
 10
28.4136960741983
 20
10.6935654546211
 42
0.5773502691896
  0
VERTEX
  8
Traces
 10
26.0111148626417
 20
10.6935654546211
 42
0.5773502691896
  0
VERTEX
  8
Traces
 10
27.21240546842
 20
8.6128690907579
 42
0.2940526766346
  0
VERTEX
  8
Traces
 10
28.4750868243563
 20
9.4257457420746
 42
0.0
  0
VERTEX
  8
Traces
 10
29.0909783793933
 20
9.4257457420746
 42
0.0
  0
VERTEX
  8
Traces
 10
30.0909783793933
 20
9.4257457420747
 42
0.4142135623731
  0
VERTEX
  8
Traces
 10
30.1409783793933
 20
9.4757457420747
 42
0.0
  0
VERTEX
  8
Traces
 10
30.1409783793933
 20
10.5372377709183
 42
0.0
  0
VERTEX
  8
Traces
 10
30.1409783793933
 20
12.2387081607941
 42
0.0
  0
SEQEND
  0
POLYLINE
  8
Traces
 66
     1
 10
0.0
 20
0.0
 30
0.0
 70
     1
  0
VERTEX
  8
Traces
 10
32.733061155979
 20
11.2331532818452
 42
0.0
  0
VERTEX
  8
Traces
 10
32.733061155979
 20
22.7885635172557
 42
0.4344167990537
  0
VERTEX
  8
Traces
 10
33.2161651335879
 20
24.372494500216
 42
0.5773502691896
  0
VERTEX
  8
Traces
 10
31.2540497902594
 20
24.372494500216
 42
0.4290078691513
  0
VERTEX
  8
Traces
 10
31.718681335528
 20
22.7978132986957
 42
0.0
  0
VERTEX
  8
Traces
 10
31.695409247895
 20
11.2315857450591
 42
0.1632295123177
  0
VERTEX
  8
Traces
 10
31.0581075547728
 20
10.6685654546211
 42
0.0275041146524
  0
VERTEX
  8
Traces
 10
30.9917184061091
 20
10.5374164081506
 42
0.2070068688165
  0
VERTEX
  8
Traces
 10
30.9860251276189
 20
9.4757457420746
 42
0.3005680145529
  0
VERTEX
  8
Traces
 10
32.2160968903619
 20
8.6628690907579
 42
0.3005680145529
  0
VERTEX
  8
Traces
 10
33.4461686531049
 20
9.4757457420746
 42
0.207110281557
  0
VERTEX
  8
Traces
 10
33.440262114517
 20
10.5379020100537
 42
0.0274048785396
  0
VERTEX
  8
Traces
 10
33.3740862259509
 20
10.6685654546211
 42
0.1640050612015
  0
SEQEND
  0
POLYLINE
  8
Traces
 66
     1
 10
0.0
 20
0.0
 30
0.0
 70
     1
  0
VERTEX
  8
Traces
 10
32.783061155979
 20
11.2659714376273
 42
0.0
  0
VERTEX
  8
Traces
 10
32.783061155979
 20
22.7578304260967
 42
0.4265490413231
  0
VERTEX
  8
Traces
 10
33.2594664037772
 20
24.397494500216
 42
0.5773502691896
  0
VERTEX
  8
Traces
 10
31.2107485200702
 20
24.397494500216
 42
0.4213100926393
  0
VERTEX
  8
Traces
 10
31.6686207021576
 20
22.7677288153351
 42
0.0
  0
VERTEX
  8
Traces
 10
31.6454750245265
 20
11.2643270326958
 42
0.1570838979679
  0
VERTEX
  8
Traces
 10
31.0148062845836
 20
10.6935654546211
 42
0.0275041146524
  0
VERTEX
  8
Traces
 10
30.9459346135204
 20
10.557512286738
 42
0.2070068688165
  0
VERTEX
  8
Traces
 10
30.9400284434408
 20
9.4561420423059
 42
0.3005680145529
  0
VERTEX
  8
Traces
 10
32.2160968903619
 20
8.6128690907579
 42
0.3005680145529
  0
VERTEX
  8
Traces
 10
33.492165337283
 20
9.4561420423059
 42
0.207110281557
  0
VERTEX
  8
Traces
 10
33.486037932565
 20
10.5580160469941
 42
0.0274048785396
  0
VERTEX
  8
Traces
 10
33.4173874961401
 20
10.6935654546211
 42
0.1578245766725
  0
SEQEND
  0
POLYLINE
  8
Traces
 66
     1
 10
0.0
 20
0.0
 30
0.0
 70
     1
  0
VERTEX
  8
Traces
 10
35.9958459161981
 20
10.5384088404416
 42
0.0
  0
VERTEX
  8
Traces
 10
35.2792798619795
 20
10.5382667290966
 42
0.0
  0
VERTEX
  8
Traces
 10
35.2922268968669
 20
14.2100849300385
 42
0.4476372294953
  0
VERTEX
  8
Traces
 10
35.820850184363
 20
15.815056495273
 42
0.0979884709324
  0
VERTEX
  8
Traces
 10
35.5312037509877
 20
16.1459994661147
 42
0.3758047676584
  0
VERTEX
  8
Traces
 10
35.820850184363
 20
17.6097702586082
 42
0.1570700666803
  0
VERTEX
  8
Traces
 10
35.3058578654689
 20
18.0758687982911
 42
0.0
  0
VERTEX
  8
Traces
 10
35.2965223094564
 20
19.8265214831957
 42
0.1628709679448
  0
VERTEX
  8
Traces
 10
36.0232410892025
 20
19.5833480510226
 42
0.5773502691896
  0
VERTEX
  8
Traces
 10
37.0689483596708
 20
21.394566173318
 42
0.4467336106956
  0
VERTEX
  8
Traces
 10
35.308606964051
 20
21.7641217157357
 42
0.0
  0
VERTEX
  8
Traces
 10
35.308606964051
 20
22.7895677332902
 42
0.4338189837867
  0
VERTEX
  8
Traces
 10
35.7896646357152
 20
24.3724947397072
 42
0.5773502691896
  0
VERTEX
  8
Traces
 10
33.8275492923867
 20
24.3724947397072
 42
0.4338189837867
  0
VERTEX
  8
Traces
 10
34.308606964051
 20
22.7895677332902
 42
0.0
  0
VERTEX
  8
Traces
 10
34.2994509496587
 20
18.0390118448091
 42
0.5423749697365
  0
VERTEX
  8
Traces
 10
34.1483812744099
 20
16.1459994661147
 42
0.0979884709324
  0
VERTEX
  8
Traces
 10
33.8587348410345
 20
15.815056495273
 42
0.4180106509942
  0
VERTEX
  8
Traces
 10
34.2861271223553
 20
14.2603341765884
 42
0.0
  0
VERTEX
  8
Traces
 10
34.2696074450975
 20
9.5753038081162
 42
0.0
  0
VERTEX
  8
Traces
 10
34.2696074450975
 20
9.4757457420746
 42
0.0
  0
VERTEX
  8
Traces
 10
35.9897165495607
 20
9.4757457420746
 42
0.3005680145529
  0
VERTEX
  8
Traces
 10
37.2197883123037
 20
8.6628690907579
 42
0.5773502691896
  0
VERTEX
  8
Traces
 10
38.3777776478927
 20
10.6685654546211
 42
0.5773502691896
  0
VERTEX
  8
Traces
 10
36.0617989767147
 20
10.6685654546211
 42
0.0273012863643
  0
SEQEND
  0
POLYLINE
  8
Traces
 66
     1
 10
0.0
 20
0.0
 30
0.0
 70
     1
  0
VERTEX
  8
Traces
 10
35.9636375602975
 20
10.5884024537754
 42
0.0
  0
VERTEX
  8
Traces
 10
35.3294565106738
 20
10.5882766812505
 42
0.0
  0
VERTEX
  8
Traces
 10
35.3421132841887
 20
14.1777758802289
 42
0.439332221007
  0
VERTEX
  8
Traces
 10
35.8641514545522
 20
15.840056495273
 42
0.084612457188
  0
VERTEX
  8
Traces
 10
35.6103976532198
 20
16.1459994661147
 42
0.3607402957315
  0
VERTEX
  8
Traces
 10
35.8641514545522
 20
17.6347702586082
 42
0.1500809231298
  0
VERTEX
  8
Traces
 10
35.3556885685564
 20
18.107749562353
 42
0.0
  0
VERTEX
  8
Traces
 10
35.3470343222856
 20
19.730639452312
 42
0.1429019420792
  0
VERTEX
  8
Traces
 10
36.0232410892025
 20
19.5333480510226
 42
0.5773502691896
  0
VERTEX
  8
Traces
 10
37.11224962986
 20
21.419566173318
 42
0.423997024741
  0
VERTEX
  8
Traces
 10
35.358606964051
 20
21.8583071418259
 42
0.0
  0
VERTEX
  8
Traces
 10
35.358606964051
 20
22.7589028804535
 42
0.4259720434809
  0
VERTEX
  8
Traces
 10
35.8329659059044
 20
24.3974947397072
 42
0.5773502691896
  0
VERTEX
  8
Traces
 10
33.7842480221975
 20
24.3974947397072
 42
0.4259553639108
  0
VERTEX
  8
Traces
 10
34.2585478289484
 20
22.7589339415901
 42
0.0
  0
VERTEX
  8
Traces
 10
34.2495074330805
 20
18.0683661918587
 42
0.5172927256404
  0
VERTEX
  8
Traces
 10
34.0691873721778
 20
16.1459994661147
 42
0.084612457188
  0
VERTEX
  8
Traces
 10
33.8154335708453
 20
15.840056495273
 42
0.410673330016
  0
VERTEX
  8
Traces
 10
34.2360251967005
 20
14.2315159041335
 42
0.0
  0
VERTEX
  8
Traces
 10
34.2196077559213
 20
9.5754801097969
 42
0.0008815104586
  0
VERTEX
  8
Traces
 10
34.2196074450975
 20
9.5753038081162
 42
0.0
  0
VERTEX
  8
Traces
 10
34.2196074450975
 20
9.4757457420746
 42
0.4142135623731
  0
VERTEX
  8
Traces
 10
34.2696074450975
 20
9.4257457420746
 42
0.0
  0
VERTEX
  8
Traces
 10
35.9571069563673
 20
9.4257457420746
 42
0.2940526766346
  0
VERTEX
  8
Traces
 10
37.2197883123037
 20
8.6128690907579
 42
0.5773502691896
  0
VERTEX
  8
Traces
 10
38.4210789180819
 20
10.6935654546211
 42
0.5773502691896
  0
VERTEX
  8
Traces
 10
36.0184977065255
 20
10.6935654546211
 42
0.0213870614416
  0
SEQEND
  0
POLYLINE
  8
Traces
 66
     1
 10
0.0
 20
0.0
 30
0.0
 70
     1
  0
VERTEX
  8
Traces
 10
47.9127827616189
 20
19.5451930079193
 42
0.4259720434809
  0
VERTEX
  8
Traces
 10
48.3871417034723
 20
21.183784867173
 42
0.5773502691896
  0
VERTEX
  8
Traces
 10
46.3384238197654
 20
21.1837848671731
 42
0.4259720434809
  0
VERTEX
  8
Traces
 10
46.8127827616188
 20
19.5451930079193
 42
0.0
  0
VERTEX
  8
Traces
 10
46.8127827616189
 20
18.0838959031502
 42
0.1328209002633
  0
VERTEX
  8
Traces
 10
46.3673304524563
 20
17.6404850005861
 42
0.5773502691896
  0
VERTEX
  8
Traces
 10
47.4099360769709
 20
15.8346390866697
 42
0.5773502691896
  0
VERTEX
  8
Traces
 10
48.4525417014855
 20
17.6404850005861
 42
0.155307043791
  0
VERTEX
  8
Traces
 10
47.9127827616188
 20
18.1323891236218
 42
0.0
  0
SEQEND
  0
POLYLINE
  8
Traces
 66
     1
 10
0.0
 20
0.0
 30
0.0
 70
     1
  0
VERTEX
  8
Traces
 10
47.8627827616189
 20
19.575857860756
 42
0.4338189837867
  0
VERTEX
  8
Traces
 10
48.3438404332831
 20
21.158784867173
 42
0.5773502691896
  0
VERTEX
  8
Traces
 10
46.3817250899546
 20
21.1587848671731
 42
0.4338189837867
  0
VERTEX
  8
Traces
 10
46.8627827616188
 20
19.575857860756
 42
0.0
  0
VERTEX
  8
Traces
 10
46.8627827616189
 20
18.0544606574957
 42
0.1391800842106
  0
VERTEX
  8
Traces
 10
46.4106317226455
 20
17.6154850005861
 42
0.5773502691896
  0
VERTEX
  8
Traces
 10
47.4099360769709
 20
15.8846390866697
 42
0.5773502691896
  0
VERTEX
  8
Traces
 10
48.4092404312963
 20
17.6154850005861
 42
0.1623810503142
  0
VERTEX
  8
Traces
 10
47.8627827616188
 20
18.099860443013
 42
0.0
  0
SEQEND
  0
POLYLINE
  8
Traces
 66
     1
 10
0.0
 20
0.0
 30
0.0
 70
     1
  0
VERTEX
  8
Traces
 10
50.5909783793933
 20
14.2257623711626
 42
0.4376574541279
  0
VERTEX
  8
Traces
 10
51.0851942463823
 20
15.815056495273
 42
0.0979884709324
  0
VERTEX
  8
Traces
 10
50.795547813007
 20
16.1459994661147
 42
0.3758047676584
  0
VERTEX
  8
Traces
 10
51.0851942463823
 20
17.6097702586082
 42
0.1485966964364
  0
VERTEX
  8
Traces
 10
50.6041365747181
 20
18.0598694433735
 42
0.0
  0
VERTEX
  8
Traces
 10
50.6041365747181
 20
22.7562413702891
 42
0.4331397201343
  0
VERTEX
  8
Traces
 10
51.0828705193098
 20
24.338022085146
 42
0.5773502691896
  0
VERTEX
  8
Traces
 10
49.1207551759813
 20
24.338022085146
 42
0.4344978206049
  0
VERTEX
  8
Traces
 10
49.6041365747181
 20
22.7539553843798
 42
0.0
  0
VERTEX
  8
Traces
 10
49.6041365747181
 20
18.0598694433735
 42
0.1485966964364
  0
VERTEX
  8
Traces
 10
49.1230789030538
 20
17.6097702586082
 42
0.3758047676584
  0
VERTEX
  8
Traces
 10
49.4127253364292
 20
16.1459994661147
 42
0.0979884709324
  0
VERTEX
  8
Traces
 10
49.1230789030538
 20
15.815056495273
 42
0.429966823922
  0
VERTEX
  8
Traces
 10
49.5909783793933
 20
14.2387081607941
 42
0.0
  0
VERTEX
  8
Traces
 10
49.5909783793933
 20
12.2387081607941
 42
0.0
  0
VERTEX
  8
Traces
 10
49.5909783793933
 20
10.5370394481759
 42
0.0
  0
VERTEX
  8
Traces
 10
48.9370062148417
 20
10.5369097506228
 42
0.0276076357915
  0
VERTEX
  8
Traces
 10
48.870394804009
 20
10.6685654546211
 42
0.5773502691896
  0
VERTEX
  8
Traces
 10
46.5544161328309
 20
10.6685654546211
 42
0.5773502691896
  0
VERTEX
  8
Traces
 10
47.71240546842
 20
8.6628690907579
 42
0.3005680145529
  0
VERTEX
  8
Traces
 10
48.9424772311629
 20
9.4757457420746
 42
0.0
  0
VERTEX
  8
Traces
 10
49.5909783793933
 20
9.4757457420746
 42
0.0
  0
VERTEX
  8
Traces
 10
50.5909783793933
 20
9.4757457420747
 42
0.0
  0
VERTEX
  8
Traces
 10
50.5909783793933
 20
10.5372377709183
 42
0.0
  0
VERTEX
  8
Traces
 10
50.5909783793933
 20
12.2387081607941
 42
0.0
  0
SEQEND
  0
POLYLINE
  8
Traces
 66
     1
 10
0.0
 20
0.0
 30
0.0
 70
     1
  0
VERTEX
  8
Traces
 10
50.6409783793933
 20
14.1946584610246
 42
0.4296762766008
  0
VERTEX
  8
Traces
 10
51.1284955165716
 20
15.840056495273
 42
0.084612457188
  0
VERTEX
  8
Traces
 10
50.8747417152391
 20
16.1459994661147
 42
0.3607402957315
  0
VERTEX
  8
Traces
 10
51.1284955165716
 20
17.6347702586082
 42
0.1418340711442
  0
VERTEX
  8
Traces
 10
50.6541365747181
 20
18.0905342962102
 42
0.0
  0
VERTEX
  8
Traces
 10
50.6541365747181
 20
22.7256539897661
 42
0.4253163938588
  0
VERTEX
  8
Traces
 10
51.1261717894991
 20
24.363022085146
 42
0.5773502691896
  0
VERTEX
  8
Traces
 10
49.0774539057921
 20
24.363022085146
 42
0.4266272389833
  0
VERTEX
  8
Traces
 10
49.5541365747181
 20
22.7232130409159
 42
0.0
  0
VERTEX
  8
Traces
 10
49.5541365747181
 20
18.0905342962102
 42
0.1418340711442
  0
VERTEX
  8
Traces
 10
49.0797776328646
 20
17.6347702586082
 42
0.3607402957315
  0
VERTEX
  8
Traces
 10
49.3335314341971
 20
16.1459994661147
 42
0.084612457188
  0
VERTEX
  8
Traces
 10
49.0797776328646
 20
15.840056495273
 42
0.4222532459536
  0
VERTEX
  8
Traces
 10
49.5409783793933
 20
14.2084817782676
 42
0.0
  0
VERTEX
  8
Traces
 10
49.5409783793933
 20
12.2387081607941
 42
0.0
  0
VERTEX
  8
Traces
 10
49.5409783793933
 20
10.5870295330221
 42
0.0
  0
VERTEX
  8
Traces
 10
48.9692513604415
 20
10.5869161465518
 42
0.0216829226296
  0
VERTEX
  8
Traces
 10
48.9136960741983
 20
10.6935654546211
 42
0.5773502691896
  0
VERTEX
  8
Traces
 10
46.5111148626417
 20
10.6935654546211
 42
0.5773502691896
  0
VERTEX
  8
Traces
 10
47.71240546842
 20
8.6128690907579
 42
0.2940526766346
  0
VERTEX
  8
Traces
 10
48.9750868243563
 20
9.4257457420746
 42
0.0
  0
VERTEX
  8
Traces
 10
49.5909783793933
 20
9.4257457420746
 42
0.0
  0
VERTEX
  8
Traces
 10
50.5909783793933
 20
9.4257457420747
 42
0.4142135623731
  0
VERTEX
  8
Traces
 10
50.6409783793933
 20
9.4757457420747
 42
0.0
  0
VERTEX
  8
Traces
 10
50.6409783793933
 20
10.5372377709183
 42
0.0
  0
VERTEX
  8
Traces
 10
50.6409783793933
 20
12.2387081607941
 42
0.0
  0
SEQEND
  0
POLYLINE
  8
Traces
 66
     1
 10
0.0
 20
0.0
 30
0.0
 70
     1
  0
VERTEX
  8
Traces
 10
53.233061155979
 20
11.2331532818452
 42
0.0
  0
VERTEX
  8
Traces
 10
53.233061155979
 20
22.7885635172557
 42
0.4344167990537
  0
VERTEX
  8
Traces
 10
53.7161651335879
 20
24.372494500216
 42
0.5773502691896
  0
VERTEX
  8
Traces
 10
51.7540497902594
 20
24.372494500216
 42
0.4290078691513
  0
VERTEX
  8
Traces
 10
52.218681335528
 20
22.7978132986957
 42
0.0
  0
VERTEX
  8
Traces
 10
52.195409247895
 20
11.2315857450591
 42
0.1632295123177
  0
VERTEX
  8
Traces
 10
51.5581075547728
 20
10.6685654546211
 42
0.0275041146524
  0
VERTEX
  8
Traces
 10
51.4917184061091
 20
10.5374164081506
 42
0.2070068688165
  0
VERTEX
  8
Traces
 10
51.4860251276189
 20
9.4757457420746
 42
0.3005680145529
  0
VERTEX
  8
Traces
 10
52.7160968903619
 20
8.6628690907579
 42
0.3005680145529
  0
VERTEX
  8
Traces
 10
53.9461686531049
 20
9.4757457420746
 42
0.207110281557
  0
VERTEX
  8
Traces
 10
53.940262114517
 20
10.5379020100537
 42
0.0274048785396
  0
VERTEX
  8
Traces
 10
53.8740862259509
 20
10.6685654546211
 42
0.1640050612015
  0
SEQEND
  0
POLYLINE
  8
Traces
 66
     1
 10
0.0
 20
0.0
 30
0.0
 70
     1
  0
VERTEX
  8
Traces
 10
53.283061155979
 20
11.2659714376273
 42
0.0
  0
VERTEX
  8
Traces
 10
53.283061155979
 20
22.7578304260967
 42
0.4265490413231
  0
VERTEX
  8
Traces
 10
53.7594664037772
 20
24.397494500216
 42
0.5773502691896
  0
VERTEX
  8
Traces
 10
51.7107485200702
 20
24.397494500216
 42
0.4213100926393
  0
VERTEX
  8
Traces
 10
52.1686207021576
 20
22.7677288153351
 42
0.0
  0
VERTEX
  8
Traces
 10
52.1454750245265
 20
11.2643270326958
 42
0.1570838979679
  0
VERTEX
  8
Traces
 10
51.5148062845836
 20
10.6935654546211
 42
0.0275041146524
  0
VERTEX
  8
Traces
 10
51.4459346135204
 20
10.557512286738
 42
0.2070068688165
  0
VERTEX
  8
Traces
 10
51.4400284434408
 20
9.4561420423059
 42
0.3005680145529
  0
VERTEX
  8
Traces
 10
52.7160968903619
 20
8.6128690907579
 42
0.3005680145529
  0
VERTEX
  8
Traces
 10
53.992165337283
 20
9.4561420423059
 42
0.207110281557
  0
VERTEX
  8
Traces
 10
53.986037932565
 20
10.5580160469941
 42
0.0274048785396
  0
VERTEX
  8
Traces
 10
53.9173874961401
 20
10.6935654546211
 42
0.1578245766725
  0
SEQEND
  0
POLYLINE
  8
Traces
 66
     1
 10
0.0
 20
0.0
 30
0.0
 70
     1
  0
VERTEX
  8
Traces
 10
56.4958459161981
 20
10.5384088404416
 42
0.0
  0
VERTEX
  8
Traces
 10
55.7792798619795
 20
10.5382667290966
 42
0.0
  0
VERTEX
  8
Traces
 10
55.7922268968669
 20
14.2100849300385
 42
0.4476372294953
  0
VERTEX
  8
Traces
 10
56.320850184363
 20
15.815056495273
 42
0.0979884709324
  0
VERTEX
  8
Traces
 10
56.0312037509877
 20
16.1459994661147
 42
0.3758047676584
  0
VERTEX
  8
Traces
 10
56.320850184363
 20
17.6097702586082
 42
0.1570700666803
  0
VERTEX
  8
Traces
 10
55.8058578654689
 20
18.0758687982911
 42
0.0
  0
VERTEX
  8
Traces
 10
55.7965223094564
 20
19.8265214831957
 42
0.1628709679448
  0
VERTEX
  8
Traces
 10
56.5232410892025
 20
19.5833480510226
 42
0.5773502691896
  0
VERTEX
  8
Traces
 10
57.5689483596708
 20
21.394566173318
 42
0.4467336106956
  0
VERTEX
  8
Traces
 10
55.808606964051
 20
21.7641217157357
 42
0.0
  0
VERTEX
  8
Traces
 10
55.808606964051
 20
22.7895677332902
 42
0.4338189837867
  0
VERTEX
  8
Traces
 10
56.2896646357152
 20
24.3724947397072
 42
0.5773502691896
  0
VERTEX
  8
Traces
 10
54.3275492923867
 20
24.3724947397072
 42
0.4338189837867
  0
VERTEX
  8
Traces
 10
54.808606964051
 20
22.7895677332902
 42
0.0
  0
VERTEX
  8
Traces
 10
54.7994509496587
 20
18.0390118448091
 42
0.5423749697365
  0
VERTEX
  8
Traces
 10
54.6483812744099
 20
16.1459994661147
 42
0.0979884709324
  0
VERTEX
  8
Traces
 10
54.3587348410345
 20
15.815056495273
 42
0.4180106509942
  0
VERTEX
  8
Traces
 10
54.7861271223553
 20
14.2603341765884
 42
0.0
  0
VERTEX
  8
Traces
 10
54.7696074450975
 20
9.5753038081162
 42
0.0
  0
VERTEX
  8
Traces
 10
54.7696074450975
 20
9.4757457420746
 42
0.0
  0
VERTEX
  8
Traces
 10
56.4897165495607
 20
9.4757457420746
 42
0.3005680145529
  0
VERTEX
  8
Traces
 10
57.7197883123037
 20
8.6628690907579
 42
0.5773502691896
  0
VERTEX
  8
Traces
 10
58.8777776478927
 20
10.6685654546211
 42
0.5773502691896
  0
VERTEX
  8
Traces
 10
56.5617989767147
 20
10.6685654546211
 42
0.0273012863643
  0
SEQEND
  0
POLYLINE
  8
Traces
 66
     1
 10
0.0
 20
0.0
 30
0.0
 70
     1
  0
VERTEX
  8
Traces
 10
56.4636375602975
 20
10.5884024537754
 42
0.0
  0
VERTEX
  8
Traces
 10
55.8294565106738
 20
10.5882766812505
 42
0.0
  0
VERTEX
  8
Traces
 10
55.8421132841887
 20
14.1777758802289
 42
0.439332221007
  0
VERTEX
  8
Traces
 10
56.3641514545522
 20
15.840056495273
 42
0.084612457188
  0
VERTEX
  8
Traces
 10
56.1103976532198
 20
16.1459994661147
 42
0.3607402957315
  0
VERTEX
  8
Traces
 10
56.3641514545522
 20
17.6347702586082
 42
0.1500809231298
  0
VERTEX
  8
Traces
 10
55.8556885685564
 20
18.107749562353
 42
0.0
  0
VERTEX
  8
Traces
 10
55.8470343222856
 20
19.730639452312
 42
0.1429019420792
  0
VERTEX
  8
Traces
 10
56.5232410892025
 20
19.5333480510226
 42
0.5773502691896
  0
VERTEX
  8
Traces
 10
57.61224962986
 20
21.419566173318
 42
0.423997024741
  0
VERTEX
  8
Traces
 10
55.858606964051
 20
21.8583071418259
 42
0.0
  0
VERTEX
  8
Traces
 10
55.858606964051
 20
22.7589028804535
 42
0.4259720434809
  0
VERTEX
  8
Traces
 10
56.3329659059044
 20
24.3974947397072
 42
0.5773502691896
  0
VERTEX
  8
Traces
 10
54.2842480221975
 20
24.3974947397072
 42
0.4259553639108
  0
VERTEX
  8
Traces
 10
54.7585478289484
 20
22.7589339415901
 42
0.0
  0
VERTEX
  8
Traces
 10
54.7495074330805
 20
18.0683661918587
 42
0.5172927256404
  0
VERTEX
  8
Traces
 10
54.5691873721778
 20
16.1459994661147
 42
0.084612457188
  0
VERTEX
  8
Traces
 10
54.3154335708453
 20
15.840056495273
 42
0.410673330016
  0
VERTEX
  8
Traces
 10
54.7360251967005
 20
14.2315159041335
 42
0.0
  0
VERTEX
  8
Traces
 10
54.7196077559213
 20
9.5754801097969
 42
0.0008815104586
  0
VERTEX
  8
Traces
 10
54.7196074450975
 20
9.5753038081162
 42
0.0
  0
VERTEX
  8
Traces
 10
54.7196074450975
 20
9.4757457420746
 42
0.4142135623731
  0
VERTEX
  8
Traces
 10
54.7696074450975
 20
9.4257457420746
 42
0.0
  0
VERTEX
  8
Traces
 10
56.4571069563673
 20
9.4257457420746
 42
0.2940526766346
  0
VERTEX
  8
Traces
 10
57.7197883123037
 20
8.6128690907579
 42
0.5773502691896
  0
VERTEX
  8
Traces
 10
58.9210789180819
 20
10.6935654546211
 42
0.5773502691896
  0
VERTEX
  8
Traces
 10
56.5184977065255
 20
10.6935654546211
 42
0.0213870614416
  0
SEQEND
  0
POLYLINE
  8
Traces
 66
     1
 10
0.0
 20
0.0
 30
0.0
 70
     1
  0
VERTEX
  8
Traces
 10
68.4127827616189
 20
19.5451930079193
 42
0.4259720434809
  0
VERTEX
  8
Traces
 10
68.8871417034723
 20
21.183784867173
 42
0.5773502691896
  0
VERTEX
  8
Traces
 10
66.8384238197654
 20
21.1837848671731
 42
0.4259720434809
  0
VERTEX
  8
Traces
 10
67.3127827616188
 20
19.5451930079193
 42
0.0
  0
VERTEX
  8
Traces
 10
67.3127827616189
 20
18.0838959031502
 42
0.1328209002633
  0
VERTEX
  8
Traces
 10
66.8673304524563
 20
17.6404850005861
 42
0.5773502691896
  0
VERTEX
  8
Traces
 10
67.9099360769709
 20
15.8346390866697
 42
0.5773502691896
  0
VERTEX
  8
Traces
 10
68.9525417014855
 20
17.6404850005861
 42
0.155307043791
  0
VERTEX
  8
Traces
 10
68.4127827616188
 20
18.1323891236218
 42
0.0
  0
SEQEND
  0
POLYLINE
  8
Traces
 66
     1
 10
0.0
 20
0.0
 30
0.0
 70
     1
  0
VERTEX
  8
Traces
 10
68.3627827616189
 20
19.575857860756
 42
0.4338189837867
  0
VERTEX
  8
Traces
 10
68.8438404332831
 20
21.158784867173
 42
0.5773502691896
  0
VERTEX
  8
Traces
 10
66.8817250899546
 20
21.1587848671731
 42
0.4338189837867
  0
VERTEX
  8
Traces
 10
67.3627827616188
 20
19.575857860756
 42
0.0
  0
VERTEX
  8
Traces
 10
67.3627827616189
 20
18.0544606574957
 42
0.1391800842106
  0
VERTEX
  8
Traces
 10
66.9106317226455
 20
17.6154850005861
 42
0.5773502691896
  0
VERTEX
  8
Traces
 10
67.9099360769709
 20
15.8846390866697
 42
0.5773502691896
  0
VERTEX
  8
Traces
 10
68.9092404312963
 20
17.6154850005861
 42
0.1623810503142
  0
VERTEX
  8
Traces
 10
68.3627827616188
 20
18.099860443013
 42
0.0
  0
SEQEND
  0
POLYLINE
  8
Traces
 66
     1
 10
0.0
 20
0.0
 30
0.0
 70
     1
  0
VERTEX
  8
Traces
 10
71.0909783793933
 20
14.2257623711626
 42
0.4376574541279
  0
VERTEX
  8
Traces
 10
71.5851942463823
 20
15.815056495273
 42
0.0979884709324
  0
VERTEX
  8
Traces
 10
71.295547813007
 20
16.1459994661147
 42
0.3758047676584
  0
VERTEX
  8
Traces
 10
71.5851942463823
 20
17.6097702586082
 42
0.1485966964364
  0
VERTEX
  8
Traces
 10
71.1041365747181
 20
18.0598694433735
 42
0.0
  0
VERTEX
  8
Traces
 10
71.1041365747181
 20
22.7562413702891
 42
0.4331397201343
  0
VERTEX
  8
Traces
 10
71.5828705193098
 20
24.338022085146
 42
0.5773502691896
  0
VERTEX
  8
Traces
 10
69.6207551759813
 20
24.338022085146
 42
0.4344978206049
  0
VERTEX
  8
Traces
 10
70.1041365747181
 20
22.7539553843798
 42
0.0
  0
VERTEX
  8
Traces
 10
70.1041365747181
 20
18.0598694433735
 42
0.1485966964364
  0
VERTEX
  8
Traces
 10
69.6230789030538
 20
17.6097702586082
 42
0.3758047676584
  0
VERTEX
  8
Traces
 10
69.9127253364292
 20
16.1459994661147
 42
0.0979884709324
  0
VERTEX
  8
Traces
 10
69.6230789030538
 20
15.815056495273
 42
0.429966823922
  0
VERTEX
  8
Traces
 10
70.0909783793933
 20
14.2387081607941
 42
0.0
  0
VERTEX
  8
Traces
 10
70.0909783793933
 20
12.2387081607941
 42
0.0
  0
VERTEX
  8
Traces
 10
70.0909783793933
 20
10.5370394481759
 42
0.0
  0
VERTEX
  8
Traces
 10
69.4370062148416
 20
10.5369097506228
 42
0.0276076357915
  0
VERTEX
  8
Traces
 10
69.370394804009
 20
10.6685654546211
 42
0.5773502691896
  0
VERTEX
  8
Traces
 10
67.0544161328309
 20
10.6685654546211
 42
0.5773502691896
  0
VERTEX
  8
Traces
 10
68.21240546842
 20
8.6628690907579
 42
0.3005680145529
  0
VERTEX
  8
Traces
 10
69.4424772311629
 20
9.4757457420746
 42
0.0
  0
VERTEX
  8
Traces
 10
70.0909783793933
 20
9.4757457420746
 42
0.0
  0
VERTEX
  8
Traces
 10
71.0909783793933
 20
9.4757457420747
 42
0.0
  0
VERTEX
  8
Traces
 10
71.0909783793933
 20
10.5372377709183
 42
0.0
  0
VERTEX
  8
Traces
 10
71.0909783793933
 20
12.2387081607941
 42
0.0
  0
SEQEND
  0
POLYLINE
  8
Traces
 66
     1
 10
0.0
 20
0.0
 30
0.0
 70
     1
  0
VERTEX
  8
Traces
 10
71.1409783793933
 20
14.1946584610246
 42
0.4296762766008
  0
VERTEX
  8
Traces
 10
71.6284955165715
 20
15.840056495273
 42
0.084612457188
  0
VERTEX
  8
Traces
 10
71.3747417152391
 20
16.1459994661147
 42
0.3607402957315
  0
VERTEX
  8
Traces
 10
71.6284955165715
 20
17.6347702586082
 42
0.1418340711442
  0
VERTEX
  8
Traces
 10
71.1541365747181
 20
18.0905342962102
 42
0.0
  0
VERTEX
  8
Traces
 10
71.1541365747181
 20
22.7256539897661
 42
0.4253163938588
  0
VERTEX
  8
Traces
 10
71.6261717894991
 20
24.363022085146
 42
0.5773502691896
  0
VERTEX
  8
Traces
 10
69.5774539057921
 20
24.363022085146
 42
0.4266272389833
  0
VERTEX
  8
Traces
 10
70.0541365747181
 20
22.7232130409159
 42
0.0
  0
VERTEX
  8
Traces
 10
70.0541365747181
 20
18.0905342962102
 42
0.1418340711442
  0
VERTEX
  8
Traces
 10
69.5797776328646
 20
17.6347702586082
 42
0.3607402957315
  0
VERTEX
  8
Traces
 10
69.8335314341971
 20
16.1459994661147
 42
0.084612457188
  0
VERTEX
  8
Traces
 10
69.5797776328646
 20
15.840056495273
 42
0.4222532459536
  0
VERTEX
  8
Traces
 10
70.0409783793933
 20
14.2084817782676
 42
0.0
  0
VERTEX
  8
Traces
 10
70.0409783793933
 20
12.2387081607941
 42
0.0
  0
VERTEX
  8
Traces
 10
70.0409783793933
 20
10.5870295330221
 42
0.0
  0
VERTEX
  8
Traces
 10
69.4692513604415
 20
10.5869161465518
 42
0.0216829226296
  0
VERTEX
  8
Traces
 10
69.4136960741983
 20
10.6935654546211
 42
0.5773502691896
  0
VERTEX
  8
Traces
 10
67.0111148626417
 20
10.6935654546211
 42
0.5773502691896
  0
VERTEX
  8
Traces
 10
68.21240546842
 20
8.6128690907579
 42
0.2940526766346
  0
VERTEX
  8
Traces
 10
69.4750868243563
 20
9.4257457420746
 42
0.0
  0
VERTEX
  8
Traces
 10
70.0909783793933
 20
9.4257457420746
 42
0.0
  0
VERTEX
  8
Traces
 10
71.0909783793933
 20
9.4257457420747
 42
0.4142135623731
  0
VERTEX
  8
Traces
 10
71.1409783793933
 20
9.4757457420747
 42
0.0
  0
VERTEX
  8
Traces
 10
71.1409783793933
 20
10.5372377709183
 42
0.0
  0
VERTEX
  8
Traces
 10
71.1409783793933
 20
12.2387081607941
 42
0.0
  0
SEQEND
  0
POLYLINE
  8
Traces
 66
     1
 10
0.0
 20
0.0
 30
0.0
 70
     1
  0
VERTEX
  8
Traces
 10
73.783061155979
 20
11.2659714376273
 42
0.0
  0
VERTEX
  8
Traces
 10
73.783061155979
 20
22.7578304260967
 42
0.4265490413231
  0
VERTEX
  8
Traces
 10
74.2594664037772
 20
24.397494500216
 42
0.5773502691896
  0
VERTEX
  8
Traces
 10
72.2107485200702
 20
24.397494500216
 42
0.4213100926393
  0
VERTEX
  8
Traces
 10
72.6686207021576
 20
22.7677288153351
 42
0.0
  0
VERTEX
  8
Traces
 10
72.6454750245265
 20
11.2643270326958
 42
0.1570838979679
  0
VERTEX
  8
Traces
 10
72.0148062845836
 20
10.6935654546211
 42
0.0275041146524
  0
VERTEX
  8
Traces
 10
71.9459346135204
 20
10.557512286738
 42
0.2070068688165
  0
VERTEX
  8
Traces
 10
71.9400284434408
 20
9.4561420423059
 42
0.3005680145529
  0
VERTEX
  8
Traces
 10
73.2160968903619
 20
8.6128690907579
 42
0.3005680145529
  0
VERTEX
  8
Traces
 10
74.492165337283
 20
9.4561420423059
 42
0.207110281557
  0
VERTEX
  8
Traces
 10
74.486037932565
 20
10.5580160469941
 42
0.0274048785396
  0
VERTEX
  8
Traces
 10
74.4173874961401
 20
10.6935654546211
 42
0.1578245766725
  0
SEQEND
  0
POLYLINE
  8
Traces
 66
     1
 10
0.0
 20
0.0
 30
0.0
 70
     1
  0
VERTEX
  8
Traces
 10
76.9958459161981
 20
10.5384088404416
 42
0.0
  0
VERTEX
  8
Traces
 10
76.2792798619795
 20
10.5382667290966
 42
0.0
  0
VERTEX
  8
Traces
 10
76.2922268968669
 20
14.2100849300385
 42
0.4476372294953
  0
VERTEX
  8
Traces
 10
76.820850184363
 20
15.815056495273
 42
0.0979884709324
  0
VERTEX
  8
Traces
 10
76.5312037509877
 20
16.1459994661147
 42
0.3758047676584
  0
VERTEX
  8
Traces
 10
76.820850184363
 20
17.6097702586082
 42
0.1570700666803
  0
VERTEX
  8
Traces
 10
76.3058578654689
 20
18.0758687982911
 42
0.0
  0
VERTEX
  8
Traces
 10
76.2965223094564
 20
19.8265214831957
 42
0.1628709679448
  0
VERTEX
  8
Traces
 10
77.0232410892025
 20
19.5833480510226
 42
0.5773502691896
  0
VERTEX
  8
Traces
 10
78.0689483596708
 20
21.394566173318
 42
0.4467336106956
  0
VERTEX
  8
Traces
 10
76.308606964051
 20
21.7641217157357
 42
0.0
  0
VERTEX
  8
Traces
 10
76.308606964051
 20
22.7895677332902
 42
0.4338189837867
  0
VERTEX
  8
Traces
 10
76.7896646357152
 20
24.3724947397072
 42
0.5773502691896
  0
VERTEX
  8
Traces
 10
74.8275492923867
 20
24.3724947397072
 42
0.4338189837867
  0
VERTEX
  8
Traces
 10
75.308606964051
 20
22.7895677332902
 42
0.0
  0
VERTEX
  8
Traces
 10
75.2994509496587
 20
18.0390118448091
 42
0.5423749697365
  0
VERTEX
  8
Traces
 10
75.1483812744099
 20
16.1459994661147
 42
0.0979884709324
  0
VERTEX
  8
Traces
 10
74.8587348410345
 20
15.815056495273
 42
0.4180106509942
  0
VERTEX
  8
Traces
 10
75.2861271223553
 20
14.2603341765884
 42
0.0
  0
VERTEX
  8
Traces
 10
75.2696074450975
 20
9.5753038081162
 42
0.0
  0
VERTEX
  8
Traces
 10
75.2696074450975
 20
9.4757457420746
 42
0.0
  0
VERTEX
  8
Traces
 10
76.9897165495607
 20
9.4757457420746
 42
0.3005680145529
  0
VERTEX
  8
Traces
 10
78.2197883123037
 20
8.6628690907579
 42
0.5773502691896
  0
VERTEX
  8
Traces
 10
79.3777776478927
 20
10.6685654546211
 42
0.5773502691896
  0
VERTEX
  8
Traces
 10
77.0617989767147
 20
10.6685654546211
 42
0.0273012863643
  0
SEQEND
  0
POLYLINE
  8
Traces
 66
     1
 10
0.0
 20
0.0
 30
0.0
 70
     1
  0
VERTEX
  8
Traces
 10
76.9636375602975
 20
10.5884024537754
 42
0.0
  0
VERTEX
  8
Traces
 10
76.3294565106738
 20
10.5882766812505
 42
0.0
  0
VERTEX
  8
Traces
 10
76.3421132841887
 20
14.1777758802289
 42
0.439332221007
  0
VERTEX
  8
Traces
 10
76.8641514545522
 20
15.840056495273
 42
0.084612457188
  0
VERTEX
  8
Traces
 10
76.6103976532198
 20
16.1459994661147
 42
0.3607402957315
  0
VERTEX
  8
Traces
 10
76.8641514545522
 20
17.6347702586082
 42
0.1500809231298
  0
VERTEX
  8
Traces
 10
76.3556885685564
 20
18.107749562353
 42
0.0
  0
VERTEX
  8
Traces
 10
76.3470343222856
 20
19.730639452312
 42
0.1429019420792
  0
VERTEX
  8
Traces
 10
77.0232410892025
 20
19.5333480510226
 42
0.5773502691896
  0
VERTEX
  8
Traces
 10
78.11224962986
 20
21.419566173318
 42
0.423997024741
  0
VERTEX
  8
Traces
 10
76.358606964051
 20
21.8583071418259
 42
0.0
  0
VERTEX
  8
Traces
 10
76.358606964051
 20
22.7589028804535
 42
0.4259720434809
  0
VERTEX
  8
Traces
 10
76.8329659059044
 20
24.3974947397072
 42
0.5773502691896
  0
VERTEX
  8
Traces
 10
74.7842480221975
 20
24.3974947397072
 42
0.4259553639108
  0
VERTEX
  8
Traces
 10
75.2585478289484
 20
22.7589339415901
 42
0.0
  0
VERTEX
  8
Traces
 10
75.2495074330805
 20
18.0683661918587
 42
0.5172927256404
  0
VERTEX
  8
Traces
 10
75.0691873721778
 20
16.1459994661147
 42
0.084612457188
  0
VERTEX
  8
Traces
 10
74.8154335708453
 20
15.840056495273
 42
0.410673330016
  0
VERTEX
  8
Traces
 10
75.2360251967006
 20
14.2315159041335
 42
0.0
  0
VERTEX
  8
Traces
 10
75.2196077559213
 20
9.5754801097969
 42
0.0008815104586
  0
VERTEX
  8
Traces
 10
75.2196074450975
 20
9.5753038081162
 42
0.0
  0
VERTEX
  8
Traces
 10
75.2196074450975
 20
9.4757457420746
 42
0.4142135623731
  0
VERTEX
  8
Traces
 10
75.2696074450975
 20
9.4257457420746
 42
0.0
  0
VERTEX
  8
Traces
 10
76.9571069563673
 20
9.4257457420746
 42
0.2940526766346
  0
VERTEX
  8
Traces
 10
78.2197883123037
 20
8.6128690907579
 42
0.5773502691896
  0
VERTEX
  8
Traces
 10
79.4210789180819
 20
10.6935654546211
 42
0.5773502691896
  0
VERTEX
  8
Traces
 10
77.0184977065255
 20
10.6935654546211
 42
0.0213870614416
  0
SEQEND
  0
POLYLINE
  8
Traces
 66
     1
 10
0.0
 20
0.0
 30
0.0
 70
     1
  0
VERTEX
  8
Traces
 10
88.9127827616189
 20
19.5451930079193
 42
0.4259720434809
  0
VERTEX
  8
Traces
 10
89.3871417034723
 20
21.183784867173
 42
0.5773502691896
  0
VERTEX
  8
Traces
 10
87.3384238197654
 20
21.1837848671731
 42
0.4259720434809
  0
VERTEX
  8
Traces
 10
87.8127827616188
 20
19.5451930079193
 42
0.0
  0
VERTEX
  8
Traces
 10
87.8127827616189
 20
18.0838959031502
 42
0.1328209002633
  0
VERTEX
  8
Traces
 10
87.3673304524563
 20
17.6404850005861
 42
0.5773502691896
  0
VERTEX
  8
Traces
 10
88.4099360769709
 20
15.8346390866697
 42
0.5773502691896
  0
VERTEX
  8
Traces
 10
89.4525417014855
 20
17.6404850005861
 42
0.155307043791
  0
VERTEX
  8
Traces
 10
88.9127827616188
 20
18.1323891236218
 42
0.0
  0
SEQEND
  0
POLYLINE
  8
Traces
 66
     1
 10
0.0
 20
0.0
 30
0.0
 70
     1
  0
VERTEX
  8
Traces
 10
88.8627827616189
 20
19.575857860756
 42
0.4338189837867
  0
VERTEX
  8
Traces
 10
89.3438404332831
 20
21.158784867173
 42
0.5773502691896
  0
VERTEX
  8
Traces
 10
87.3817250899546
 20
21.1587848671731
 42
0.4338189837867
  0
VERTEX
  8
Traces
 10
87.8627827616188
 20
19.575857860756
 42
0.0
  0
VERTEX
  8
Traces
 10
87.8627827616189
 20
18.0544606574957
 42
0.1391800842106
  0
VERTEX
  8
Traces
 10
87.4106317226455
 20
17.6154850005861
 42
0.5773502691896
  0
VERTEX
  8
Traces
 10
88.4099360769709
 20
15.8846390866697
 42
0.5773502691896
  0
VERTEX
  8
Traces
 10
89.4092404312963
 20
17.6154850005861
 42
0.1623810503142
  0
VERTEX
  8
Traces
 10
88.8627827616188
 20
18.099860443013
 42
0.0
  0
SEQEND
  0
POLYLINE
  8
Traces
 66
     1
 10
0.0
 20
0.0
 30
0.0
 70
     1
  0
VERTEX
  8
Traces
 10
91.5909783793933
 20
14.2257623711626
 42
0.4376574541279
  0
VERTEX
  8
Traces
 10
92.0851942463823
 20
15.815056495273
 42
0.0979884709324
  0
VERTEX
  8
Traces
 10
91.795547813007
 20
16.1459994661147
 42
0.3758047676584
  0
VERTEX
  8
Traces
 10
92.0851942463823
 20
17.6097702586082
 42
0.1485966964364
  0
VERTEX
  8
Traces
 10
91.6041365747181
 20
18.0598694433735
 42
0.0
  0
VERTEX
  8
Traces
 10
91.6041365747181
 20
22.7562413702891
 42
0.4331397201343
  0
VERTEX
  8
Traces
 10
92.0828705193098
 20
24.338022085146
 42
0.5773502691896
  0
VERTEX
  8
Traces
 10
90.1207551759813
 20
24.338022085146
 42
0.4344978206049
  0
VERTEX
  8
Traces
 10
90.6041365747181
 20
22.7539553843798
 42
0.0
  0
VERTEX
  8
Traces
 10
90.6041365747181
 20
18.0598694433735
 42
0.1485966964364
  0
VERTEX
  8
Traces
 10
90.1230789030538
 20
17.6097702586082
 42
0.3758047676584
  0
VERTEX
  8
Traces
 10
90.4127253364292
 20
16.1459994661147
 42
0.0979884709324
  0
VERTEX
  8
Traces
 10
90.1230789030538
 20
15.815056495273
 42
0.429966823922
  0
VERTEX
  8
Traces
 10
90.5909783793933
 20
14.2387081607941
 42
0.0
  0
VERTEX
  8
Traces
 10
90.5909783793933
 20
12.2387081607941
 42
0.0
  0
VERTEX
  8
Traces
 10
90.5909783793933
 20
10.5370394481759
 42
0.0
  0
VERTEX
  8
Traces
 10
89.9370062148416
 20
10.5369097506228
 42
0.0276076357915
  0
VERTEX
  8
Traces
 10
89.870394804009
 20
10.6685654546211
 42
0.5773502691896
  0
VERTEX
  8
Traces
 10
87.5544161328309
 20
10.6685654546211
 42
0.5773502691896
  0
VERTEX
  8
Traces
 10
88.71240546842
 20
8.6628690907579
 42
0.3005680145529
  0
VERTEX
  8
Traces
 10
89.9424772311629
 20
9.4757457420746
 42
0.0
  0
VERTEX
  8
Traces
 10
90.5909783793933
 20
9.4757457420746
 42
0.0
  0
VERTEX
  8
Traces
 10
91.5909783793933
 20
9.4757457420747
 42
0.0
  0
VERTEX
  8
Traces
 10
91.5909783793933
 20
10.5372377709183
 42
0.0
  0
VERTEX
  8
Traces
 10
91.5909783793933
 20
12.2387081607941
 42
0.0
  0
SEQEND
  0
POLYLINE
  8
Traces
 66
     1
 10
0.0
 20
0.0
 30
0.0
 70
     1
  0
VERTEX
  8
Traces
 10
91.6409783793933
 20
14.1946584610246
 42
0.4296762766008
  0
VERTEX
  8
Traces
 10
92.1284955165715
 20
15.840056495273
 42
0.084612457188
  0
VERTEX
  8
Traces
 10
91.8747417152391
 20
16.1459994661147
 42
0.3607402957315
  0
VERTEX
  8
Traces
 10
92.1284955165715
 20
17.6347702586082
 42
0.1418340711442
  0
VERTEX
  8
Traces
 10
91.6541365747181
 20
18.0905342962102
 42
0.0
  0
VERTEX
  8
Traces
 10
91.6541365747181
 20
22.7256539897661
 42
0.4253163938588
  0
VERTEX
  8
Traces
 10
92.1261717894991
 20
24.363022085146
 42
0.5773502691896
  0
VERTEX
  8
Traces
 10
90.0774539057921
 20
24.363022085146
 42
0.4266272389833
  0
VERTEX
  8
Traces
 10
90.5541365747181
 20
22.7232130409159
 42
0.0
  0
VERTEX
  8
Traces
 10
90.5541365747181
 20
18.0905342962102
 42
0.1418340711442
  0
VERTEX
  8
Traces
 10
90.0797776328646
 20
17.6347702586082
 42
0.3607402957315
  0
VERTEX
  8
Traces
 10
90.3335314341971
 20
16.1459994661147
 42
0.084612457188
  0
VERTEX
  8
Traces
 10
90.0797776328646
 20
15.840056495273
 42
0.4222532459536
  0
VERTEX
  8
Traces
 10
90.5409783793933
 20
14.2084817782676
 42
0.0
  0
VERTEX
  8
Traces
 10
90.5409783793933
 20
12.2387081607941
 42
0.0
  0
VERTEX
  8
Traces
 10
90.5409783793933
 20
10.5870295330221
 42
0.0
  0
VERTEX
  8
Traces
 10
89.9692513604415
 20
10.5869161465518
 42
0.0216829226296
  0
VERTEX
  8
Traces
 10
89.9136960741983
 20
10.6935654546211
 42
0.5773502691896
  0
VERTEX
  8
Traces
 10
87.5111148626417
 20
10.6935654546211
 42
0.5773502691896
  0
VERTEX
  8
Traces
 10
88.71240546842
 20
8.6128690907579
 42
0.2940526766346
  0
VERTEX
  8
Traces
 10
89.9750868243563
 20
9.4257457420746
 42
0.0
  0
VERTEX
  8
Traces
 10
90.5909783793933
 20
9.4257457420746
 42
0.0
  0
VERTEX
  8
Traces
 10
91.5909783793933
 20
9.4257457420747
 42
0.4142135623731
  0
VERTEX
  8
Traces
 10
91.6409783793933
 20
9.4757457420747
 42
0.0
  0
VERTEX
  8
Traces
 10
91.6409783793933
 20
10.5372377709183
 42
0.0
  0
VERTEX
  8
Traces
 10
91.6409783793933
 20
12.2387081607941
 42
0.0
  0
SEQEND
  0
POLYLINE
  8
Traces
 66
     1
 10
0.0
 20
0.0
 30
0.0
 70
     1
  0
VERTEX
  8
Traces
 10
94.233061155979
 20
11.2331532818452
 42
0.0
  0
VERTEX
  8
Traces
 10
94.233061155979
 20
22.7885635172557
 42
0.4344167990537
  0
VERTEX
  8
Traces
 10
94.7161651335879
 20
24.372494500216
 42
0.5773502691896
  0
VERTEX
  8
Traces
 10
92.7540497902594
 20
24.372494500216
 42
0.4290078691513
  0
VERTEX
  8
Traces
 10
93.218681335528
 20
22.7978132986957
 42
0.0
  0
VERTEX
  8
Traces
 10
93.195409247895
 20
11.2315857450591
 42
0.1632295123177
  0
VERTEX
  8
Traces
 10
92.5581075547728
 20
10.6685654546211
 42
0.0275041146524
  0
VERTEX
  8
Traces
 10
92.4917184061091
 20
10.5374164081506
 42
0.2070068688165
  0
VERTEX
  8
Traces
 10
92.4860251276189
 20
9.4757457420746
 42
0.3005680145529
  0
VERTEX
  8
Traces
 10
93.7160968903619
 20
8.6628690907579
 42
0.3005680145529
  0
VERTEX
  8
Traces
 10
94.9461686531049
 20
9.4757457420746
 42
0.207110281557
  0
VERTEX
  8
Traces
 10
94.940262114517
 20
10.5379020100537
 42
0.0274048785396
  0
VERTEX
  8
Traces
 10
94.8740862259509
 20
10.6685654546211
 42
0.1640050612015
  0
SEQEND
  0
POLYLINE
  8
Traces
 66
     1
 10
0.0
 20
0.0
 30
0.0
 70
     1
  0
VERTEX
  8
Traces
 10
94.283061155979
 20
11.2659714376273
 42
0.0
  0
VERTEX
  8
Traces
 10
94.283061155979
 20
22.7578304260967
 42
0.4265490413231
  0
VERTEX
  8
Traces
 10
94.7594664037772
 20
24.397494500216
 42
0.5773502691896
  0
VERTEX
  8
Traces
 10
92.7107485200702
 20
24.397494500216
 42
0.4213100926393
  0
VERTEX
  8
Traces
 10
93.1686207021576
 20
22.7677288153351
 42
0.0
  0
VERTEX
  8
Traces
 10
93.1454750245265
 20
11.2643270326958
 42
0.1570838979679
  0
VERTEX
  8
Traces
 10
92.5148062845836
 20
10.6935654546211
 42
0.0275041146524
  0
VERTEX
  8
Traces
 10
92.4459346135204
 20
10.557512286738
 42
0.2070068688165
  0
VERTEX
  8
Traces
 10
92.4400284434408
 20
9.4561420423059
 42
0.3005680145529
  0
VERTEX
  8
Traces
 10
93.7160968903619
 20
8.6128690907579
 42
0.3005680145529
  0
VERTEX
  8
Traces
 10
94.992165337283
 20
9.4561420423059
 42
0.207110281557
  0
VERTEX
  8
Traces
 10
94.986037932565
 20
10.5580160469941
 42
0.0274048785396
  0
VERTEX
  8
Traces
 10
94.9173874961401
 20
10.6935654546211
 42
0.1578245766725
  0
SEQEND
  0
POLYLINE
  8
Traces
 66
     1
 10
0.0
 20
0.0
 30
0.0
 70
     1
  0
VERTEX
  8
Traces
 10
97.4958459161981
 20
10.5384088404416
 42
0.0
  0
VERTEX
  8
Traces
 10
96.7792798619795
 20
10.5382667290966
 42
0.0
  0
VERTEX
  8
Traces
 10
96.7922268968669
 20
14.2100849300385
 42
0.4476372294953
  0
VERTEX
  8
Traces
 10
97.320850184363
 20
15.815056495273
 42
0.0979884709324
  0
VERTEX
  8
Traces
 10
97.0312037509877
 20
16.1459994661147
 42
0.3758047676584
  0
VERTEX
  8
Traces
 10
97.320850184363
 20
17.6097702586082
 42
0.1570700666803
  0
VERTEX
  8
Traces
 10
96.8058578654689
 20
18.0758687982911
 42
0.0
  0
VERTEX
  8
Traces
 10
96.7965223094564
 20
19.8265214831957
 42
0.1628709679448
  0
VERTEX
  8
Traces
 10
97.5232410892025
 20
19.5833480510226
 42
0.5773502691896
  0
VERTEX
  8
Traces
 10
98.5689483596708
 20
21.394566173318
 42
0.4467336106956
  0
VERTEX
  8
Traces
 10
96.808606964051
 20
21.7641217157357
 42
0.0
  0
VERTEX
  8
Traces
 10
96.808606964051
 20
22.7895677332902
 42
0.4338189837867
  0
VERTEX
  8
Traces
 10
97.2896646357152
 20
24.3724947397072
 42
0.5773502691896
  0
VERTEX
  8
Traces
 10
95.3275492923867
 20
24.3724947397072
 42
0.4338189837867
  0
VERTEX
  8
Traces
 10
95.808606964051
 20
22.7895677332902
 42
0.0
  0
VERTEX
  8
Traces
 10
95.7994509496587
 20
18.0390118448091
 42
0.5423749697365
  0
VERTEX
  8
Traces
 10
95.6483812744099
 20
16.1459994661147
 42
0.0979884709324
  0
VERTEX
  8
Traces
 10
95.3587348410345
 20
15.815056495273
 42
0.4180106509942
  0
VERTEX
  8
Traces
 10
95.7861271223553
 20
14.2603341765884
 42
0.0
  0
VERTEX
  8
Traces
 10
95.7696074450975
 20
9.5753038081162
 42
0.0
  0
VERTEX
  8
Traces
 10
95.7696074450975
 20
9.4757457420746
 42
0.0
  0
VERTEX
  8
Traces
 10
97.4897165495607
 20
9.4757457420746
 42
0.3005680145529
  0
VERTEX
  8
Traces
 10
98.7197883123037
 20
8.6628690907579
 42
0.5773502691896
  0
VERTEX
  8
Traces
 10
99.8777776478927
 20
10.6685654546211
 42
0.5773502691896
  0
VERTEX
  8
Traces
 10
97.5617989767147
 20
10.6685654546211
 42
0.0273012863643
  0
SEQEND
  0
POLYLINE
  8
Traces
 66
     1
 10
0.0
 20
0.0
 30
0.0
 70
     1
  0
VERTEX
  8
Traces
 10
97.4636375602975
 20
10.5884024537754
 42
0.0
  0
VERTEX
  8
Traces
 10
96.8294565106738
 20
10.5882766812505
 42
0.0
  0
VERTEX
  8
Traces
 10
96.8421132841887
 20
14.1777758802289
 42
0.439332221007
  0
VERTEX
  8
Traces
 10
97.3641514545522
 20
15.840056495273
 42
0.084612457188
  0
VERTEX
  8
Traces
 10
97.1103976532198
 20
16.1459994661147
 42
0.3607402957315
  0
VERTEX
  8
Traces
 10
97.3641514545522
 20
17.6347702586082
 42
0.1500809231298
  0
VERTEX
  8
Traces
 10
96.8556885685564
 20
18.107749562353
 42
0.0
  0
VERTEX
  8
Traces
 10
96.8470343222856
 20
19.730639452312
 42
0.1429019420792
  0
VERTEX
  8
Traces
 10
97.5232410892025
 20
19.5333480510226
 42
0.5773502691896
  0
VERTEX
  8
Traces
 10
98.61224962986
 20
21.419566173318
 42
0.423997024741
  0
VERTEX
  8
Traces
 10
96.858606964051
 20
21.8583071418259
 42
0.0
  0
VERTEX
  8
Traces
 10
96.858606964051
 20
22.7589028804535
 42
0.4259720434809
  0
VERTEX
  8
Traces
 10
97.3329659059044
 20
24.3974947397072
 42
0.5773502691896
  0
VERTEX
  8
Traces
 10
95.2842480221975
 20
24.3974947397072
 42
0.4259553639108
  0
VERTEX
  8
Traces
 10
95.7585478289484
 20
22.7589339415901
 42
0.0
  0
VERTEX
  8
Traces
 10
95.7495074330805
 20
18.0683661918587
 42
0.5172927256404
  0
VERTEX
  8
Traces
 10
95.5691873721778
 20
16.1459994661147
 42
0.084612457188
  0
VERTEX
  8
Traces
 10
95.3154335708453
 20
15.840056495273
 42
0.410673330016
  0
VERTEX
  8
Traces
 10
95.7360251967006
 20
14.2315159041335
 42
0.0
  0
VERTEX
  8
Traces
 10
95.7196077559213
 20
9.5754801097969
 42
0.0008815104586
  0
VERTEX
  8
Traces
 10
95.7196074450975
 20
9.5753038081162
 42
0.0
  0
VERTEX
  8
Traces
 10
95.7196074450975
 20
9.4757457420746
 42
0.4142135623731
  0
VERTEX
  8
Traces
 10
95.7696074450975
 20
9.4257457420746
 42
0.0
  0
VERTEX
  8
Traces
 10
97.4571069563673
 20
9.4257457420746
 42
0.2940526766346
  0
VERTEX
  8
Traces
 10
98.7197883123037
 20
8.6128690907579
 42
0.5773502691896
  0
VERTEX
  8
Traces
 10
99.9210789180819
 20
10.6935654546211
 42
0.5773502691896
  0
VERTEX
  8
Traces
 10
97.5184977065255
 20
10.6935654546211
 42
0.0213870614416
  0
SEQEND
  0
POLYLINE
  8
Traces
 66
     1
 10
0.0
 20
0.0
 30
0.0
 70
     1
  0
VERTEX
  8
Traces
 10
73.733061155979
 20
11.2331532818452
 42
0.0
  0
VERTEX
  8
Traces
 10
73.733061155979
 20
22.7885635172557
 42
0.4344167990537
  0
VERTEX
  8
Traces
 10
74.2161651335879
 20
24.372494500216
 42
0.5773502691896
  0
VERTEX
  8
Traces
 10
72.2540497902594
 20
24.372494500216
 42
0.4290078691513
  0
VERTEX
  8
Traces
 10
72.718681335528
 20
22.7978132986957
 42
0.0
  0
VERTEX
  8
Traces
 10
72.695409247895
 20
11.2315857450591
 42
0.1632295123177
  0
VERTEX
  8
Traces
 10
72.0581075547728
 20
10.6685654546211
 42
0.0275041146524
  0
VERTEX
  8
Traces
 10
71.9917184061091
 20
10.5374164081506
 42
0.2070068688165
  0
VERTEX
  8
Traces
 10
71.9860251276189
 20
9.4757457420746
 42
0.3005680145529
  0
VERTEX
  8
Traces
 10
73.2160968903619
 20
8.6628690907579
 42
0.3005680145529
  0
VERTEX
  8
Traces
 10
74.4461686531049
 20
9.4757457420746
 42
0.207110281557
  0
VERTEX
  8
Traces
 10
74.440262114517
 20
10.5379020100537
 42
0.0274048785396
  0
VERTEX
  8
Traces
 10
74.3740862259509
 20
10.6685654546211
 42
0.1640050612015
  0
SEQEND
  0
POLYLINE
  8
Holes
 66
     1
 10
0.0
 20
0.0
 30
0.0
 70
     1
  0
VERTEX
  8
Holes
 10
6.4196751191026
 20
16.6659472177641
 42
0.5773502691896
  0
VERTEX
  8
Holes
 10
6.7401045185028
 20
17.2209472177641
 42
0.5773502691896
  0
VERTEX
  8
Holes
 10
6.0992457197023
 20
17.2209472177641
 42
0.5773502691896
  0
SEQEND
  0
POLYLINE
  8
Holes
 66
     1
 10
0.0
 20
0.0
 30
0.0
 70
     1
  0
VERTEX
  8
Holes
 10
6.3755971881629
 20
20.1903916308755
 42
0.5773502691896
  0
VERTEX
  8
Holes
 10
6.6960265875632
 20
20.7453916308755
 42
0.5773502691896
  0
VERTEX
  8
Holes
 10
6.0551677887627
 20
20.7453916308755
 42
0.5773502691896
  0
SEQEND
  0
POLYLINE
  8
Holes
 66
     1
 10
0.0
 20
0.0
 30
0.0
 70
     1
  0
VERTEX
  8
Holes
 10
9.1051819532086
 20
23.3781440240897
 42
0.5773502691896
  0
VERTEX
  8
Holes
 10
9.4256113526088
 20
23.9331440240897
 42
0.5773502691896
  0
VERTEX
  8
Holes
 10
8.7847525538083
 20
23.9331440240897
 42
0.5773502691896
  0
SEQEND
  0
POLYLINE
  8
Holes
 66
     1
 10
0.0
 20
0.0
 30
0.0
 70
     1
  0
VERTEX
  8
Holes
 10
11.7590060032941
 20
23.4146326005403
 42
0.5773502691896
  0
VERTEX
  8
Holes
 10
12.0794354026943
 20
23.9696326005403
 42
0.5773502691896
  0
VERTEX
  8
Holes
 10
11.4385766038938
 20
23.9696326005403
 42
0.5773502691896
  0
SEQEND
  0
POLYLINE
  8
Holes
 66
     1
 10
0.0
 20
0.0
 30
0.0
 70
     1
  0
VERTEX
  8
Holes
 10
14.3135360403863
 20
23.4136057919719
 42
0.5773502691896
  0
VERTEX
  8
Holes
 10
14.6339654397865
 20
23.9686057919719
 42
0.5773502691896
  0
VERTEX
  8
Holes
 10
13.993106640986
 20
23.9686057919719
 42
0.5773502691896
  0
SEQEND
  0
POLYLINE
  8
Holes
 66
     1
 10
0.0
 20
0.0
 30
0.0
 70
     1
  0
VERTEX
  8
Holes
 10
15.5177242344088
 20
20.4173488994872
 42
0.5773502691896
  0
VERTEX
  8
Holes
 10
15.8381536338091
 20
20.9723488994872
 42
0.5773502691896
  0
VERTEX
  8
Holes
 10
15.1972948350086
 20
20.9723488994872
 42
0.5773502691896
  0
SEQEND
  0
POLYLINE
  8
Holes
 66
     1
 10
0.0
 20
0.0
 30
0.0
 70
     1
  0
VERTEX
  8
Holes
 10
14.308606964051
 20
16.6688185685113
 42
0.5773502691896
  0
VERTEX
  8
Holes
 10
14.6290363634512
 20
17.2238185685113
 42
0.5773502691896
  0
VERTEX
  8
Holes
 10
13.9881775646507
 20
17.2238185685113
 42
0.5773502691896
  0
SEQEND
  0
POLYLINE
  8
Holes
 66
     1
 10
0.0
 20
0.0
 30
0.0
 70
     1
  0
VERTEX
  8
Holes
 10
14.308606964051
 20
14.8741048051761
 42
0.5773502691896
  0
VERTEX
  8
Holes
 10
14.6290363634512
 20
15.4291048051761
 42
0.5773502691896
  0
VERTEX
  8
Holes
 10
13.9881775646507
 20
15.4291048051761
 42
0.5773502691896
  0
SEQEND
  0
POLYLINE
  8
Holes
 66
     1
 10
0.0
 20
0.0
 30
0.0
 70
     1
  0
VERTEX
  8
Holes
 10
9.0729510260703
 20
14.8741048051761
 42
0.5773502691896
  0
VERTEX
  8
Holes
 10
9.3933804254705
 20
15.4291048051761
 42
0.5773502691896
  0
VERTEX
  8
Holes
 10
8.75252162667
 20
15.4291048051761
 42
0.5773502691896
  0
SEQEND
  0
POLYLINE
  8
Holes
 66
     1
 10
0.0
 20
0.0
 30
0.0
 70
     1
  0
VERTEX
  8
Holes
 10
9.0729510260703
 20
16.6688185685113
 42
0.5773502691896
  0
VERTEX
  8
Holes
 10
9.3933804254705
 20
17.2238185685113
 42
0.5773502691896
  0
VERTEX
  8
Holes
 10
8.75252162667
 20
17.2238185685113
 42
0.5773502691896
  0
SEQEND
  0
POLYLINE
  8
Holes
 66
     1
 10
0.0
 20
0.0
 30
0.0
 70
     1
  0
VERTEX
  8
Holes
 10
26.9196751191026
 20
16.6659472177641
 42
0.5773502691896
  0
VERTEX
  8
Holes
 10
27.2401045185028
 20
17.2209472177641
 42
0.5773502691896
  0
VERTEX
  8
Holes
 10
26.5992457197023
 20
17.2209472177641
 42
0.5773502691896
  0
SEQEND
  0
POLYLINE
  8
Holes
 66
     1
 10
0.0
 20
0.0
 30
0.0
 70
     1
  0
VERTEX
  8
Holes
 10
26.8755971881629
 20
20.1903916308755
 42
0.5773502691896
  0
VERTEX
  8
Holes
 10
27.1960265875632
 20
20.7453916308755
 42
0.5773502691896
  0
VERTEX
  8
Holes
 10
26.5551677887627
 20
20.7453916308755
 42
0.5773502691896
  0
SEQEND
  0
POLYLINE
  8
Holes
 66
     1
 10
0.0
 20
0.0
 30
0.0
 70
     1
  0
VERTEX
  8
Holes
 10
29.6051819532086
 20
23.3781440240897
 42
0.5773502691896
  0
VERTEX
  8
Holes
 10
29.9256113526088
 20
23.9331440240897
 42
0.5773502691896
  0
VERTEX
  8
Holes
 10
29.2847525538083
 20
23.9331440240897
 42
0.5773502691896
  0
SEQEND
  0
POLYLINE
  8
Holes
 66
     1
 10
0.0
 20
0.0
 30
0.0
 70
     1
  0
VERTEX
  8
Holes
 10
32.2590060032941
 20
23.4146326005403
 42
0.5773502691896
  0
VERTEX
  8
Holes
 10
32.5794354026943
 20
23.9696326005403
 42
0.5773502691896
  0
VERTEX
  8
Holes
 10
31.9385766038938
 20
23.9696326005403
 42
0.5773502691896
  0
SEQEND
  0
POLYLINE
  8
Holes
 66
     1
 10
0.0
 20
0.0
 30
0.0
 70
     1
  0
VERTEX
  8
Holes
 10
34.8135360403863
 20
23.4136057919719
 42
0.5773502691896
  0
VERTEX
  8
Holes
 10
35.1339654397865
 20
23.9686057919719
 42
0.5773502691896
  0
VERTEX
  8
Holes
 10
34.493106640986
 20
23.9686057919719
 42
0.5773502691896
  0
SEQEND
  0
POLYLINE
  8
Holes
 66
     1
 10
0.0
 20
0.0
 30
0.0
 70
     1
  0
VERTEX
  8
Holes
 10
36.0177242344088
 20
20.4173488994872
 42
0.5773502691896
  0
VERTEX
  8
Holes
 10
36.3381536338091
 20
20.9723488994872
 42
0.5773502691896
  0
VERTEX
  8
Holes
 10
35.6972948350086
 20
20.9723488994872
 42
0.5773502691896
  0
SEQEND
  0
POLYLINE
  8
Holes
 66
     1
 10
0.0
 20
0.0
 30
0.0
 70
     1
  0
VERTEX
  8
Holes
 10
34.808606964051
 20
16.6688185685113
 42
0.5773502691896
  0
VERTEX
  8
Holes
 10
35.1290363634512
 20
17.2238185685113
 42
0.5773502691896
  0
VERTEX
  8
Holes
 10
34.4881775646507
 20
17.2238185685113
 42
0.5773502691896
  0
SEQEND
  0
POLYLINE
  8
Holes
 66
     1
 10
0.0
 20
0.0
 30
0.0
 70
     1
  0
VERTEX
  8
Holes
 10
34.808606964051
 20
14.8741048051761
 42
0.5773502691896
  0
VERTEX
  8
Holes
 10
35.1290363634512
 20
15.4291048051761
 42
0.5773502691896
  0
VERTEX
  8
Holes
 10
34.4881775646507
 20
15.4291048051761
 42
0.5773502691896
  0
SEQEND
  0
POLYLINE
  8
Holes
 66
     1
 10
0.0
 20
0.0
 30
0.0
 70
     1
  0
VERTEX
  8
Holes
 10
29.5729510260703
 20
14.8741048051761
 42
0.5773502691896
  0
VERTEX
  8
Holes
 10
29.8933804254705
 20
15.4291048051761
 42
0.5773502691896
  0
VERTEX
  8
Holes
 10
29.25252162667
 20
15.4291048051761
 42
0.5773502691896
  0
SEQEND
  0
POLYLINE
  8
Holes
 66
     1
 10
0.0
 20
0.0
 30
0.0
 70
     1
  0
VERTEX
  8
Holes
 10
29.5729510260703
 20
16.6688185685113
 42
0.5773502691896
  0
VERTEX
  8
Holes
 10
29.8933804254705
 20
17.2238185685113
 42
0.5773502691896
  0
VERTEX
  8
Holes
 10
29.25252162667
 20
17.2238185685113
 42
0.5773502691896
  0
SEQEND
  0
POLYLINE
  8
Holes
 66
     1
 10
0.0
 20
0.0
 30
0.0
 70
     1
  0
VERTEX
  8
Holes
 10
47.4196751191026
 20
16.6659472177641
 42
0.5773502691896
  0
VERTEX
  8
Holes
 10
47.7401045185028
 20
17.2209472177641
 42
0.5773502691896
  0
VERTEX
  8
Holes
 10
47.0992457197023
 20
17.2209472177641
 42
0.5773502691896
  0
SEQEND
  0
POLYLINE
  8
Holes
 66
     1
 10
0.0
 20
0.0
 30
0.0
 70
     1
  0
VERTEX
  8
Holes
 10
47.3755971881629
 20
20.1903916308755
 42
0.5773502691896
  0
VERTEX
  8
Holes
 10
47.6960265875632
 20
20.7453916308755
 42
0.5773502691896
  0
VERTEX
  8
Holes
 10
47.0551677887627
 20
20.7453916308755
 42
0.5773502691896
  0
SEQEND
  0
POLYLINE
  8
Holes
 66
     1
 10
0.0
 20
0.0
 30
0.0
 70
     1
  0
VERTEX
  8
Holes
 10
50.1051819532086
 20
23.3781440240897
 42
0.5773502691896
  0
VERTEX
  8
Holes
 10
50.4256113526088
 20
23.9331440240897
 42
0.5773502691896
  0
VERTEX
  8
Holes
 10
49.7847525538083
 20
23.9331440240897
 42
0.5773502691896
  0
SEQEND
  0
POLYLINE
  8
Holes
 66
     1
 10
0.0
 20
0.0
 30
0.0
 70
     1
  0
VERTEX
  8
Holes
 10
52.7590060032941
 20
23.4146326005403
 42
0.5773502691896
  0
VERTEX
  8
Holes
 10
53.0794354026943
 20
23.9696326005403
 42
0.5773502691896
  0
VERTEX
  8
Holes
 10
52.4385766038938
 20
23.9696326005403
 42
0.5773502691896
  0
SEQEND
  0
POLYLINE
  8
Holes
 66
     1
 10
0.0
 20
0.0
 30
0.0
 70
     1
  0
VERTEX
  8
Holes
 10
55.3135360403863
 20
23.4136057919719
 42
0.5773502691896
  0
VERTEX
  8
Holes
 10
55.6339654397865
 20
23.9686057919719
 42
0.5773502691896
  0
VERTEX
  8
Holes
 10
54.993106640986
 20
23.9686057919719
 42
0.5773502691896
  0
SEQEND
  0
POLYLINE
  8
Holes
 66
     1
 10
0.0
 20
0.0
 30
0.0
 70
     1
  0
VERTEX
  8
Holes
 10
56.5177242344088
 20
20.4173488994872
 42
0.5773502691896
  0
VERTEX
  8
Holes
 10
56.8381536338091
 20
20.9723488994872
 42
0.5773502691896
  0
VERTEX
  8
Holes
 10
56.1972948350086
 20
20.9723488994872
 42
0.5773502691896
  0
SEQEND
  0
POLYLINE
  8
Holes
 66
     1
 10
0.0
 20
0.0
 30
0.0
 70
     1
  0
VERTEX
  8
Holes
 10
55.308606964051
 20
16.6688185685113
 42
0.5773502691896
  0
VERTEX
  8
Holes
 10
55.6290363634512
 20
17.2238185685113
 42
0.5773502691896
  0
VERTEX
  8
Holes
 10
54.9881775646507
 20
17.2238185685113
 42
0.5773502691896
  0
SEQEND
  0
POLYLINE
  8
Holes
 66
     1
 10
0.0
 20
0.0
 30
0.0
 70
     1
  0
VERTEX
  8
Holes
 10
55.308606964051
 20
14.8741048051761
 42
0.5773502691896
  0
VERTEX
  8
Holes
 10
55.6290363634512
 20
15.4291048051761
 42
0.5773502691896
  0
VERTEX
  8
Holes
 10
54.9881775646507
 20
15.4291048051761
 42
0.5773502691896
  0
SEQEND
  0
POLYLINE
  8
Holes
 66
     1
 10
0.0
 20
0.0
 30
0.0
 70
     1
  0
VERTEX
  8
Holes
 10
50.0729510260703
 20
14.8741048051761
 42
0.5773502691896
  0
VERTEX
  8
Holes
 10
50.3933804254705
 20
15.4291048051761
 42
0.5773502691896
  0
VERTEX
  8
Holes
 10
49.75252162667
 20
15.4291048051761
 42
0.5773502691896
  0
SEQEND
  0
POLYLINE
  8
Holes
 66
     1
 10
0.0
 20
0.0
 30
0.0
 70
     1
  0
VERTEX
  8
Holes
 10
50.0729510260703
 20
16.6688185685113
 42
0.5773502691896
  0
VERTEX
  8
Holes
 10
50.3933804254705
 20
17.2238185685113
 42
0.5773502691896
  0
VERTEX
  8
Holes
 10
49.75252162667
 20
17.2238185685113
 42
0.5773502691896
  0
SEQEND
  0
POLYLINE
  8
Holes
 66
     1
 10
0.0
 20
0.0
 30
0.0
 70
     1
  0
VERTEX
  8
Holes
 10
67.9196751191026
 20
16.6659472177641
 42
0.5773502691896
  0
VERTEX
  8
Holes
 10
68.2401045185028
 20
17.2209472177641
 42
0.5773502691896
  0
VERTEX
  8
Holes
 10
67.5992457197023
 20
17.2209472177641
 42
0.5773502691896
  0
SEQEND
  0
POLYLINE
  8
Holes
 66
     1
 10
0.0
 20
0.0
 30
0.0
 70
     1
  0
VERTEX
  8
Holes
 10
67.8755971881629
 20
20.1903916308755
 42
0.5773502691896
  0
VERTEX
  8
Holes
 10
68.1960265875632
 20
20.7453916308755
 42
0.5773502691896
  0
VERTEX
  8
Holes
 10
67.5551677887627
 20
20.7453916308755
 42
0.5773502691896
  0
SEQEND
  0
POLYLINE
  8
Holes
 66
     1
 10
0.0
 20
0.0
 30
0.0
 70
     1
  0
VERTEX
  8
Holes
 10
70.6051819532086
 20
23.3781440240897
 42
0.5773502691896
  0
VERTEX
  8
Holes
 10
70.9256113526088
 20
23.9331440240897
 42
0.5773502691896
  0
VERTEX
  8
Holes
 10
70.2847525538083
 20
23.9331440240897
 42
0.5773502691896
  0
SEQEND
  0
POLYLINE
  8
Holes
 66
     1
 10
0.0
 20
0.0
 30
0.0
 70
     1
  0
VERTEX
  8
Holes
 10
73.2590060032941
 20
23.4146326005403
 42
0.5773502691896
  0
VERTEX
  8
Holes
 10
73.5794354026943
 20
23.9696326005403
 42
0.5773502691896
  0
VERTEX
  8
Holes
 10
72.9385766038938
 20
23.9696326005403
 42
0.5773502691896
  0
SEQEND
  0
POLYLINE
  8
Holes
 66
     1
 10
0.0
 20
0.0
 30
0.0
 70
     1
  0
VERTEX
  8
Holes
 10
75.8135360403863
 20
23.4136057919719
 42
0.5773502691896
  0
VERTEX
  8
Holes
 10
76.1339654397865
 20
23.9686057919719
 42
0.5773502691896
  0
VERTEX
  8
Holes
 10
75.493106640986
 20
23.9686057919719
 42
0.5773502691896
  0
SEQEND
  0
POLYLINE
  8
Holes
 66
     1
 10
0.0
 20
0.0
 30
0.0
 70
     1
  0
VERTEX
  8
Holes
 10
77.0177242344088
 20
20.4173488994872
 42
0.5773502691896
  0
VERTEX
  8
Holes
 10
77.3381536338091
 20
20.9723488994872
 42
0.5773502691896
  0
VERTEX
  8
Holes
 10
76.6972948350086
 20
20.9723488994872
 42
0.5773502691896
  0
SEQEND
  0
POLYLINE
  8
Holes
 66
     1
 10
0.0
 20
0.0
 30
0.0
 70
     1
  0
VERTEX
  8
Holes
 10
75.808606964051
 20
16.6688185685113
 42
0.5773502691896
  0
VERTEX
  8
Holes
 10
76.1290363634512
 20
17.2238185685113
 42
0.5773502691896
  0
VERTEX
  8
Holes
 10
75.4881775646507
 20
17.2238185685113
 42
0.5773502691896
  0
SEQEND
  0
POLYLINE
  8
Holes
 66
     1
 10
0.0
 20
0.0
 30
0.0
 70
     1
  0
VERTEX
  8
Holes
 10
75.808606964051
 20
14.8741048051761
 42
0.5773502691896
  0
VERTEX
  8
Holes
 10
76.1290363634512
 20
15.4291048051761
 42
0.5773502691896
  0
VERTEX
  8
Holes
 10
75.4881775646507
 20
15.4291048051761
 42
0.5773502691896
  0
SEQEND
  0
POLYLINE
  8
Holes
 66
     1
 10
0.0
 20
0.0
 30
0.0
 70
     1
  0
VERTEX
  8
Holes
 10
70.5729510260703
 20
14.8741048051761
 42
0.5773502691896
  0
VERTEX
  8
Holes
 10
70.8933804254705
 20
15.4291048051761
 42
0.5773502691896
  0
VERTEX
  8
Holes
 10
70.25252162667
 20
15.4291048051761
 42
0.5773502691896
  0
SEQEND
  0
POLYLINE
  8
Holes
 66
     1
 10
0.0
 20
0.0
 30
0.0
 70
     1
  0
VERTEX
  8
Holes
 10
70.5729510260703
 20
16.6688185685113
 42
0.5773502691896
  0
VERTEX
  8
Holes
 10
70.8933804254705
 20
17.2238185685113
 42
0.5773502691896
  0
VERTEX
  8
Holes
 10
70.25252162667
 20
17.2238185685113
 42
0.5773502691896
  0
SEQEND
  0
POLYLINE
  8
Holes
 66
     1
 10
0.0
 20
0.0
 30
0.0
 70
     1
  0
VERTEX
  8
Holes
 10
88.4196751191026
 20
16.6659472177641
 42
0.5773502691896
  0
VERTEX
  8
Holes
 10
88.7401045185028
 20
17.2209472177641
 42
0.5773502691896
  0
VERTEX
  8
Holes
 10
88.0992457197023
 20
17.2209472177641
 42
0.5773502691896
  0
SEQEND
  0
POLYLINE
  8
Holes
 66
     1
 10
0.0
 20
0.0
 30
0.0
 70
     1
  0
VERTEX
  8
Holes
 10
88.3755971881629
 20
20.1903916308755
 42
0.5773502691896
  0
VERTEX
  8
Holes
 10
88.6960265875632
 20
20.7453916308755
 42
0.5773502691896
  0
VERTEX
  8
Holes
 10
88.0551677887627
 20
20.7453916308755
 42
0.5773502691896
  0
SEQEND
  0
POLYLINE
  8
Holes
 66
     1
 10
0.0
 20
0.0
 30
0.0
 70
     1
  0
VERTEX
  8
Holes
 10
91.1051819532086
 20
23.3781440240897
 42
0.5773502691896
  0
VERTEX
  8
Holes
 10
91.4256113526088
 20
23.9331440240897
 42
0.5773502691896
  0
VERTEX
  8
Holes
 10
90.7847525538083
 20
23.9331440240897
 42
0.5773502691896
  0
SEQEND
  0
POLYLINE
  8
Holes
 66
     1
 10
0.0
 20
0.0
 30
0.0
 70
     1
  0
VERTEX
  8
Holes
 10
93.7590060032941
 20
23.4146326005403
 42
0.5773502691896
  0
VERTEX
  8
Holes
 10
94.0794354026943
 20
23.9696326005403
 42
0.5773502691896
  0
VERTEX
  8
Holes
 10
93.4385766038938
 20
23.9696326005403
 42
0.5773502691896
  0
SEQEND
  0
POLYLINE
  8
Holes
 66
     1
 10
0.0
 20
0.0
 30
0.0
 70
     1
  0
VERTEX
  8
Holes
 10
96.3135360403863
 20
23.4136057919719
 42
0.5773502691896
  0
VERTEX
  8
Holes
 10
96.6339654397865
 20
23.9686057919719
 42
0.5773502691896
  0
VERTEX
  8
Holes
 10
95.993106640986
 20
23.9686057919719
 42
0.5773502691896
  0
SEQEND
  0
POLYLINE
  8
Holes
 66
     1
 10
0.0
 20
0.0
 30
0.0
 70
     1
  0
VERTEX
  8
Holes
 10
97.5177242344088
 20
20.4173488994872
 42
0.5773502691896
  0
VERTEX
  8
Holes
 10
97.8381536338091
 20
20.9723488994872
 42
0.5773502691896
  0
VERTEX
  8
Holes
 10
97.1972948350086
 20
20.9723488994872
 42
0.5773502691896
  0
SEQEND
  0
POLYLINE
  8
Holes
 66
     1
 10
0.0
 20
0.0
 30
0.0
 70
     1
  0
VERTEX
  8
Holes
 10
96.308606964051
 20
16.6688185685113
 42
0.5773502691896
  0
VERTEX
  8
Holes
 10
96.6290363634512
 20
17.2238185685113
 42
0.5773502691896
  0
VERTEX
  8
Holes
 10
95.9881775646507
 20
17.2238185685113
 42
0.5773502691896
  0
SEQEND
  0
POLYLINE
  8
Holes
 66
     1
 10
0.0
 20
0.0
 30
0.0
 70
     1
  0
VERTEX
  8
Holes
 10
96.308606964051
 20
14.8741048051761
 42
0.5773502691896
  0
VERTEX
  8
Holes
 10
96.6290363634512
 20
15.4291048051761
 42
0.5773502691896
  0
VERTEX
  8
Holes
 10
95.9881775646507
 20
15.4291048051761
 42
0.5773502691896
  0
SEQEND
  0
POLYLINE
  8
Holes
 66
     1
 10
0.0
 20
0.0
 30
0.0
 70
     1
  0
VERTEX
  8
Holes
 10
91.0729510260703
 20
14.8741048051761
 42
0.5773502691896
  0
VERTEX
  8
Holes
 10
91.3933804254705
 20
15.4291048051761
 42
0.5773502691896
  0
VERTEX
  8
Holes
 10
90.75252162667
 20
15.4291048051761
 42
0.5773502691896
  0
SEQEND
  0
POLYLINE
  8
Holes
 66
     1
 10
0.0
 20
0.0
 30
0.0
 70
     1
  0
VERTEX
  8
Holes
 10
91.0729510260703
 20
16.6688185685113
 42
0.5773502691896
  0
VERTEX
  8
Holes
 10
91.3933804254705
 20
17.2238185685113
 42
0.5773502691896
  0
VERTEX
  8
Holes
 10
90.75252162667
 20
17.2238185685113
 42
0.5773502691896
  0
SEQEND
  0
POLYLINE
  8
Terminal_Holes
 66
     1
 10
0.0
 20
0.0
 30
0.0
 70
     1
  0
VERTEX
  8
Terminal_Holes
 10
6.71240546842
 20
9.375
 42
0.5773502691896
  0
VERTEX
  8
Terminal_Holes
 10
7.2536713457853
 20
10.3125
 42
0.5773502691896
  0
VERTEX
  8
Terminal_Holes
 10
6.1711395910547
 20
10.3125
 42
0.5773502691896
  0
SEQEND
  0
POLYLINE
  8
Terminal_Holes
 66
     1
 10
0.0
 20
0.0
 30
0.0
 70
     1
  0
VERTEX
  8
Terminal_Holes
 10
11.7160968903619
 20
9.375
 42
0.5773502691896
  0
VERTEX
  8
Terminal_Holes
 10
12.2573627677272
 20
10.3125
 42
0.5773502691896
  0
VERTEX
  8
Terminal_Holes
 10
11.1748310129966
 20
10.3125
 42
0.5773502691896
  0
SEQEND
  0
POLYLINE
  8
Terminal_Holes
 66
     1
 10
0.0
 20
0.0
 30
0.0
 70
     1
  0
VERTEX
  8
Terminal_Holes
 10
16.7197883123037
 20
9.375
 42
0.5773502691896
  0
VERTEX
  8
Terminal_Holes
 10
17.261054189669
 20
10.3125
 42
0.5773502691896
  0
VERTEX
  8
Terminal_Holes
 10
16.1785224349384
 20
10.3125
 42
0.5773502691896
  0
SEQEND
  0
POLYLINE
  8
Terminal_Holes
 66
     1
 10
0.0
 20
0.0
 30
0.0
 70
     1
  0
VERTEX
  8
Terminal_Holes
 10
27.21240546842
 20
9.375
 42
0.5773502691896
  0
VERTEX
  8
Terminal_Holes
 10
27.7536713457853
 20
10.3125
 42
0.5773502691896
  0
VERTEX
  8
Terminal_Holes
 10
26.6711395910547
 20
10.3125
 42
0.5773502691896
  0
SEQEND
  0
POLYLINE
  8
Terminal_Holes
 66
     1
 10
0.0
 20
0.0
 30
0.0
 70
     1
  0
VERTEX
  8
Terminal_Holes
 10
32.2160968903619
 20
9.375
 42
0.5773502691896
  0
VERTEX
  8
Terminal_Holes
 10
32.7573627677272
 20
10.3125
 42
0.5773502691896
  0
VERTEX
  8
Terminal_Holes
 10
31.6748310129966
 20
10.3125
 42
0.5773502691896
  0
SEQEND
  0
POLYLINE
  8
Terminal_Holes
 66
     1
 10
0.0
 20
0.0
 30
0.0
 70
     1
  0
VERTEX
  8
Terminal_Holes
 10
37.2197883123037
 20
9.375
 42
0.5773502691896
  0
VERTEX
  8
Terminal_Holes
 10
37.761054189669
 20
10.3125
 42
0.5773502691896
  0
VERTEX
  8
Terminal_Holes
 10
36.6785224349384
 20
10.3125
 42
0.5773502691896
  0
SEQEND
  0
POLYLINE
  8
Terminal_Holes
 66
     1
 10
0.0
 20
0.0
 30
0.0
 70
     1
  0
VERTEX
  8
Terminal_Holes
 10
47.71240546842
 20
9.375
 42
0.5773502691896
  0
VERTEX
  8
Terminal_Holes
 10
48.2536713457853
 20
10.3125
 42
0.5773502691896
  0
VERTEX
  8
Terminal_Holes
 10
47.1711395910547
 20
10.3125
 42
0.5773502691896
  0
SEQEND
  0
POLYLINE
  8
Terminal_Holes
 66
     1
 10
0.0
 20
0.0
 30
0.0
 70
     1
  0
VERTEX
  8
Terminal_Holes
 10
52.7160968903619
 20
9.375
 42
0.5773502691896
  0
VERTEX
  8
Terminal_Holes
 10
53.2573627677272
 20
10.3125
 42
0.5773502691896
  0
VERTEX
  8
Terminal_Holes
 10
52.1748310129966
 20
10.3125
 42
0.5773502691896
  0
SEQEND
  0
POLYLINE
  8
Terminal_Holes
 66
     1
 10
0.0
 20
0.0
 30
0.0
 70
     1
  0
VERTEX
  8
Terminal_Holes
 10
57.7197883123037
 20
9.375
 42
0.5773502691896
  0
VERTEX
  8
Terminal_Holes
 10
58.261054189669
 20
10.3125
 42
0.5773502691896
  0
VERTEX
  8
Terminal_Holes
 10
57.1785224349384
 20
10.3125
 42
0.5773502691896
  0
SEQEND
  0
POLYLINE
  8
Terminal_Holes
 66
     1
 10
0.0
 20
0.0
 30
0.0
 70
     1
  0
VERTEX
  8
Terminal_Holes
 10
68.21240546842
 20
9.375
 42
0.5773502691896
  0
VERTEX
  8
Terminal_Holes
 10
68.7536713457853
 20
10.3125
 42
0.5773502691896
  0
VERTEX
  8
Terminal_Holes
 10
67.6711395910547
 20
10.3125
 42
0.5773502691896
  0
SEQEND
  0
POLYLINE
  8
Terminal_Holes
 66
     1
 10
0.0
 20
0.0
 30
0.0
 70
     1
  0
VERTEX
  8
Terminal_Holes
 10
73.2160968903619
 20
9.375
 42
0.5773502691896
  0
VERTEX
  8
Terminal_Holes
 10
73.7573627677272
 20
10.3125
 42
0.5773502691896
  0
VERTEX
  8
Terminal_Holes
 10
72.6748310129966
 20
10.3125
 42
0.5773502691896
  0
SEQEND
  0
POLYLINE
  8
Terminal_Holes
 66
     1
 10
0.0
 20
0.0
 30
0.0
 70
     1
  0
VERTEX
  8
Terminal_Holes
 10
78.2197883123037
 20
9.375
 42
0.5773502691896
  0
VERTEX
  8
Terminal_Holes
 10
78.761054189669
 20
10.3125
 42
0.5773502691896
  0
VERTEX
  8
Terminal_Holes
 10
77.6785224349384
 20
10.3125
 42
0.5773502691896
  0
SEQEND
  0
POLYLINE
  8
Terminal_Holes
 66
     1
 10
0.0
 20
0.0
 30
0.0
 70
     1
  0
VERTEX
  8
Terminal_Holes
 10
88.71240546842
 20
9.375
 42
0.5773502691896
  0
VERTEX
  8
Terminal_Holes
 10
89.2536713457853
 20
10.3125
 42
0.5773502691896
  0
VERTEX
  8
Terminal_Holes
 10
88.1711395910547
 20
10.3125
 42
0.5773502691896
  0
SEQEND
  0
POLYLINE
  8
Terminal_Holes
 66
     1
 10
0.0
 20
0.0
 30
0.0
 70
     1
  0
VERTEX
  8
Terminal_Holes
 10
93.7160968903619
 20
9.375
 42
0.5773502691896
  0
VERTEX
  8
Terminal_Holes
 10
94.2573627677272
 20
10.3125
 42
0.5773502691896
  0
VERTEX
  8
Terminal_Holes
 10
93.1748310129966
 20
10.3125
 42
0.5773502691896
  0
SEQEND
  0
POLYLINE
  8
Terminal_Holes
 66
     1
 10
0.0
 20
0.0
 30
0.0
 70
     1
  0
VERTEX
  8
Terminal_Holes
 10
98.7197883123037
 20
9.375
 42
0.5773502691896
  0
VERTEX
  8
Terminal_Holes
 10
99.261054189669
 20
10.3125
 42
0.5773502691896
  0
VERTEX
  8
Terminal_Holes
 10
98.1785224349384
 20
10.3125
 42
0.5773502691896
  0
SEQEND
  0
POLYLINE
  8
Mounting_Hole
 66
     1
 10
0.0
 20
0.0
 30
0.0
 70
     1
  0
VERTEX
  8
Mounting_Hole
 10
14.2160968903619
 20
27.5
 42
1.0
  0
VERTEX
  8
Mounting_Hole
 10
14.2160968903619
 20
32.5
 42
0.0
  0
VERTEX
  8
Mounting_Hole
 10
9.2160968903619
 20
32.5
 42
1.0
  0
VERTEX
  8
Mounting_Hole
 10
9.2160968903619
 20
27.5
 42
0.0
  0
SEQEND
  0
POLYLINE
  8
Mounting_Hole
 66
     1
 10
0.0
 20
0.0
 30
0.0
 70
     1
  0
VERTEX
  8
Mounting_Hole
 10
34.7160968903619
 20
27.5
 42
1.0
  0
VERTEX
  8
Mounting_Hole
 10
34.7160968903619
 20
32.5
 42
0.0
  0
VERTEX
  8
Mounting_Hole
 10
29.7160968903619
 20
32.5
 42
1.0
  0
VERTEX
  8
Mounting_Hole
 10
29.7160968903619
 20
27.5
 42
0.0
  0
SEQEND
  0
POLYLINE
  8
Mounting_Hole
 66
     1
 10
0.0
 20
0.0
 30
0.0
 70
     1
  0
VERTEX
  8
Mounting_Hole
 10
55.2160968903619
 20
27.5
 42
1.0
  0
VERTEX
  8
Mounting_Hole
 10
55.2160968903619
 20
32.5
 42
0.0
  0
VERTEX
  8
Mounting_Hole
 10
50.2160968903619
 20
32.5
 42
1.0
  0
VERTEX
  8
Mounting_Hole
 10
50.2160968903619
 20
27.5
 42
0.0
  0
SEQEND
  0
POLYLINE
  8
Mounting_Hole
 66
     1
 10
0.0
 20
0.0
 30
0.0
 70
     1
  0
VERTEX
  8
Mounting_Hole
 10
75.7160968903619
 20
27.5
 42
1.0
  0
VERTEX
  8
Mounting_Hole
 10
75.7160968903619
 20
32.5
 42
0.0
  0
VERTEX
  8
Mounting_Hole
 10
70.7160968903619
 20
32.5
 42
1.0
  0
VERTEX
  8
Mounting_Hole
 10
70.7160968903619
 20
27.5
 42
0.0
  0
SEQEND
  0
POLYLINE
  8
Mounting_Hole
 66
     1
 10
0.0
 20
0.0
 30
0.0
 70
     1
  0
VERTEX
  8
Mounting_Hole
 10
96.2160968903619
 20
27.5
 42
1.0
  0
VERTEX
  8
Mounting_Hole
 10
96.2160968903619
 20
32.5
 42
0.0
  0
VERTEX
  8
Mounting_Hole
 10
91.2160968903619
 20
32.5
 42
1.0
  0
VERTEX
  8
Mounting_Hole
 10
91.2160968903619
 20
27.5
 42
0.0
  0
SEQEND
  0
POLYLINE
  8
Border
 66
     1
 10
0.0
 20
0.0
 30
0.0
 70
     1
  0
VERTEX
  8
Border
 10
4.0
 20
36.0
 42
0.0
  0
VERTEX
  8
Border
 10
19.5
 20
36.0
 42
0.0
  0
VERTEX
  8
Border
 10
19.5
 20
4.0
 42
0.0
  0
VERTEX
  8
Border
 10
4.0
 20
4.0
 42
0.0
  0
SEQEND
  0
POLYLINE
  8
Border
 66
     1
 10
0.0
 20
0.0
 30
0.0
 70
     1
  0
VERTEX
  8
Border
 10
24.5
 20
36.0
 42
0.0
  0
VERTEX
  8
Border
 10
40.0
 20
36.0
 42
0.0
  0
VERTEX
  8
Border
 10
40.0
 20
4.0
 42
0.0
  0
VERTEX
  8
Border
 10
24.5
 20
4.0
 42
0.0
  0
SEQEND
  0
POLYLINE
  8
Border
 66
     1
 10
0.0
 20
0.0
 30
0.0
 70
     1
  0
VERTEX
  8
Border
 10
45.0
 20
36.0
 42
0.0
  0
VERTEX
  8
Border
 10
60.5
 20
36.0
 42
0.0
  0
VERTEX
  8
Border
 10
60.5
 20
4.0
 42
0.0
  0
VERTEX
  8
Border
 10
45.0
 20
4.0
 42
0.0
  0
SEQEND
  0
POLYLINE
  8
Border
 66
     1
 10
0.0
 20
0.0
 30
0.0
 70
     1
  0
VERTEX
  8
Border
 10
65.5
 20
36.0
 42
0.0
  0
VERTEX
  8
Border
 10
81.0
 20
36.0
 42
0.0
  0
VERTEX
  8
Border
 10
81.0
 20
4.0
 42
0.0
  0
VERTEX
  8
Border
 10
65.5
 20
4.0
 42
0.0
  0
SEQEND
  0
POLYLINE
  8
Border
 66
     1
 10
0.0
 20
0.0
 30
0.0
 70
     1
  0
VERTEX
  8
Border
 10
86.0
 20
36.0
 42
0.0
  0
VERTEX
  8
Border
 10
101.5
 20
36.0
 42
0.0
  0
VERTEX
  8
Border
 10
101.5
 20
4.0
 42
0.0
  0
VERTEX
  8
Border
 10
86.0
 20
4.0
 42
0.0
  0
SEQEND
  0
ENDSEC
  0
EOF
