  0
SECTION
  2
HEADER
  9
$ACADVER
  1
AC1012
  9
$DWGCODEPAGE
  3
ansi_1252
  9
$INSBASE
 10
0.0
 20
0.0
 30
0.0
  9
$EXTMIN
 10
-6.860775590551181
 20
-1.859220472440945
 30
0.0
  9
$EXTMAX
 10
6.860775590551181
 20
1.859220472440945
 30
0.0
  9
$LIMMIN
 10
0.0
 20
0.0
  9
$LIMMAX
 10
12.0
 20
9.0
  9
$ORTHOMODE
 70
     0
  9
$REGENMODE
 70
     1
  9
$FILLMODE
 70
     1
  9
$QTEXTMODE
 70
     0
  9
$MIRRTEXT
 70
     1
  9
$DRAGMODE
 70
     2
  9
$LTSCALE
 40
1.0
  9
$OSMODE
 70
    37
  9
$ATTMODE
 70
     1
  9
$TEXTSIZE
 40
0.2
  9
$TRACEWID
 40
0.05
  9
$TEXTSTYLE
  7
STANDARD
  9
$CLAYER
  8
0
  9
$CELTYPE
  6
BYLAYER
  9
$CECOLOR
 62
   256
  9
$CELTSCALE
 40
1.0
  9
$DELOBJ
 70
     1
  9
$DISPSILH
 70
     0
  9
$DIMSCALE
 40
1.0
  9
$DIMASZ
 40
0.18
  9
$DIMEXO
 40
0.0625
  9
$DIMDLI
 40
0.38
  9
$DIMRND
 40
0.0
  9
$DIMDLE
 40
0.0
  9
$DIMEXE
 40
0.18
  9
$DIMTP
 40
0.0
  9
$DIMTM
 40
0.0
  9
$DIMTXT
 40
0.18
  9
$DIMCEN
 40
0.09
  9
$DIMTSZ
 40
0.0
  9
$DIMTOL
 70
     0
  9
$DIMLIM
 70
     0
  9
$DIMTIH
 70
     1
  9
$DIMTOH
 70
     1
  9
$DIMSE1
 70
     0
  9
$DIMSE2
 70
     0
  9
$DIMTAD
 70
     0
  9
$DIMZIN
 70
     0
  9
$DIMBLK
  1

  9
$DIMASO
 70
     1
  9
$DIMSHO
 70
     1
  9
$DIMPOST
  1

  9
$DIMAPOST
  1

  9
$DIMALT
 70
     0
  9
$DIMALTD
 70
     2
  9
$DIMALTF
 40
25.4
  9
$DIMLFAC
 40
1.0
  9
$DIMTOFL
 70
     0
  9
$DIMTVP
 40
0.0
  9
$DIMTIX
 70
     0
  9
$DIMSOXD
 70
     0
  9
$DIMSAH
 70
     0
  9
$DIMBLK1
  1

  9
$DIMBLK2
  1

  9
$DIMSTYLE
  2
STANDARD
  9
$DIMCLRD
 70
     0
  9
$DIMCLRE
 70
     0
  9
$DIMCLRT
 70
     0
  9
$DIMTFAC
 40
1.0
  9
$DIMGAP
 40
0.09
  9
$DIMJUST
 70
     0
  9
$DIMSD1
 70
     0
  9
$DIMSD2
 70
     0
  9
$DIMTOLJ
 70
     1
  9
$DIMTZIN
 70
     0
  9
$DIMALTZ
 70
     0
  9
$DIMALTTZ
 70
     0
  9
$DIMFIT
 70
     3
  9
$DIMUPT
 70
     0
  9
$DIMUNIT
 70
     2
  9
$DIMDEC
 70
     4
  9
$DIMTDEC
 70
     4
  9
$DIMALTU
 70
     2
  9
$DIMALTTD
 70
     2
  9
$DIMTXSTY
  7
STANDARD
  9
$DIMAUNIT
 70
     0
  9
$LUNITS
 70
     2
  9
$LUPREC
 70
     4
  9
$SKETCHINC
 40
0.1
  9
$FILLETRAD
 40
0.5
  9
$AUNITS
 70
     0
  9
$AUPREC
 70
     0
  9
$MENU
  1
.
  9
$ELEVATION
 40
0.0
  9
$PELEVATION
 40
0.0
  9
$THICKNESS
 40
0.0
  9
$LIMCHECK
 70
     0
  9
$CHAMFERA
 40
0.5
  9
$CHAMFERB
 40
0.5
  9
$CHAMFERC
 40
1.0
  9
$CHAMFERD
 40
0.0
  9
$SKPOLY
 70
     0
  9
$TDCREATE
 40
2454359.948540868
  9
$TDUPDATE
 40
2454359.990207546
  9
$TDINDWG
 40
0.0000000116
  9
$TDUSRTIMER
 40
0.0000000116
  9
$USRTIMER
 70
     1
  9
$ANGBASE
 50
0.0
  9
$ANGDIR
 70
     0
  9
$PDMODE
 70
     0
  9
$PDSIZE
 40
0.0
  9
$PLINEWID
 40
0.0
  9
$COORDS
 70
     1
  9
$SPLFRAME
 70
     0
  9
$SPLINETYPE
 70
     6
  9
$SPLINESEGS
 70
     8
  9
$ATTDIA
 70
     0
  9
$ATTREQ
 70
     1
  9
$HANDLING
 70
     1
  9
$HANDSEED
  5
80
  9
$SURFTAB1
 70
     6
  9
$SURFTAB2
 70
     6
  9
$SURFTYPE
 70
     6
  9
$SURFU
 70
     6
  9
$SURFV
 70
     6
  9
$UCSNAME
  2

  9
$UCSORG
 10
0.0
 20
0.0
 30
0.0
  9
$UCSXDIR
 10
1.0
 20
0.0
 30
0.0
  9
$UCSYDIR
 10
0.0
 20
1.0
 30
0.0
  9
$PUCSNAME
  2

  9
$PUCSORG
 10
0.0
 20
0.0
 30
0.0
  9
$PUCSXDIR
 10
1.0
 20
0.0
 30
0.0
  9
$PUCSYDIR
 10
0.0
 20
1.0
 30
0.0
  9
$USERI1
 70
     0
  9
$USERI2
 70
     0
  9
$USERI3
 70
     0
  9
$USERI4
 70
     0
  9
$USERI5
 70
     0
  9
$USERR1
 40
0.0
  9
$USERR2
 40
0.0
  9
$USERR3
 40
0.0
  9
$USERR4
 40
0.0
  9
$USERR5
 40
0.0
  9
$WORLDVIEW
 70
     1
  9
$SHADEDGE
 70
     3
  9
$SHADEDIF
 70
    70
  9
$TILEMODE
 70
     1
  9
$MAXACTVP
 70
    64
  9
$PINSBASE
 10
0.0
 20
0.0
 30
0.0
  9
$PLIMCHECK
 70
     0
  9
$PEXTMIN
 10
1.000000000000000E+20
 20
1.000000000000000E+20
 30
1.000000000000000E+20
  9
$PEXTMAX
 10
-1.000000000000000E+20
 20
-1.000000000000000E+20
 30
-1.000000000000000E+20
  9
$PLIMMIN
 10
0.0
 20
0.0
  9
$PLIMMAX
 10
12.0
 20
9.0
  9
$UNITMODE
 70
     0
  9
$VISRETAIN
 70
     1
  9
$PLINEGEN
 70
     0
  9
$PSLTSCALE
 70
     1
  9
$TREEDEPTH
 70
  3020
  9
$PICKSTYLE
 70
     1
  9
$CMLSTYLE
  2
STANDARD
  9
$CMLJUST
 70
     0
  9
$CMLSCALE
 40
1.0
  9
$SAVEIMAGES
 70
     1
  0
ENDSEC
  0
SECTION
  2
CLASSES
  0
CLASS
  1
ACDBDICTIONARYWDFLT
  2
AcDbDictionaryWithDefault
  3
ObjectDBX Classes
 90
        0
280
     0
281
     0
  0
CLASS
  1
XRECORD
  2
AcDbXrecord
  3
AutoCAD 2000
 90
    32768
280
     0
281
     0
  0
CLASS
  1
LWPOLYLINE
  2
AcDbPolyline
  3
AutoCAD 2000
 90
    32768
280
     0
281
     1
  0
CLASS
  1
HATCH
  2
AcDbHatch
  3
AutoCAD 2000
 90
    32768
280
     0
281
     1
  0
CLASS
  1
ACDBPLACEHOLDER
  2
AcDbPlaceHolder
  3
ObjectDBX Classes
 90
        0
280
     0
281
     0
  0
CLASS
  1
LAYOUT
  2
AcDbLayout
  3
ObjectDBX Classes
 90
        0
280
     0
281
     0
  0
ENDSEC
  0
SECTION
  2
TABLES
  0
TABLE
  2
VPORT
  5
8
330
0
100
AcDbSymbolTable
 70
     2
  0
VPORT
  5
29
102
{ACAD_XDICTIONARY
360
7E
102
}
330
8
100
AcDbSymbolTableRecord
100
AcDbViewportTableRecord
  2
*ACTIVE
 70
     0
 10
0.0
 20
0.0
 11
1.0
 21
1.0
 12
10.42990654205607
 22
4.5
 13
0.0
 23
0.0
 14
0.5
 24
0.5
 15
0.5
 25
0.5
 16
0.0
 26
0.0
 36
1.0
 17
0.0
 27
0.0
 37
0.0
 40
9.0
 41
1.972972972850329
 42
50.0
 43
0.0
 44
0.0
 50
0.0
 51
0.0
 71
     0
 72
   100
 73
     1
 74
     3
 75
     0
 76
     0
 77
     0
 78
     0
  0
ENDTAB
  0
TABLE
  2
LTYPE
  5
5
330
0
100
AcDbSymbolTable
 70
     1
  0
LTYPE
  5
14
330
5
100
AcDbSymbolTableRecord
100
AcDbLinetypeTableRecord
  2
BYBLOCK
 70
     0
  3

 72
    65
 73
     0
 40
0.0
  0
LTYPE
  5
15
330
5
100
AcDbSymbolTableRecord
100
AcDbLinetypeTableRecord
  2
BYLAYER
 70
     0
  3

 72
    65
 73
     0
 40
0.0
  0
LTYPE
  5
16
330
5
100
AcDbSymbolTableRecord
100
AcDbLinetypeTableRecord
  2
CONTINUOUS
 70
     0
  3
Solid line
 72
    65
 73
     0
 40
0.0
  0
ENDTAB
  0
TABLE
  2
LAYER
  5
2
330
0
100
AcDbSymbolTable
 70
     1
  0
LAYER
  5
10
330
2
100
AcDbSymbolTableRecord
100
AcDbLayerTableRecord
  2
0
 70
     0
 62
     7
  6
CONTINUOUS
  0
ENDTAB
  0
TABLE
  2
STYLE
  5
3
330
0
100
AcDbSymbolTable
 70
     1
  0
STYLE
  5
11
330
3
100
AcDbSymbolTableRecord
100
AcDbTextStyleTableRecord
  2
STANDARD
 70
     0
 40
0.0
 41
1.0
 50
0.0
 71
     0
 42
0.2
  3
txt
  4

  0
ENDTAB
  0
TABLE
  2
VIEW
  5
6
330
0
100
AcDbSymbolTable
 70
     0
  0
ENDTAB
  0
TABLE
  2
UCS
  5
7
330
0
100
AcDbSymbolTable
 70
     0
  0
ENDTAB
  0
TABLE
  2
APPID
  5
9
330
0
100
AcDbSymbolTable
 70
     2
  0
APPID
  5
12
330
9
100
AcDbSymbolTableRecord
100
AcDbRegAppTableRecord
  2
ACAD
 70
     0
  0
APPID
  5
2A
330
9
100
AcDbSymbolTableRecord
100
AcDbRegAppTableRecord
  2
ODA
 70
     0
  0
ENDTAB
  0
TABLE
  2
DIMSTYLE
  5
A
330
0
100
AcDbSymbolTable
 70
     1
  0
DIMSTYLE
105
27
330
A
100
AcDbSymbolTableRecord
100
AcDbDimStyleTableRecord
  2
STANDARD
 70
     0
  3

  4

  5

  6

  7

 40
1.0
 41
0.18
 42
0.0625
 43
0.38
 44
0.18
 45
0.0
 46
0.0
 47
0.0
 48
0.0
140
0.18
141
0.09
142
0.0
143
25.4
144
1.0
145
0.0
146
1.0
147
0.09
 71
     0
 72
     0
 73
     1
 74
     1
 75
     0
 76
     0
 77
     0
 78
     0
170
     0
171
     2
172
     0
173
     0
174
     0
175
     0
176
     0
177
     0
178
     0
270
     2
271
     4
272
     4
273
     2
274
     2
340
11
275
     0
280
     0
281
     0
282
     0
283
     1
284
     0
285
     0
286
     0
287
     3
288
     0
  0
ENDTAB
  0
TABLE
  2
BLOCK_RECORD
  5
1
330
0
100
AcDbSymbolTable
 70
     1
  0
BLOCK_RECORD
  5
1F
330
1
100
AcDbSymbolTableRecord
100
AcDbBlockTableRecord
  2
*MODEL_SPACE
  0
BLOCK_RECORD
  5
1B
330
1
100
AcDbSymbolTableRecord
100
AcDbBlockTableRecord
  2
*PAPER_SPACE
  0
ENDTAB
  0
ENDSEC
  0
SECTION
  2
BLOCKS
  0
BLOCK
  5
20
330
1F
100
AcDbEntity
  8
0
100
AcDbBlockBegin
  2
*MODEL_SPACE
 70
     0
 71
     0
 10
0.0
 20
0.0
 30
0.0
  3
*MODEL_SPACE
  1

  0
ENDBLK
  5
21
330
1F
100
AcDbEntity
  8
0
100
AcDbBlockEnd
  0
BLOCK
  5
1C
330
1B
100
AcDbEntity
 67
     1
  8
0
100
AcDbBlockBegin
  2
*PAPER_SPACE
 70
     0
 71
     0
 10
0.0
 20
0.0
 30
0.0
  3
*PAPER_SPACE
  1

  0
ENDBLK
  5
1D
330
1B
100
AcDbEntity
 67
     1
  8
0
100
AcDbBlockEnd
  0
ENDSEC
  0
SECTION
  2
ENTITIES
  0
SPLINE
  5
2B
330
1F
100
AcDbEntity
  8
0
100
AcDbSpline
210
0.0
220
0.0
230
1.0
 70
    24
 71
     3
 72
     8
 73
     4
 74
     0
 42
0.0000000001
 43
0.0000000001
 40
0.0
 40
0.0
 40
0.0
 40
0.0
 40
1.0
 40
1.0
 40
1.0
 40
1.0
 10
-6.418208661417324
 20
1.119153543307087
 30
0.0
 10
-6.418208661417324
 20
1.119153543307087
 30
0.0
 10
-6.418208661417324
 20
1.461925196850394
 30
0.0
 10
-6.418208661417324
 20
1.461925196850394
 30
0.0
  0
SPLINE
  5
2C
330
1F
100
AcDbEntity
  8
0
100
AcDbSpline
210
0.0
220
0.0
230
1.0
 70
    24
 71
     3
 72
     8
 73
     4
 74
     0
 42
0.0000000001
 43
0.0000000001
 40
0.0
 40
0.0
 40
0.0
 40
0.0
 40
1.0
 40
1.0
 40
1.0
 40
1.0
 10
-6.418208661417324
 20
1.461925196850394
 30
0.0
 10
-6.418208661417324
 20
1.461925196850394
 30
0.0
 10
-3.951413385826772
 20
1.461925196850394
 30
0.0
 10
-3.951413385826772
 20
1.461925196850394
 30
0.0
  0
SPLINE
  5
2D
330
1F
100
AcDbEntity
  8
0
100
AcDbSpline
210
0.0
220
0.0
230
1.0
 70
    24
 71
     3
 72
     8
 73
     4
 74
     0
 42
0.0000000001
 43
0.0000000001
 40
0.0
 40
0.0
 40
0.0
 40
0.0
 40
1.0
 40
1.0
 40
1.0
 40
1.0
 10
-3.951413385826772
 20
1.461925196850394
 30
0.0
 10
-3.951413385826772
 20
1.461925196850394
 30
0.0
 10
-3.951413385826772
 20
1.119153543307087
 30
0.0
 10
-3.951413385826772
 20
1.119153543307087
 30
0.0
  0
SPLINE
  5
2E
330
1F
100
AcDbEntity
  8
0
100
AcDbSpline
210
0.0
220
0.0
230
1.0
 70
    24
 71
     3
 72
     8
 73
     4
 74
     0
 42
0.0000000001
 43
0.0000000001
 40
0.0
 40
0.0
 40
0.0
 40
0.0
 40
1.0
 40
1.0
 40
1.0
 40
1.0
 10
-3.951413385826772
 20
1.119153543307087
 30
0.0
 10
-3.951413385826772
 20
1.119153543307087
 30
0.0
 10
-4.991452755905512
 20
1.119153543307087
 30
0.0
 10
-4.991452755905512
 20
1.119153543307087
 30
0.0
  0
SPLINE
  5
2F
330
1F
100
AcDbEntity
  8
0
100
AcDbSpline
210
0.0
220
0.0
230
1.0
 70
    24
 71
     3
 72
     8
 73
     4
 74
     0
 42
0.0000000001
 43
0.0000000001
 40
0.0
 40
0.0
 40
0.0
 40
0.0
 40
1.0
 40
1.0
 40
1.0
 40
1.0
 10
-4.991452755905512
 20
1.119153543307087
 30
0.0
 10
-4.991452755905512
 20
1.119153543307087
 30
0.0
 10
-4.991452755905512
 20
-1.444318897637795
 30
0.0
 10
-4.991452755905512
 20
-1.444318897637795
 30
0.0
  0
SPLINE
  5
30
330
1F
100
AcDbEntity
  8
0
100
AcDbSpline
210
0.0
220
0.0
230
1.0
 70
    27
 71
     3
 72
     8
 73
     4
 74
     0
 42
0.0000000001
 43
0.0000000001
 40
0.0
 40
0.0
 40
0.0
 40
0.0
 40
1.0
 40
1.0
 40
1.0
 40
1.0
 10
-4.991452755905512
 20
-1.444318897637795
 30
0.0
 10
-4.991452755905512
 20
-1.444318897637795
 30
0.0
 10
-4.991452755905512
 20
-1.444318897637795
 30
0.0
 10
-4.991452755905512
 20
-1.444318897637795
 30
0.0
  0
SPLINE
  5
31
330
1F
100
AcDbEntity
  8
0
100
AcDbSpline
210
0.0
220
0.0
230
1.0
 70
    24
 71
     3
 72
     8
 73
     4
 74
     0
 42
0.0000000001
 43
0.0000000001
 40
0.0
 40
0.0
 40
0.0
 40
0.0
 40
1.0
 40
1.0
 40
1.0
 40
1.0
 10
-4.991452755905512
 20
-1.444318897637795
 30
0.0
 10
-4.991452755905512
 20
-1.444318897637795
 30
0.0
 10
-5.378173228346457
 20
-1.444318897637795
 30
0.0
 10
-5.378173228346457
 20
-1.444318897637795
 30
0.0
  0
SPLINE
  5
32
330
1F
100
AcDbEntity
  8
0
100
AcDbSpline
210
0.0
220
0.0
230
1.0
 70
    27
 71
     3
 72
     8
 73
     4
 74
     0
 42
0.0000000001
 43
0.0000000001
 40
0.0
 40
0.0
 40
0.0
 40
0.0
 40
1.0
 40
1.0
 40
1.0
 40
1.0
 10
-5.378173228346457
 20
1.119153543307087
 30
0.0
 10
-5.378173228346457
 20
1.119153543307087
 30
0.0
 10
-5.378173228346457
 20
1.119153543307087
 30
0.0
 10
-5.378173228346457
 20
1.119153543307087
 30
0.0
  0
SPLINE
  5
33
330
1F
100
AcDbEntity
  8
0
100
AcDbSpline
210
0.0
220
0.0
230
1.0
 70
    24
 71
     3
 72
     8
 73
     4
 74
     0
 42
0.0000000001
 43
0.0000000001
 40
0.0
 40
0.0
 40
0.0
 40
0.0
 40
1.0
 40
1.0
 40
1.0
 40
1.0
 10
-5.378173228346457
 20
-1.444318897637795
 30
0.0
 10
-5.378173228346457
 20
-1.444318897637795
 30
0.0
 10
-5.378173228346457
 20
1.119153543307087
 30
0.0
 10
-5.378173228346457
 20
1.119153543307087
 30
0.0
  0
SPLINE
  5
34
330
1F
100
AcDbEntity
  8
0
100
AcDbSpline
210
0.0
220
0.0
230
1.0
 70
    24
 71
     3
 72
     8
 73
     4
 74
     0
 42
0.0000000001
 43
0.0000000001
 40
0.0
 40
0.0
 40
0.0
 40
0.0
 40
1.0
 40
1.0
 40
1.0
 40
1.0
 10
-5.378173228346457
 20
1.119153543307087
 30
0.0
 10
-5.378173228346457
 20
1.119153543307087
 30
0.0
 10
-6.418208661417324
 20
1.119153543307087
 30
0.0
 10
-6.418208661417324
 20
1.119153543307087
 30
0.0
  0
SPLINE
  5
35
330
1F
100
AcDbEntity
  8
0
100
AcDbSpline
210
0.0
220
0.0
230
1.0
 70
    27
 71
     3
 72
     8
 73
     4
 74
     0
 42
0.0000000001
 43
0.0000000001
 40
0.0
 40
0.0
 40
0.0
 40
0.0
 40
1.0
 40
1.0
 40
1.0
 40
1.0
 10
-3.564692913385827
 20
1.461925196850394
 30
0.0
 10
-3.564692913385827
 20
1.461925196850394
 30
0.0
 10
-3.564692913385827
 20
1.461925196850394
 30
0.0
 10
-3.564692913385827
 20
1.461925196850394
 30
0.0
  0
SPLINE
  5
36
330
1F
100
AcDbEntity
  8
0
100
AcDbSpline
210
0.0
220
0.0
230
1.0
 70
    24
 71
     3
 72
     8
 73
     4
 74
     0
 42
0.0000000001
 43
0.0000000001
 40
0.0
 40
0.0
 40
0.0
 40
0.0
 40
1.0
 40
1.0
 40
1.0
 40
1.0
 10
-3.564692913385827
 20
-1.444318897637795
 30
0.0
 10
-3.564692913385827
 20
-1.444318897637795
 30
0.0
 10
-3.564692913385827
 20
1.461925196850394
 30
0.0
 10
-3.564692913385827
 20
1.461925196850394
 30
0.0
  0
SPLINE
  5
37
330
1F
100
AcDbEntity
  8
0
100
AcDbSpline
210
0.0
220
0.0
230
1.0
 70
    24
 71
     3
 72
     8
 73
     4
 74
     0
 42
0.0000000001
 43
0.0000000001
 40
0.0
 40
0.0
 40
0.0
 40
0.0
 40
1.0
 40
1.0
 40
1.0
 40
1.0
 10
-3.564692913385827
 20
1.461925196850394
 30
0.0
 10
-3.564692913385827
 20
1.461925196850394
 30
0.0
 10
-3.177976377952756
 20
1.461925196850394
 30
0.0
 10
-3.177976377952756
 20
1.461925196850394
 30
0.0
  0
SPLINE
  5
38
330
1F
100
AcDbEntity
  8
0
100
AcDbSpline
210
0.0
220
0.0
230
1.0
 70
    24
 71
     3
 72
     8
 73
     4
 74
     0
 42
0.0000000001
 43
0.0000000001
 40
0.0
 40
0.0
 40
0.0
 40
0.0
 40
1.0
 40
1.0
 40
1.0
 40
1.0
 10
-3.177976377952756
 20
1.461925196850394
 30
0.0
 10
-3.177976377952756
 20
1.461925196850394
 30
0.0
 10
-3.177976377952756
 20
0.3222795275590552
 30
0.0
 10
-3.177976377952756
 20
0.3222795275590552
 30
0.0
  0
SPLINE
  5
39
330
1F
100
AcDbEntity
  8
0
100
AcDbSpline
210
0.0
220
0.0
230
1.0
 70
    24
 71
     3
 72
     8
 73
     4
 74
     0
 42
0.0000000001
 43
0.0000000001
 40
0.0
 40
0.0
 40
0.0
 40
0.0
 40
1.0
 40
1.0
 40
1.0
 40
1.0
 10
-3.177976377952756
 20
0.3222795275590552
 30
0.0
 10
-3.177976377952756
 20
0.3222795275590552
 30
0.0
 10
-1.724850393700788
 20
0.3222795275590552
 30
0.0
 10
-1.724850393700788
 20
0.3222795275590552
 30
0.0
  0
SPLINE
  5
3A
330
1F
100
AcDbEntity
  8
0
100
AcDbSpline
210
0.0
220
0.0
230
1.0
 70
    24
 71
     3
 72
     8
 73
     4
 74
     0
 42
0.0000000001
 43
0.0000000001
 40
0.0
 40
0.0
 40
0.0
 40
0.0
 40
1.0
 40
1.0
 40
1.0
 40
1.0
 10
-1.724850393700788
 20
0.3222795275590552
 30
0.0
 10
-1.724850393700788
 20
0.3222795275590552
 30
0.0
 10
-1.724850393700788
 20
1.461925196850394
 30
0.0
 10
-1.724850393700788
 20
1.461925196850394
 30
0.0
  0
SPLINE
  5
3B
330
1F
100
AcDbEntity
  8
0
100
AcDbSpline
210
0.0
220
0.0
230
1.0
 70
    24
 71
     3
 72
     8
 73
     4
 74
     0
 42
0.0000000001
 43
0.0000000001
 40
0.0
 40
0.0
 40
0.0
 40
0.0
 40
1.0
 40
1.0
 40
1.0
 40
1.0
 10
-1.724850393700788
 20
1.461925196850394
 30
0.0
 10
-1.724850393700788
 20
1.461925196850394
 30
0.0
 10
-1.338133858267717
 20
1.461925196850394
 30
0.0
 10
-1.338133858267717
 20
1.461925196850394
 30
0.0
  0
SPLINE
  5
3C
330
1F
100
AcDbEntity
  8
0
100
AcDbSpline
210
0.0
220
0.0
230
1.0
 70
    24
 71
     3
 72
     8
 73
     4
 74
     0
 42
0.0000000001
 43
0.0000000001
 40
0.0
 40
0.0
 40
0.0
 40
0.0
 40
1.0
 40
1.0
 40
1.0
 40
1.0
 10
-1.338133858267717
 20
1.461925196850394
 30
0.0
 10
-1.338133858267717
 20
1.461925196850394
 30
0.0
 10
-1.338133858267717
 20
-1.444318897637795
 30
0.0
 10
-1.338133858267717
 20
-1.444318897637795
 30
0.0
  0
SPLINE
  5
3D
330
1F
100
AcDbEntity
  8
0
100
AcDbSpline
210
0.0
220
0.0
230
1.0
 70
    27
 71
     3
 72
     8
 73
     4
 74
     0
 42
0.0000000001
 43
0.0000000001
 40
0.0
 40
0.0
 40
0.0
 40
0.0
 40
1.0
 40
1.0
 40
1.0
 40
1.0
 10
-1.338133858267717
 20
-1.444318897637795
 30
0.0
 10
-1.338133858267717
 20
-1.444318897637795
 30
0.0
 10
-1.338133858267717
 20
-1.444318897637795
 30
0.0
 10
-1.338133858267717
 20
-1.444318897637795
 30
0.0
  0
SPLINE
  5
3E
330
1F
100
AcDbEntity
  8
0
100
AcDbSpline
210
0.0
220
0.0
230
1.0
 70
    24
 71
     3
 72
     8
 73
     4
 74
     0
 42
0.0000000001
 43
0.0000000001
 40
0.0
 40
0.0
 40
0.0
 40
0.0
 40
1.0
 40
1.0
 40
1.0
 40
1.0
 10
-1.338133858267717
 20
-1.444318897637795
 30
0.0
 10
-1.338133858267717
 20
-1.444318897637795
 30
0.0
 10
-1.724850393700788
 20
-1.444318897637795
 30
0.0
 10
-1.724850393700788
 20
-1.444318897637795
 30
0.0
  0
SPLINE
  5
3F
330
1F
100
AcDbEntity
  8
0
100
AcDbSpline
210
0.0
220
0.0
230
1.0
 70
    27
 71
     3
 72
     8
 73
     4
 74
     0
 42
0.0000000001
 43
0.0000000001
 40
0.0
 40
0.0
 40
0.0
 40
0.0
 40
1.0
 40
1.0
 40
1.0
 40
1.0
 10
-1.724850393700788
 20
-0.020492125984252
 30
0.0
 10
-1.724850393700788
 20
-0.020492125984252
 30
0.0
 10
-1.724850393700788
 20
-0.020492125984252
 30
0.0
 10
-1.724850393700788
 20
-0.020492125984252
 30
0.0
  0
SPLINE
  5
40
330
1F
100
AcDbEntity
  8
0
100
AcDbSpline
210
0.0
220
0.0
230
1.0
 70
    24
 71
     3
 72
     8
 73
     4
 74
     0
 42
0.0000000001
 43
0.0000000001
 40
0.0
 40
0.0
 40
0.0
 40
0.0
 40
1.0
 40
1.0
 40
1.0
 40
1.0
 10
-1.724850393700788
 20
-1.444318897637795
 30
0.0
 10
-1.724850393700788
 20
-1.444318897637795
 30
0.0
 10
-1.724850393700788
 20
-0.020492125984252
 30
0.0
 10
-1.724850393700788
 20
-0.020492125984252
 30
0.0
  0
SPLINE
  5
41
330
1F
100
AcDbEntity
  8
0
100
AcDbSpline
210
0.0
220
0.0
230
1.0
 70
    27
 71
     3
 72
     8
 73
     4
 74
     0
 42
0.0000000001
 43
0.0000000001
 40
0.0
 40
0.0
 40
0.0
 40
0.0
 40
1.0
 40
1.0
 40
1.0
 40
1.0
 10
-1.724850393700788
 20
-0.020492125984252
 30
0.0
 10
-1.724850393700788
 20
-0.020492125984252
 30
0.0
 10
-1.724850393700788
 20
-0.020492125984252
 30
0.0
 10
-1.724850393700788
 20
-0.020492125984252
 30
0.0
  0
SPLINE
  5
42
330
1F
100
AcDbEntity
  8
0
100
AcDbSpline
210
0.0
220
0.0
230
1.0
 70
    24
 71
     3
 72
     8
 73
     4
 74
     0
 42
0.0000000001
 43
0.0000000001
 40
0.0
 40
0.0
 40
0.0
 40
0.0
 40
1.0
 40
1.0
 40
1.0
 40
1.0
 10
-1.724850393700788
 20
-0.020492125984252
 30
0.0
 10
-1.724850393700788
 20
-0.020492125984252
 30
0.0
 10
-3.177976377952756
 20
-0.020492125984252
 30
0.0
 10
-3.177976377952756
 20
-0.020492125984252
 30
0.0
  0
SPLINE
  5
43
330
1F
100
AcDbEntity
  8
0
100
AcDbSpline
210
0.0
220
0.0
230
1.0
 70
    27
 71
     3
 72
     8
 73
     4
 74
     0
 42
0.0000000001
 43
0.0000000001
 40
0.0
 40
0.0
 40
0.0
 40
0.0
 40
1.0
 40
1.0
 40
1.0
 40
1.0
 10
-3.177976377952756
 20
-0.020492125984252
 30
0.0
 10
-3.177976377952756
 20
-0.020492125984252
 30
0.0
 10
-3.177976377952756
 20
-0.020492125984252
 30
0.0
 10
-3.177976377952756
 20
-0.020492125984252
 30
0.0
  0
SPLINE
  5
44
330
1F
100
AcDbEntity
  8
0
100
AcDbSpline
210
0.0
220
0.0
230
1.0
 70
    24
 71
     3
 72
     8
 73
     4
 74
     0
 42
0.0000000001
 43
0.0000000001
 40
0.0
 40
0.0
 40
0.0
 40
0.0
 40
1.0
 40
1.0
 40
1.0
 40
1.0
 10
-3.177976377952756
 20
-0.020492125984252
 30
0.0
 10
-3.177976377952756
 20
-0.020492125984252
 30
0.0
 10
-3.177976377952756
 20
-1.444318897637795
 30
0.0
 10
-3.177976377952756
 20
-1.444318897637795
 30
0.0
  0
SPLINE
  5
45
330
1F
100
AcDbEntity
  8
0
100
AcDbSpline
210
0.0
220
0.0
230
1.0
 70
    27
 71
     3
 72
     8
 73
     4
 74
     0
 42
0.0000000001
 43
0.0000000001
 40
0.0
 40
0.0
 40
0.0
 40
0.0
 40
1.0
 40
1.0
 40
1.0
 40
1.0
 10
-3.177976377952756
 20
-1.444318897637795
 30
0.0
 10
-3.177976377952756
 20
-1.444318897637795
 30
0.0
 10
-3.177976377952756
 20
-1.444318897637795
 30
0.0
 10
-3.177976377952756
 20
-1.444318897637795
 30
0.0
  0
SPLINE
  5
46
330
1F
100
AcDbEntity
  8
0
100
AcDbSpline
210
0.0
220
0.0
230
1.0
 70
    24
 71
     3
 72
     8
 73
     4
 74
     0
 42
0.0000000001
 43
0.0000000001
 40
0.0
 40
0.0
 40
0.0
 40
0.0
 40
1.0
 40
1.0
 40
1.0
 40
1.0
 10
-3.177976377952756
 20
-1.444318897637795
 30
0.0
 10
-3.177976377952756
 20
-1.444318897637795
 30
0.0
 10
-3.564692913385827
 20
-1.444318897637795
 30
0.0
 10
-3.564692913385827
 20
-1.444318897637795
 30
0.0
  0
SPLINE
  5
47
330
1F
100
AcDbEntity
  8
0
100
AcDbSpline
210
0.0
220
0.0
230
1.0
 70
    24
 71
     3
 72
     8
 73
     4
 74
     0
 42
0.0000000001
 43
0.0000000001
 40
0.0
 40
0.0
 40
0.0
 40
0.0
 40
1.0
 40
1.0
 40
1.0
 40
1.0
 10
-0.6818818897637795
 20
1.166027559055118
 30
0.0
 10
-0.6818818897637795
 20
1.166027559055118
 30
0.0
 10
-0.6818818897637795
 20
1.461925196850394
 30
0.0
 10
-0.6818818897637795
 20
1.461925196850394
 30
0.0
  0
SPLINE
  5
48
330
1F
100
AcDbEntity
  8
0
100
AcDbSpline
210
0.0
220
0.0
230
1.0
 70
    24
 71
     3
 72
     8
 73
     4
 74
     0
 42
0.0000000001
 43
0.0000000001
 40
0.0
 40
0.0
 40
0.0
 40
0.0
 40
1.0
 40
1.0
 40
1.0
 40
1.0
 10
-0.6818818897637795
 20
1.461925196850394
 30
0.0
 10
-0.6818818897637795
 20
1.461925196850394
 30
0.0
 10
0.4665511811023622
 20
1.461925196850394
 30
0.0
 10
0.4665511811023622
 20
1.461925196850394
 30
0.0
  0
SPLINE
  5
49
330
1F
100
AcDbEntity
  8
0
100
AcDbSpline
210
0.0
220
0.0
230
1.0
 70
    27
 71
     3
 72
     8
 73
     4
 74
     0
 42
0.0000000001
 43
0.0000000001
 40
0.0
 40
0.0
 40
0.0
 40
0.0
 40
1.0
 40
1.0
 40
1.0
 40
1.0
 10
0.4665511811023622
 20
1.461925196850394
 30
0.0
 10
0.4665511811023622
 20
1.461925196850394
 30
0.0
 10
0.4665511811023622
 20
1.461925196850394
 30
0.0
 10
0.4665511811023622
 20
1.461925196850394
 30
0.0
  0
SPLINE
  5
4A
330
1F
100
AcDbEntity
  8
0
100
AcDbSpline
210
0.0
220
0.0
230
1.0
 70
    24
 71
     3
 72
     8
 73
     4
 74
     0
 42
0.0000000001
 43
0.0000000001
 40
0.0
 40
0.0
 40
0.0
 40
0.0
 40
1.0
 40
1.0
 40
1.0
 40
1.0
 10
0.4665511811023622
 20
1.461925196850394
 30
0.0
 10
0.4665511811023622
 20
1.461925196850394
 30
0.0
 10
0.4665511811023622
 20
1.166027559055118
 30
0.0
 10
0.4665511811023622
 20
1.166027559055118
 30
0.0
  0
SPLINE
  5
4B
330
1F
100
AcDbEntity
  8
0
100
AcDbSpline
210
0.0
220
0.0
230
1.0
 70
    27
 71
     3
 72
     8
 73
     4
 74
     0
 42
0.0000000001
 43
0.0000000001
 40
0.0
 40
0.0
 40
0.0
 40
0.0
 40
1.0
 40
1.0
 40
1.0
 40
1.0
 10
0.4665511811023622
 20
1.166027559055118
 30
0.0
 10
0.4665511811023622
 20
1.166027559055118
 30
0.0
 10
0.4665511811023622
 20
1.166027559055118
 30
0.0
 10
0.4665511811023622
 20
1.166027559055118
 30
0.0
  0
SPLINE
  5
4C
330
1F
100
AcDbEntity
  8
0
100
AcDbSpline
210
0.0
220
0.0
230
1.0
 70
    24
 71
     3
 72
     8
 73
     4
 74
     0
 42
0.0000000001
 43
0.0000000001
 40
0.0
 40
0.0
 40
0.0
 40
0.0
 40
1.0
 40
1.0
 40
1.0
 40
1.0
 10
0.4665511811023622
 20
1.166027559055118
 30
0.0
 10
0.4665511811023622
 20
1.166027559055118
 30
0.0
 10
0.0856929133858268
 20
1.166027559055118
 30
0.0
 10
0.0856929133858268
 20
1.166027559055118
 30
0.0
  0
SPLINE
  5
4D
330
1F
100
AcDbEntity
  8
0
100
AcDbSpline
210
0.0
220
0.0
230
1.0
 70
    27
 71
     3
 72
     8
 73
     4
 74
     0
 42
0.0000000001
 43
0.0000000001
 40
0.0
 40
0.0
 40
0.0
 40
0.0
 40
1.0
 40
1.0
 40
1.0
 40
1.0
 10
0.0856929133858268
 20
1.166027559055118
 30
0.0
 10
0.0856929133858268
 20
1.166027559055118
 30
0.0
 10
0.0856929133858268
 20
1.166027559055118
 30
0.0
 10
0.0856929133858268
 20
1.166027559055118
 30
0.0
  0
SPLINE
  5
4E
330
1F
100
AcDbEntity
  8
0
100
AcDbSpline
210
0.0
220
0.0
230
1.0
 70
    24
 71
     3
 72
     8
 73
     4
 74
     0
 42
0.0000000001
 43
0.0000000001
 40
0.0
 40
0.0
 40
0.0
 40
0.0
 40
1.0
 40
1.0
 40
1.0
 40
1.0
 10
0.0856929133858268
 20
1.166027559055118
 30
0.0
 10
0.0856929133858268
 20
1.166027559055118
 30
0.0
 10
0.0856929133858268
 20
-1.14842125984252
 30
0.0
 10
0.0856929133858268
 20
-1.14842125984252
 30
0.0
  0
SPLINE
  5
4F
330
1F
100
AcDbEntity
  8
0
100
AcDbSpline
210
0.0
220
0.0
230
1.0
 70
    24
 71
     3
 72
     8
 73
     4
 74
     0
 42
0.0000000001
 43
0.0000000001
 40
0.0
 40
0.0
 40
0.0
 40
0.0
 40
1.0
 40
1.0
 40
1.0
 40
1.0
 10
0.0856929133858268
 20
-1.14842125984252
 30
0.0
 10
0.0856929133858268
 20
-1.14842125984252
 30
0.0
 10
0.4665511811023622
 20
-1.14842125984252
 30
0.0
 10
0.4665511811023622
 20
-1.14842125984252
 30
0.0
  0
SPLINE
  5
50
330
1F
100
AcDbEntity
  8
0
100
AcDbSpline
210
0.0
220
0.0
230
1.0
 70
    24
 71
     3
 72
     8
 73
     4
 74
     0
 42
0.0000000001
 43
0.0000000001
 40
0.0
 40
0.0
 40
0.0
 40
0.0
 40
1.0
 40
1.0
 40
1.0
 40
1.0
 10
0.4665511811023622
 20
-1.14842125984252
 30
0.0
 10
0.4665511811023622
 20
-1.14842125984252
 30
0.0
 10
0.4665511811023622
 20
-1.444318897637795
 30
0.0
 10
0.4665511811023622
 20
-1.444318897637795
 30
0.0
  0
SPLINE
  5
51
330
1F
100
AcDbEntity
  8
0
100
AcDbSpline
210
0.0
220
0.0
230
1.0
 70
    24
 71
     3
 72
     8
 73
     4
 74
     0
 42
0.0000000001
 43
0.0000000001
 40
0.0
 40
0.0
 40
0.0
 40
0.0
 40
1.0
 40
1.0
 40
1.0
 40
1.0
 10
0.4665511811023622
 20
-1.444318897637795
 30
0.0
 10
0.4665511811023622
 20
-1.444318897637795
 30
0.0
 10
-0.6818818897637795
 20
-1.444318897637795
 30
0.0
 10
-0.6818818897637795
 20
-1.444318897637795
 30
0.0
  0
SPLINE
  5
52
330
1F
100
AcDbEntity
  8
0
100
AcDbSpline
210
0.0
220
0.0
230
1.0
 70
    27
 71
     3
 72
     8
 73
     4
 74
     0
 42
0.0000000001
 43
0.0000000001
 40
0.0
 40
0.0
 40
0.0
 40
0.0
 40
1.0
 40
1.0
 40
1.0
 40
1.0
 10
-0.6818818897637795
 20
-1.14842125984252
 30
0.0
 10
-0.6818818897637795
 20
-1.14842125984252
 30
0.0
 10
-0.6818818897637795
 20
-1.14842125984252
 30
0.0
 10
-0.6818818897637795
 20
-1.14842125984252
 30
0.0
  0
SPLINE
  5
53
330
1F
100
AcDbEntity
  8
0
100
AcDbSpline
210
0.0
220
0.0
230
1.0
 70
    24
 71
     3
 72
     8
 73
     4
 74
     0
 42
0.0000000001
 43
0.0000000001
 40
0.0
 40
0.0
 40
0.0
 40
0.0
 40
1.0
 40
1.0
 40
1.0
 40
1.0
 10
-0.6818818897637795
 20
-1.444318897637795
 30
0.0
 10
-0.6818818897637795
 20
-1.444318897637795
 30
0.0
 10
-0.6818818897637795
 20
-1.14842125984252
 30
0.0
 10
-0.6818818897637795
 20
-1.14842125984252
 30
0.0
  0
SPLINE
  5
54
330
1F
100
AcDbEntity
  8
0
100
AcDbSpline
210
0.0
220
0.0
230
1.0
 70
    27
 71
     3
 72
     8
 73
     4
 74
     0
 42
0.0000000001
 43
0.0000000001
 40
0.0
 40
0.0
 40
0.0
 40
0.0
 40
1.0
 40
1.0
 40
1.0
 40
1.0
 10
-0.3010236220472441
 20
-1.14842125984252
 30
0.0
 10
-0.3010236220472441
 20
-1.14842125984252
 30
0.0
 10
-0.3010236220472441
 20
-1.14842125984252
 30
0.0
 10
-0.3010236220472441
 20
-1.14842125984252
 30
0.0
  0
SPLINE
  5
55
330
1F
100
AcDbEntity
  8
0
100
AcDbSpline
210
0.0
220
0.0
230
1.0
 70
    24
 71
     3
 72
     8
 73
     4
 74
     0
 42
0.0000000001
 43
0.0000000001
 40
0.0
 40
0.0
 40
0.0
 40
0.0
 40
1.0
 40
1.0
 40
1.0
 40
1.0
 10
-0.6818818897637795
 20
-1.14842125984252
 30
0.0
 10
-0.6818818897637795
 20
-1.14842125984252
 30
0.0
 10
-0.3010236220472441
 20
-1.14842125984252
 30
0.0
 10
-0.3010236220472441
 20
-1.14842125984252
 30
0.0
  0
SPLINE
  5
56
330
1F
100
AcDbEntity
  8
0
100
AcDbSpline
210
0.0
220
0.0
230
1.0
 70
    27
 71
     3
 72
     8
 73
     4
 74
     0
 42
0.0000000001
 43
0.0000000001
 40
0.0
 40
0.0
 40
0.0
 40
0.0
 40
1.0
 40
1.0
 40
1.0
 40
1.0
 10
-0.3010236220472441
 20
1.166027559055118
 30
0.0
 10
-0.3010236220472441
 20
1.166027559055118
 30
0.0
 10
-0.3010236220472441
 20
1.166027559055118
 30
0.0
 10
-0.3010236220472441
 20
1.166027559055118
 30
0.0
  0
SPLINE
  5
57
330
1F
100
AcDbEntity
  8
0
100
AcDbSpline
210
0.0
220
0.0
230
1.0
 70
    24
 71
     3
 72
     8
 73
     4
 74
     0
 42
0.0000000001
 43
0.0000000001
 40
0.0
 40
0.0
 40
0.0
 40
0.0
 40
1.0
 40
1.0
 40
1.0
 40
1.0
 10
-0.3010236220472441
 20
-1.14842125984252
 30
0.0
 10
-0.3010236220472441
 20
-1.14842125984252
 30
0.0
 10
-0.3010236220472441
 20
1.166027559055118
 30
0.0
 10
-0.3010236220472441
 20
1.166027559055118
 30
0.0
  0
SPLINE
  5
58
330
1F
100
AcDbEntity
  8
0
100
AcDbSpline
210
0.0
220
0.0
230
1.0
 70
    24
 71
     3
 72
     8
 73
     4
 74
     0
 42
0.0000000001
 43
0.0000000001
 40
0.0
 40
0.0
 40
0.0
 40
0.0
 40
1.0
 40
1.0
 40
1.0
 40
1.0
 10
-0.3010236220472441
 20
1.166027559055118
 30
0.0
 10
-0.3010236220472441
 20
1.166027559055118
 30
0.0
 10
-0.6818818897637795
 20
1.166027559055118
 30
0.0
 10
-0.6818818897637795
 20
1.166027559055118
 30
0.0
  0
SPLINE
  5
59
330
1F
100
AcDbEntity
  8
0
100
AcDbSpline
210
0.0
220
0.0
230
1.0
 70
    24
 71
     3
 72
     8
 73
     4
 74
     0
 42
0.0000000001
 43
0.0000000001
 40
0.0
 40
0.0
 40
0.0
 40
0.0
 40
1.0
 40
1.0
 40
1.0
 40
1.0
 10
1.125732283464567
 20
-1.444318897637795
 30
0.0
 10
1.125732283464567
 20
-1.444318897637795
 30
0.0
 10
1.125732283464567
 20
1.461925196850394
 30
0.0
 10
1.125732283464567
 20
1.461925196850394
 30
0.0
  0
SPLINE
  5
5A
330
1F
100
AcDbEntity
  8
0
100
AcDbSpline
210
0.0
220
0.0
230
1.0
 70
    27
 71
     3
 72
     8
 73
     4
 74
     0
 42
0.0000000001
 43
0.0000000001
 40
0.0
 40
0.0
 40
0.0
 40
0.0
 40
1.0
 40
1.0
 40
1.0
 40
1.0
 10
1.723385826771654
 20
1.461925196850394
 30
0.0
 10
1.723385826771654
 20
1.461925196850394
 30
0.0
 10
1.723385826771654
 20
1.461925196850394
 30
0.0
 10
1.723385826771654
 20
1.461925196850394
 30
0.0
  0
SPLINE
  5
5B
330
1F
100
AcDbEntity
  8
0
100
AcDbSpline
210
0.0
220
0.0
230
1.0
 70
    24
 71
     3
 72
     8
 73
     4
 74
     0
 42
0.0000000001
 43
0.0000000001
 40
0.0
 40
0.0
 40
0.0
 40
0.0
 40
1.0
 40
1.0
 40
1.0
 40
1.0
 10
1.125732283464567
 20
1.461925196850394
 30
0.0
 10
1.125732283464567
 20
1.461925196850394
 30
0.0
 10
1.723385826771654
 20
1.461925196850394
 30
0.0
 10
1.723385826771654
 20
1.461925196850394
 30
0.0
  0
SPLINE
  5
5C
330
1F
100
AcDbEntity
  8
0
100
AcDbSpline
210
0.0
220
0.0
230
1.0
 70
    24
 71
     3
 72
     8
 73
     4
 74
     0
 42
0.0000000001
 43
0.0000000001
 40
0.0
 40
0.0
 40
0.0
 40
0.0
 40
1.0
 40
1.0
 40
1.0
 40
1.0
 10
1.723385826771654
 20
1.461925196850394
 30
0.0
 10
1.723385826771654
 20
1.461925196850394
 30
0.0
 10
2.983153543307087
 20
-0.9111181102362205
 30
0.0
 10
2.983153543307087
 20
-0.9111181102362205
 30
0.0
  0
SPLINE
  5
5D
330
1F
100
AcDbEntity
  8
0
100
AcDbSpline
210
0.0
220
0.0
230
1.0
 70
    24
 71
     3
 72
     8
 73
     4
 74
     0
 42
0.0000000001
 43
0.0000000001
 40
0.0
 40
0.0
 40
0.0
 40
0.0
 40
1.0
 40
1.0
 40
1.0
 40
1.0
 10
2.983153543307087
 20
-0.9111181102362205
 30
0.0
 10
2.983153543307087
 20
-0.9111181102362205
 30
0.0
 10
2.983153543307087
 20
1.461925196850394
 30
0.0
 10
2.983153543307087
 20
1.461925196850394
 30
0.0
  0
SPLINE
  5
5E
330
1F
100
AcDbEntity
  8
0
100
AcDbSpline
210
0.0
220
0.0
230
1.0
 70
    27
 71
     3
 72
     8
 73
     4
 74
     0
 42
0.0000000001
 43
0.0000000001
 40
0.0
 40
0.0
 40
0.0
 40
0.0
 40
1.0
 40
1.0
 40
1.0
 40
1.0
 10
3.343503937007874
 20
1.461925196850394
 30
0.0
 10
3.343503937007874
 20
1.461925196850394
 30
0.0
 10
3.343503937007874
 20
1.461925196850394
 30
0.0
 10
3.343503937007874
 20
1.461925196850394
 30
0.0
  0
SPLINE
  5
5F
330
1F
100
AcDbEntity
  8
0
100
AcDbSpline
210
0.0
220
0.0
230
1.0
 70
    24
 71
     3
 72
     8
 73
     4
 74
     0
 42
0.0000000001
 43
0.0000000001
 40
0.0
 40
0.0
 40
0.0
 40
0.0
 40
1.0
 40
1.0
 40
1.0
 40
1.0
 10
2.983153543307087
 20
1.461925196850394
 30
0.0
 10
2.983153543307087
 20
1.461925196850394
 30
0.0
 10
3.343503937007874
 20
1.461925196850394
 30
0.0
 10
3.343503937007874
 20
1.461925196850394
 30
0.0
  0
SPLINE
  5
60
330
1F
100
AcDbEntity
  8
0
100
AcDbSpline
210
0.0
220
0.0
230
1.0
 70
    27
 71
     3
 72
     8
 73
     4
 74
     0
 42
0.0000000001
 43
0.0000000001
 40
0.0
 40
0.0
 40
0.0
 40
0.0
 40
1.0
 40
1.0
 40
1.0
 40
1.0
 10
3.343503937007874
 20
1.461925196850394
 30
0.0
 10
3.343503937007874
 20
1.461925196850394
 30
0.0
 10
3.343503937007874
 20
1.461925196850394
 30
0.0
 10
3.343503937007874
 20
1.461925196850394
 30
0.0
  0
SPLINE
  5
61
330
1F
100
AcDbEntity
  8
0
100
AcDbSpline
210
0.0
220
0.0
230
1.0
 70
    24
 71
     3
 72
     8
 73
     4
 74
     0
 42
0.0000000001
 43
0.0000000001
 40
0.0
 40
0.0
 40
0.0
 40
0.0
 40
1.0
 40
1.0
 40
1.0
 40
1.0
 10
3.343503937007874
 20
1.461925196850394
 30
0.0
 10
3.343503937007874
 20
1.461925196850394
 30
0.0
 10
3.343503937007874
 20
-1.444318897637795
 30
0.0
 10
3.343503937007874
 20
-1.444318897637795
 30
0.0
  0
SPLINE
  5
62
330
1F
100
AcDbEntity
  8
0
100
AcDbSpline
210
0.0
220
0.0
230
1.0
 70
    24
 71
     3
 72
     8
 73
     4
 74
     0
 42
0.0000000001
 43
0.0000000001
 40
0.0
 40
0.0
 40
0.0
 40
0.0
 40
1.0
 40
1.0
 40
1.0
 40
1.0
 10
3.343503937007874
 20
-1.444318897637795
 30
0.0
 10
3.343503937007874
 20
-1.444318897637795
 30
0.0
 10
2.865964566929134
 20
-1.444318897637795
 30
0.0
 10
2.865964566929134
 20
-1.444318897637795
 30
0.0
  0
SPLINE
  5
63
330
1F
100
AcDbEntity
  8
0
100
AcDbSpline
210
0.0
220
0.0
230
1.0
 70
    24
 71
     3
 72
     8
 73
     4
 74
     0
 42
0.0000000001
 43
0.0000000001
 40
0.0
 40
0.0
 40
0.0
 40
0.0
 40
1.0
 40
1.0
 40
1.0
 40
1.0
 10
2.865964566929134
 20
-1.444318897637795
 30
0.0
 10
2.865964566929134
 20
-1.444318897637795
 30
0.0
 10
1.486082677165354
 20
1.154311023622047
 30
0.0
 10
1.486082677165354
 20
1.154311023622047
 30
0.0
  0
SPLINE
  5
64
330
1F
100
AcDbEntity
  8
0
100
AcDbSpline
210
0.0
220
0.0
230
1.0
 70
    27
 71
     3
 72
     8
 73
     4
 74
     0
 42
0.0000000001
 43
0.0000000001
 40
0.0
 40
0.0
 40
0.0
 40
0.0
 40
1.0
 40
1.0
 40
1.0
 40
1.0
 10
1.486082677165354
 20
1.154311023622047
 30
0.0
 10
1.486082677165354
 20
1.154311023622047
 30
0.0
 10
1.486082677165354
 20
1.154311023622047
 30
0.0
 10
1.486082677165354
 20
1.154311023622047
 30
0.0
  0
SPLINE
  5
65
330
1F
100
AcDbEntity
  8
0
100
AcDbSpline
210
0.0
220
0.0
230
1.0
 70
    24
 71
     3
 72
     8
 73
     4
 74
     0
 42
0.0000000001
 43
0.0000000001
 40
0.0
 40
0.0
 40
0.0
 40
0.0
 40
1.0
 40
1.0
 40
1.0
 40
1.0
 10
1.486082677165354
 20
1.154311023622047
 30
0.0
 10
1.486082677165354
 20
1.154311023622047
 30
0.0
 10
1.486082677165354
 20
-1.444318897637795
 30
0.0
 10
1.486082677165354
 20
-1.444318897637795
 30
0.0
  0
SPLINE
  5
66
330
1F
100
AcDbEntity
  8
0
100
AcDbSpline
210
0.0
220
0.0
230
1.0
 70
    24
 71
     3
 72
     8
 73
     4
 74
     0
 42
0.0000000001
 43
0.0000000001
 40
0.0
 40
0.0
 40
0.0
 40
0.0
 40
1.0
 40
1.0
 40
1.0
 40
1.0
 10
1.486082677165354
 20
-1.444318897637795
 30
0.0
 10
1.486082677165354
 20
-1.444318897637795
 30
0.0
 10
1.125732283464567
 20
-1.444318897637795
 30
0.0
 10
1.125732283464567
 20
-1.444318897637795
 30
0.0
  0
SPLINE
  5
67
330
1F
100
AcDbEntity
  8
0
100
AcDbSpline
210
0.0
220
0.0
230
1.0
 70
    24
 71
     3
 72
     8
 73
     4
 74
     0
 42
0.0000000001
 43
0.0000000001
 40
0.0
 40
0.0
 40
0.0
 40
0.0
 40
1.0
 40
1.0
 40
1.0
 40
1.0
 10
4.128665354330709
 20
-1.444318897637795
 30
0.0
 10
4.128665354330709
 20
-1.444318897637795
 30
0.0
 10
4.128665354330709
 20
1.461925196850394
 30
0.0
 10
4.128665354330709
 20
1.461925196850394
 30
0.0
  0
SPLINE
  5
68
330
1F
100
AcDbEntity
  8
0
100
AcDbSpline
210
0.0
220
0.0
230
1.0
 70
    27
 71
     3
 72
     8
 73
     4
 74
     0
 42
0.0000000001
 43
0.0000000001
 40
0.0
 40
0.0
 40
0.0
 40
0.0
 40
1.0
 40
1.0
 40
1.0
 40
1.0
 10
4.515374015748032
 20
1.461925196850394
 30
0.0
 10
4.515374015748032
 20
1.461925196850394
 30
0.0
 10
4.515374015748032
 20
1.461925196850394
 30
0.0
 10
4.515374015748032
 20
1.461925196850394
 30
0.0
  0
SPLINE
  5
69
330
1F
100
AcDbEntity
  8
0
100
AcDbSpline
210
0.0
220
0.0
230
1.0
 70
    24
 71
     3
 72
     8
 73
     4
 74
     0
 42
0.0000000001
 43
0.0000000001
 40
0.0
 40
0.0
 40
0.0
 40
0.0
 40
1.0
 40
1.0
 40
1.0
 40
1.0
 10
4.128665354330709
 20
1.461925196850394
 30
0.0
 10
4.128665354330709
 20
1.461925196850394
 30
0.0
 10
4.515374015748032
 20
1.461925196850394
 30
0.0
 10
4.515374015748032
 20
1.461925196850394
 30
0.0
  0
SPLINE
  5
6A
330
1F
100
AcDbEntity
  8
0
100
AcDbSpline
210
0.0
220
0.0
230
1.0
 70
    27
 71
     3
 72
     8
 73
     4
 74
     0
 42
0.0000000001
 43
0.0000000001
 40
0.0
 40
0.0
 40
0.0
 40
0.0
 40
1.0
 40
1.0
 40
1.0
 40
1.0
 10
4.515374015748032
 20
1.461925196850394
 30
0.0
 10
4.515374015748032
 20
1.461925196850394
 30
0.0
 10
4.515374015748032
 20
1.461925196850394
 30
0.0
 10
4.515374015748032
 20
1.461925196850394
 30
0.0
  0
SPLINE
  5
6B
330
1F
100
AcDbEntity
  8
0
100
AcDbSpline
210
0.0
220
0.0
230
1.0
 70
    24
 71
     3
 72
     8
 73
     4
 74
     0
 42
0.0000000001
 43
0.0000000001
 40
0.0
 40
0.0
 40
0.0
 40
0.0
 40
1.0
 40
1.0
 40
1.0
 40
1.0
 10
4.515374015748032
 20
1.461925196850394
 30
0.0
 10
4.515374015748032
 20
1.461925196850394
 30
0.0
 10
4.515374015748032
 20
-0.0497874015748032
 30
0.0
 10
4.515374015748032
 20
-0.0497874015748032
 30
0.0
  0
SPLINE
  5
6C
330
1F
100
AcDbEntity
  8
0
100
AcDbSpline
210
0.0
220
0.0
230
1.0
 70
    24
 71
     3
 72
     8
 73
     4
 74
     0
 42
0.0000000001
 43
0.0000000001
 40
0.0
 40
0.0
 40
0.0
 40
0.0
 40
1.0
 40
1.0
 40
1.0
 40
1.0
 10
4.515374015748032
 20
-0.0497874015748032
 30
0.0
 10
4.515374015748032
 20
-0.0497874015748032
 30
0.0
 10
5.924555118110236
 20
1.461925196850394
 30
0.0
 10
5.924555118110236
 20
1.461925196850394
 30
0.0
  0
SPLINE
  5
6D
330
1F
100
AcDbEntity
  8
0
100
AcDbSpline
210
0.0
220
0.0
230
1.0
 70
    27
 71
     3
 72
     8
 73
     4
 74
     0
 42
0.0000000001
 43
0.0000000001
 40
0.0
 40
0.0
 40
0.0
 40
0.0
 40
1.0
 40
1.0
 40
1.0
 40
1.0
 10
6.393307086614174
 20
1.461925196850394
 30
0.0
 10
6.393307086614174
 20
1.461925196850394
 30
0.0
 10
6.393307086614174
 20
1.461925196850394
 30
0.0
 10
6.393307086614174
 20
1.461925196850394
 30
0.0
  0
SPLINE
  5
6E
330
1F
100
AcDbEntity
  8
0
100
AcDbSpline
210
0.0
220
0.0
230
1.0
 70
    24
 71
     3
 72
     8
 73
     4
 74
     0
 42
0.0000000001
 43
0.0000000001
 40
0.0
 40
0.0
 40
0.0
 40
0.0
 40
1.0
 40
1.0
 40
1.0
 40
1.0
 10
5.924555118110236
 20
1.461925196850394
 30
0.0
 10
5.924555118110236
 20
1.461925196850394
 30
0.0
 10
6.393307086614174
 20
1.461925196850394
 30
0.0
 10
6.393307086614174
 20
1.461925196850394
 30
0.0
  0
SPLINE
  5
6F
330
1F
100
AcDbEntity
  8
0
100
AcDbSpline
210
0.0
220
0.0
230
1.0
 70
    27
 71
     3
 72
     8
 73
     4
 74
     0
 42
0.0000000001
 43
0.0000000001
 40
0.0
 40
0.0
 40
0.0
 40
0.0
 40
1.0
 40
1.0
 40
1.0
 40
1.0
 10
6.393307086614174
 20
1.461925196850394
 30
0.0
 10
6.393307086614174
 20
1.461925196850394
 30
0.0
 10
6.393307086614174
 20
1.461925196850394
 30
0.0
 10
6.393307086614174
 20
1.461925196850394
 30
0.0
  0
SPLINE
  5
70
330
1F
100
AcDbEntity
  8
0
100
AcDbSpline
210
0.0
220
0.0
230
1.0
 70
    24
 71
     3
 72
     8
 73
     4
 74
     0
 42
0.0000000001
 43
0.0000000001
 40
0.0
 40
0.0
 40
0.0
 40
0.0
 40
1.0
 40
1.0
 40
1.0
 40
1.0
 10
6.393307086614174
 20
1.461925196850394
 30
0.0
 10
6.393307086614174
 20
1.461925196850394
 30
0.0
 10
5.098385826771653
 20
0.0966929133858268
 30
0.0
 10
5.098385826771653
 20
0.0966929133858268
 30
0.0
  0
SPLINE
  5
71
330
1F
100
AcDbEntity
  8
0
100
AcDbSpline
210
0.0
220
0.0
230
1.0
 70
    24
 71
     3
 72
     8
 73
     4
 74
     0
 42
0.0000000001
 43
0.0000000001
 40
0.0
 40
0.0
 40
0.0
 40
0.0
 40
1.0
 40
1.0
 40
1.0
 40
1.0
 10
5.098385826771653
 20
0.0966929133858268
 30
0.0
 10
5.098385826771653
 20
0.0966929133858268
 30
0.0
 10
6.454834645669291
 20
-1.444318897637795
 30
0.0
 10
6.454834645669291
 20
-1.444318897637795
 30
0.0
  0
SPLINE
  5
72
330
1F
100
AcDbEntity
  8
0
100
AcDbSpline
210
0.0
220
0.0
230
1.0
 70
    24
 71
     3
 72
     8
 73
     4
 74
     0
 42
0.0000000001
 43
0.0000000001
 40
0.0
 40
0.0
 40
0.0
 40
0.0
 40
1.0
 40
1.0
 40
1.0
 40
1.0
 10
6.454834645669291
 20
-1.444318897637795
 30
0.0
 10
6.454834645669291
 20
-1.444318897637795
 30
0.0
 10
5.953854330708662
 20
-1.444318897637795
 30
0.0
 10
5.953854330708662
 20
-1.444318897637795
 30
0.0
  0
SPLINE
  5
73
330
1F
100
AcDbEntity
  8
0
100
AcDbSpline
210
0.0
220
0.0
230
1.0
 70
    24
 71
     3
 72
     8
 73
     4
 74
     0
 42
0.0000000001
 43
0.0000000001
 40
0.0
 40
0.0
 40
0.0
 40
0.0
 40
1.0
 40
1.0
 40
1.0
 40
1.0
 10
5.953854330708662
 20
-1.444318897637795
 30
0.0
 10
5.953854330708662
 20
-1.444318897637795
 30
0.0
 10
4.805417322834646
 20
-0.1493976377952756
 30
0.0
 10
4.805417322834646
 20
-0.1493976377952756
 30
0.0
  0
SPLINE
  5
74
330
1F
100
AcDbEntity
  8
0
100
AcDbSpline
210
0.0
220
0.0
230
1.0
 70
    24
 71
     3
 72
     8
 73
     4
 74
     0
 42
0.0000000001
 43
0.0000000001
 40
0.0
 40
0.0
 40
0.0
 40
0.0
 40
1.0
 40
1.0
 40
1.0
 40
1.0
 10
4.805417322834646
 20
-0.1493976377952756
 30
0.0
 10
4.805417322834646
 20
-0.1493976377952756
 30
0.0
 10
4.515374015748032
 20
-0.4599448818897638
 30
0.0
 10
4.515374015748032
 20
-0.4599448818897638
 30
0.0
  0
SPLINE
  5
75
330
1F
100
AcDbEntity
  8
0
100
AcDbSpline
210
0.0
220
0.0
230
1.0
 70
    24
 71
     3
 72
     8
 73
     4
 74
     0
 42
0.0000000001
 43
0.0000000001
 40
0.0
 40
0.0
 40
0.0
 40
0.0
 40
1.0
 40
1.0
 40
1.0
 40
1.0
 10
4.515374015748032
 20
-0.4599448818897638
 30
0.0
 10
4.515374015748032
 20
-0.4599448818897638
 30
0.0
 10
4.515374015748032
 20
-1.444318897637795
 30
0.0
 10
4.515374015748032
 20
-1.444318897637795
 30
0.0
  0
SPLINE
  5
76
330
1F
100
AcDbEntity
  8
0
100
AcDbSpline
210
0.0
220
0.0
230
1.0
 70
    24
 71
     3
 72
     8
 73
     4
 74
     0
 42
0.0000000001
 43
0.0000000001
 40
0.0
 40
0.0
 40
0.0
 40
0.0
 40
1.0
 40
1.0
 40
1.0
 40
1.0
 10
4.515374015748032
 20
-1.444318897637795
 30
0.0
 10
4.515374015748032
 20
-1.444318897637795
 30
0.0
 10
4.128665354330709
 20
-1.444318897637795
 30
0.0
 10
4.128665354330709
 20
-1.444318897637795
 30
0.0
  0
POLYLINE
  5
77
330
1F
100
AcDbEntity
  8
0
 62
   250
100
AcDb2dPolyline
 66
     1
 10
0.0
 20
0.0
 30
0.0
 70
     1
  0
VERTEX
  5
79
330
77
100
AcDbEntity
  8
0
 62
   250
100
AcDbVertex
100
AcDb2dVertex
 10
-6.859275590551182
 20
-1.857720472440945
 30
0.0
  0
VERTEX
  5
7A
330
77
100
AcDbEntity
  8
0
 62
   250
100
AcDbVertex
100
AcDb2dVertex
 10
6.859275590551182
 20
-1.857720472440945
 30
0.0
  0
VERTEX
  5
7B
330
77
100
AcDbEntity
  8
0
 62
   250
100
AcDbVertex
100
AcDb2dVertex
 10
6.859275590551182
 20
1.857720472440945
 30
0.0
  0
VERTEX
  5
7C
330
77
100
AcDbEntity
  8
0
 62
   250
100
AcDbVertex
100
AcDb2dVertex
 10
-6.859275590551182
 20
1.857720472440945
 30
0.0
  0
VERTEX
  5
7D
330
77
100
AcDbEntity
  8
0
 62
   250
100
AcDbVertex
100
AcDb2dVertex
 10
-6.859275590551182
 20
-1.857720472440945
 30
0.0
  0
SEQEND
  5
78
330
77
100
AcDbEntity
  8
0
 62
   250
  0
ENDSEC
  0
SECTION
  2
OBJECTS
  0
DICTIONARY
  5
C
330
0
100
AcDbDictionary
  3
ACAD_GROUP
350
D
  3
ACAD_LAYOUT
350
1A
  3
ACAD_MLINESTYLE
350
17
  3
ACAD_PLOTSETTINGS
350
19
1001
ACAD
1000
TREAT_AS_HARD
1070
     0
  0
DICTIONARY
  5
7E
330
29
100
AcDbDictionary
  3
ACAD_XREC_ROUNDTRIP
360
7F
  0
DICTIONARY
  5
D
102
{ACAD_REACTORS
330
C
102
}
330
C
100
AcDbDictionary
1001
ACAD
1000
TREAT_AS_HARD
1070
     0
  0
DICTIONARY
  5
1A
102
{ACAD_REACTORS
330
C
102
}
330
C
100
AcDbDictionary
1001
ACAD
1000
TREAT_AS_HARD
1070
     0
  0
DICTIONARY
  5
17
102
{ACAD_REACTORS
330
C
102
}
330
C
100
AcDbDictionary
  3
STANDARD
350
18
1001
ACAD
1000
TREAT_AS_HARD
1070
     0
  0
DICTIONARY
  5
19
102
{ACAD_REACTORS
330
C
102
}
330
C
100
AcDbDictionary
1001
ACAD
1000
TREAT_AS_HARD
1070
     0
  0
XRECORD
  5
7F
102
{ACAD_REACTORS
330
7E
102
}
330
7E
100
AcDbXrecord
102
UCS
 74
     0
 71
     1
 10
0.0
 20
0.0
 30
0.0
 10
1.0
 20
0.0
 30
0.0
 10
0.0
 20
1.0
 30
0.0
146
0.0
 79
     0
102
VIEW
281
     0
  0
MLINESTYLE
  5
18
102
{ACAD_REACTORS
330
17
102
}
330
17
100
AcDbMlineStyle
  2
Standard
 70
     0
  3

 62
   256
 51
90.0
 52
90.0
 71
     2
 49
0.5
 62
   256
  6
BYLAYER
 49
-0.5
 62
   256
  6
BYLAYER
  0
ENDSEC
  0
EOF
