  0
SECTION
  2
ENTITIES
  0
CIRCLE
  8
APS_GEOMETRY
 10
-41.269126
 20
-53.311
 40
0.1875
  0
CIRCLE
  8
APS_GEOMETRY
 10
-9.769126
 20
-53.311
 40
0.1875
  0
LINE
  8
APS_GEOMETRY
 10
-46.519126
 11
-43.700447
 20
-58.561
 21
-58.561
  0
ARC
  8
APS_GEOMETRY
 10
-50.56577
 20
-51.761202
 40
9.662811
 50
315.274738
 51
338.446677
  0
ARC
  8
APS_GEOMETRY
 10
-25.519126
 20
-226.87425
 40
172.313251
 50
84.652306
 51
95.347694
  0
ARC
  8
APS_GEOMETRY
 10
-0.472482
 20
-51.761202
 40
9.662811
 50
201.553323
 51
224.725262
  0
LINE
  8
APS_GEOMETRY
 10
-7.337805
 11
-4.519126
 20
-58.561
 21
-58.561
  0
ARC
  8
APS_GEOMETRY
 10
-0.472482
 20
-51.761202
 40
7.912811
 50
182.171321
 51
239.242597
  0
LINE
  8
APS_GEOMETRY
 10
-8.379611
 11
-42.658641
 20
-52.061
 21
-52.061
  0
ARC
  8
APS_GEOMETRY
 10
-50.56577
 20
-51.761202
 40
7.912811
 50
300.757403
 51
357.828679
  0
LINE
  8
APS_GEOMETRY
 10
-9.806931
 11
-9.806931
 20
-52.76636
 21
-49.924449
  0
LINE
  8
APS_GEOMETRY
 10
-9.806931
 11
-9.378271
 20
-52.76636
 21
-51.756917
  0
LINE
  8
APS_GEOMETRY
 10
-9.378271
 11
-10.200034
 20
-51.756917
 21
-51.756917
  0
LINE
  8
APS_GEOMETRY
 10
-10.200034
 11
-9.806931
 20
-51.756917
 21
-52.76636
  0
LINE
  8
APS_GEOMETRY
 10
-41.195334
 11
-41.195334
 20
-52.76636
 21
-49.924449
  0
LINE
  8
APS_GEOMETRY
 10
-41.195334
 11
-40.766674
 20
-52.76636
 21
-51.756917
  0
LINE
  8
APS_GEOMETRY
 10
-40.766674
 11
-41.588437
 20
-51.756917
 21
-51.756917
  0
LINE
  8
APS_GEOMETRY
 10
-41.588437
 11
-41.195334
 20
-51.756917
 21
-52.76636
  0
TEXT
  8
TEXT
 10
-11.519259
 20
-49.062333
 30
0.0
 40
1.0
 50
0.0
  1
Drill .375"
  0
TEXT
  8
TEXT
 10
-42.907662
 20
-49.062333
 30
0.0
 40
1.0
 50
0.0
  1
Drill .375"
  0
TEXT
  8
TEXT
 10
-32.504854
 20
-58.637236
 30
0.0
 40
1.0
 50
0.0
  1
make 2
  0
TEXT
  8
TEXT
 10
-32.504854
 20
-60.137236
 30
0.0
 40
1.0
 50
0.0
  1

  0
ENDSEC
  0
EOF
