  0
SECTION
  2
HEADER
  9
$ACADVER
  1
AC1018
  9
$ACADMAINTVER
 70
     0
  9
$DWGCODEPAGE
  3
ANSI_932
  9
$INSBASE
 10
0.0
 20
0.0
 30
0.0
  9
$EXTMIN
 10
1.000000000000000E+20
 20
1.000000000000000E+20
 30
1.000000000000000E+20
  9
$EXTMAX
 10
-1.000000000000000E+20
 20
-1.000000000000000E+20
 30
-1.000000000000000E+20
  9
$LIMMIN
 10
0.0
 20
0.0
  9
$LIMMAX
 10
12.0
 20
9.0
  9
$ORTHOMODE
 70
     0
  9
$REGENMODE
 70
     1
  9
$FILLMODE
 70
     1
  9
$QTEXTMODE
 70
     0
  9
$MIRRTEXT
 70
     1
  9
$LTSCALE
 40
1.0
  9
$ATTMODE
 70
     1
  9
$TEXTSIZE
 40
0.2
  9
$TRACEWID
 40
0.05
  9
$TEXTSTYLE
  7
Standard
  9
$CLAYER
  8
0
  9
$CELTYPE
  6
ByLayer
  9
$CECOLOR
 62
   256
  9
$CELTSCALE
 40
1.0
  9
$DISPSILH
 70
     0
  9
$DIMSCALE
 40
1.0
  9
$DIMASZ
 40
0.18
  9
$DIMEXO
 40
0.0625
  9
$DIMDLI
 40
0.38
  9
$DIMRND
 40
0.0
  9
$DIMDLE
 40
0.0
  9
$DIMEXE
 40
0.18
  9
$DIMTP
 40
0.0
  9
$DIMTM
 40
0.0
  9
$DIMTXT
 40
0.18
  9
$DIMCEN
 40
0.09
  9
$DIMTSZ
 40
0.0
  9
$DIMTOL
 70
     0
  9
$DIMLIM
 70
     0
  9
$DIMTIH
 70
     1
  9
$DIMTOH
 70
     1
  9
$DIMSE1
 70
     0
  9
$DIMSE2
 70
     0
  9
$DIMTAD
 70
     0
  9
$DIMZIN
 70
     0
  9
$DIMBLK
  1

  9
$DIMASO
 70
     1
  9
$DIMSHO
 70
     1
  9
$DIMPOST
  1

  9
$DIMAPOST
  1

  9
$DIMALT
 70
     0
  9
$DIMALTD
 70
     2
  9
$DIMALTF
 40
25.4
  9
$DIMLFAC
 40
1.0
  9
$DIMTOFL
 70
     0
  9
$DIMTVP
 40
0.0
  9
$DIMTIX
 70
     0
  9
$DIMSOXD
 70
     0
  9
$DIMSAH
 70
     0
  9
$DIMBLK1
  1

  9
$DIMBLK2
  1

  9
$DIMSTYLE
  2
Standard
  9
$DIMCLRD
 70
     0
  9
$DIMCLRE
 70
     0
  9
$DIMCLRT
 70
     0
  9
$DIMTFAC
 40
1.0
  9
$DIMGAP
 40
0.09
  9
$DIMJUST
 70
     0
  9
$DIMSD1
 70
     0
  9
$DIMSD2
 70
     0
  9
$DIMTOLJ
 70
     1
  9
$DIMTZIN
 70
     0
  9
$DIMALTZ
 70
     0
  9
$DIMALTTZ
 70
     0
  9
$DIMUPT
 70
     0
  9
$DIMDEC
 70
     4
  9
$DIMTDEC
 70
     4
  9
$DIMALTU
 70
     2
  9
$DIMALTTD
 70
     2
  9
$DIMTXSTY
  7
Standard
  9
$DIMAUNIT
 70
     0
  9
$DIMADEC
 70
     0
  9
$DIMALTRND
 40
0.0
  9
$DIMAZIN
 70
     0
  9
$DIMDSEP
 70
    46
  9
$DIMATFIT
 70
     3
  9
$DIMFRAC
 70
     0
  9
$DIMLDRBLK
  1

  9
$DIMLUNIT
 70
     2
  9
$DIMLWD
 70
    -2
  9
$DIMLWE
 70
    -2
  9
$DIMTMOVE
 70
     0
  9
$LUNITS
 70
     2
  9
$LUPREC
 70
     4
  9
$SKETCHINC
 40
0.1
  9
$FILLETRAD
 40
0.5
  9
$AUNITS
 70
     0
  9
$AUPREC
 70
     0
  9
$MENU
  1
.
  9
$ELEVATION
 40
0.0
  9
$PELEVATION
 40
0.0
  9
$THICKNESS
 40
0.0
  9
$LIMCHECK
 70
     0
  9
$CHAMFERA
 40
0.5
  9
$CHAMFERB
 40
0.5
  9
$CHAMFERC
 40
1.0
  9
$CHAMFERD
 40
0.0
  9
$SKPOLY
 70
     0
  9
$TDCREATE
 40
2456770.329479167
  9
$TDUCREATE
 40
2456770.329479167
  9
$TDUPDATE
 40
2456770.329479178
  9
$TDUUPDATE
 40
2456770.329479178
  9
$TDINDWG
 40
0.0000000116
  9
$TDUSRTIMER
 40
0.0000000116
  9
$USRTIMER
 70
     1
  9
$ANGBASE
 50
0.0
  9
$ANGDIR
 70
     0
  9
$PDMODE
 70
     0
  9
$PDSIZE
 40
0.0
  9
$PLINEWID
 40
0.0
  9
$SPLFRAME
 70
     0
  9
$SPLINETYPE
 70
     6
  9
$SPLINESEGS
 70
     8
  9
$HANDSEED
  5
98
  9
$SURFTAB1
 70
     6
  9
$SURFTAB2
 70
     6
  9
$SURFTYPE
 70
     6
  9
$SURFU
 70
     6
  9
$SURFV
 70
     6
  9
$UCSBASE
  2

  9
$UCSNAME
  2

  9
$UCSORG
 10
0.0
 20
0.0
 30
0.0
  9
$UCSXDIR
 10
1.0
 20
0.0
 30
0.0
  9
$UCSYDIR
 10
0.0
 20
1.0
 30
0.0
  9
$UCSORTHOREF
  2

  9
$UCSORTHOVIEW
 70
     0
  9
$UCSORGTOP
 10
0.0
 20
0.0
 30
0.0
  9
$UCSORGBOTTOM
 10
0.0
 20
0.0
 30
0.0
  9
$UCSORGLEFT
 10
0.0
 20
0.0
 30
0.0
  9
$UCSORGRIGHT
 10
0.0
 20
0.0
 30
0.0
  9
$UCSORGFRONT
 10
0.0
 20
0.0
 30
0.0
  9
$UCSORGBACK
 10
0.0
 20
0.0
 30
0.0
  9
$PUCSBASE
  2

  9
$PUCSNAME
  2

  9
$PUCSORG
 10
0.0
 20
0.0
 30
0.0
  9
$PUCSXDIR
 10
1.0
 20
0.0
 30
0.0
  9
$PUCSYDIR
 10
0.0
 20
1.0
 30
0.0
  9
$PUCSORTHOREF
  2

  9
$PUCSORTHOVIEW
 70
     0
  9
$PUCSORGTOP
 10
0.0
 20
0.0
 30
0.0
  9
$PUCSORGBOTTOM
 10
0.0
 20
0.0
 30
0.0
  9
$PUCSORGLEFT
 10
0.0
 20
0.0
 30
0.0
  9
$PUCSORGRIGHT
 10
0.0
 20
0.0
 30
0.0
  9
$PUCSORGFRONT
 10
0.0
 20
0.0
 30
0.0
  9
$PUCSORGBACK
 10
0.0
 20
0.0
 30
0.0
  9
$USERI1
 70
     0
  9
$USERI2
 70
     0
  9
$USERI3
 70
     0
  9
$USERI4
 70
     0
  9
$USERI5
 70
     0
  9
$USERR1
 40
0.0
  9
$USERR2
 40
0.0
  9
$USERR3
 40
0.0
  9
$USERR4
 40
0.0
  9
$USERR5
 40
0.0
  9
$WORLDVIEW
 70
     1
  9
$SHADEDGE
 70
     3
  9
$SHADEDIF
 70
    70
  9
$TILEMODE
 70
     1
  9
$MAXACTVP
 70
    64
  9
$PINSBASE
 10
0.0
 20
0.0
 30
0.0
  9
$PLIMCHECK
 70
     0
  9
$PEXTMIN
 10
1.000000000000000E+20
 20
1.000000000000000E+20
 30
1.000000000000000E+20
  9
$PEXTMAX
 10
-1.000000000000000E+20
 20
-1.000000000000000E+20
 30
-1.000000000000000E+20
  9
$PLIMMIN
 10
0.0
 20
0.0
  9
$PLIMMAX
 10
12.0
 20
9.0
  9
$UNITMODE
 70
     0
  9
$VISRETAIN
 70
     1
  9
$PLINEGEN
 70
     0
  9
$PSLTSCALE
 70
     1
  9
$TREEDEPTH
 70
  3020
  9
$CMLSTYLE
  2
Standard
  9
$CMLJUST
 70
     0
  9
$CMLSCALE
 40
1.0
  9
$PROXYGRAPHICS
 70
     1
  9
$MEASUREMENT
 70
     0
  9
$CELWEIGHT
370
    -1
  9
$ENDCAPS
280
     0
  9
$JOINSTYLE
280
     0
  9
$LWDISPLAY
290
     1
  9
$INSUNITS
 70
     1
  9
$HYPERLINKBASE
  1

  9
$STYLESHEET
  1

  9
$XEDIT
290
     1
  9
$CEPSNTYPE
380
     0
  9
$PSTYLEMODE
290
     1
  9
$FINGERPRINTGUID
  2
{96F38B6C-0837-04FB-6542-D5B09723C7D8}
  9
$VERSIONGUID
  2
{FAEB1C32-E019-11D5-929B-00C0DF256EC4}
  9
$EXTNAMES
290
     1
  9
$PSVPSCALE
 40
0.0
  9
$OLESTARTUP
290
     0
  9
$SORTENTS
280
   127
  9
$INDEXCTL
280
     0
  9
$HIDETEXT
280
     1
  9
$XCLIPFRAME
290
     0
  9
$HALOGAP
280
     0
  9
$OBSCOLOR
 70
   257
  9
$OBSLTYPE
280
     0
  9
$INTERSECTIONDISPLAY
280
     0
  9
$INTERSECTIONCOLOR
 70
   257
  9
$DIMASSOC
280
     2
  9
$PROJECTNAME
  1

  0
ENDSEC
  0
SECTION
  2
CLASSES
  0
CLASS
  1
ACDBDICTIONARYWDFLT
  2
AcDbDictionaryWithDefault
  3
ObjectDBX Classes
 90
        0
 91
        3
280
     0
281
     0
  0
CLASS
  1
VISUALSTYLE
  2
AcDbVisualStyle
  3
ObjectDBX Classes
 90
     4095
 91
        3
280
     0
281
     0
  0
ENDSEC
  0
SECTION
  2
TABLES
  0
TABLE
  2
VPORT
  5
8
330
0
100
AcDbSymbolTable
 70
     1
  0
VPORT
  5
29
330
8
100
AcDbSymbolTableRecord
100
AcDbViewportTableRecord
  2
*Active
 70
     0
 10
0.0
 20
0.0
 11
1.0
 21
1.0
 12
0.0
 22
0.0
 13
0.0
 23
0.0
 14
0.5
 24
0.5
 15
0.5
 25
0.5
 16
0.0
 26
0.0
 36
1.0
 17
148.4999796178229
 27
-209.9997571632119
 37
0.0
 40
419.9995143264238
 41
0.7071435778014196
 42
50.0
 43
0.0
 44
0.0
 50
0.0
 51
0.0
 71
     0
 72
   100
 73
     1
 74
     3
 75
     0
 76
     0
 77
     0
 78
     0
281
     0
 65
     1
110
0.0
120
0.0
130
0.0
111
1.0
121
0.0
131
0.0
112
0.0
122
1.0
132
0.0
 79
     0
146
0.0
  0
ENDTAB
  0
TABLE
  2
LTYPE
  5
5
330
0
100
AcDbSymbolTable
 70
     1
  0
LTYPE
  5
14
330
5
100
AcDbSymbolTableRecord
100
AcDbLinetypeTableRecord
  2
ByBlock
 70
     0
  3

 72
    65
 73
     0
 40
0.0
  0
LTYPE
  5
15
330
5
100
AcDbSymbolTableRecord
100
AcDbLinetypeTableRecord
  2
ByLayer
 70
     0
  3

 72
    65
 73
     0
 40
0.0
  0
LTYPE
  5
16
330
5
100
AcDbSymbolTableRecord
100
AcDbLinetypeTableRecord
  2
Continuous
 70
     0
  3
Solid line
 72
    65
 73
     0
 40
0.0
  0
ENDTAB
  0
TABLE
  2
LAYER
  5
2
330
0
100
AcDbSymbolTable
 70
     2
  0
LAYER
  5
10
330
2
100
AcDbSymbolTableRecord
100
AcDbLayerTableRecord
  2
0
 70
     0
 62
     7
  6
Continuous
370
    -3
390
F
  0
LAYER
  5
3B
330
2
100
AcDbSymbolTableRecord
100
AcDbLayerTableRecord
  2
Layer 1
 70
     0
 62
     7
  6
Continuous
370
    -3
390
F
  0
ENDTAB
  0
TABLE
  2
STYLE
  5
3
330
0
100
AcDbSymbolTable
 70
     1
  0
STYLE
  5
11
330
3
100
AcDbSymbolTableRecord
100
AcDbTextStyleTableRecord
  2
Standard
 70
     0
 40
0.0
 41
1.0
 50
0.0
 71
     0
 42
0.2
  3
txt
  4

  0
ENDTAB
  0
TABLE
  2
VIEW
  5
6
330
0
100
AcDbSymbolTable
 70
     0
  0
ENDTAB
  0
TABLE
  2
UCS
  5
7
330
0
100
AcDbSymbolTable
 70
     0
  0
ENDTAB
  0
TABLE
  2
APPID
  5
9
330
0
100
AcDbSymbolTable
 70
     1
  0
APPID
  5
12
330
9
100
AcDbSymbolTableRecord
100
AcDbRegAppTableRecord
  2
ACAD
 70
     0
  0
ENDTAB
  0
TABLE
  2
DIMSTYLE
  5
A
330
0
100
AcDbSymbolTable
 70
     1
100
AcDbDimStyleTable
  0
DIMSTYLE
105
27
330
A
100
AcDbSymbolTableRecord
100
AcDbDimStyleTableRecord
  2
Standard
 70
     0
340
11
  0
ENDTAB
  0
TABLE
  2
BLOCK_RECORD
  5
1
330
0
100
AcDbSymbolTable
 70
     6
  0
BLOCK_RECORD
  5
1F
330
1
100
AcDbSymbolTableRecord
100
AcDbBlockTableRecord
  2
*Model_Space
340
22
  0
BLOCK_RECORD
  5
1B
330
1
100
AcDbSymbolTableRecord
100
AcDbBlockTableRecord
  2
*Paper_Space
340
1E
  0
BLOCK_RECORD
  5
23
330
1
100
AcDbSymbolTableRecord
100
AcDbBlockTableRecord
  2
*Paper_Space0
340
26
  0
BLOCK_RECORD
  5
56
330
1
100
AcDbSymbolTableRecord
100
AcDbBlockTableRecord
  2
block 2
340
0
102
{BLKREFS
331
57
102
}
  0
BLOCK_RECORD
  5
6D
330
1
100
AcDbSymbolTableRecord
100
AcDbBlockTableRecord
  2
block 3
340
0
102
{BLKREFS
331
6E
102
}
  0
BLOCK_RECORD
  5
76
330
1
100
AcDbSymbolTableRecord
100
AcDbBlockTableRecord
  2
block 4
340
0
102
{BLKREFS
331
77
102
}
  0
BLOCK_RECORD
  5
82
330
1
100
AcDbSymbolTableRecord
100
AcDbBlockTableRecord
  2
block 5
340
0
102
{BLKREFS
331
83
102
}
  0
BLOCK_RECORD
  5
8E
330
1
100
AcDbSymbolTableRecord
100
AcDbBlockTableRecord
  2
block 6
340
0
102
{BLKREFS
331
8F
102
}
  0
ENDTAB
  0
ENDSEC
  0
SECTION
  2
BLOCKS
  0
BLOCK
  5
20
330
1F
100
AcDbEntity
  8
0
100
AcDbBlockBegin
  2
*Model_Space
 70
     0
 71
     0
 10
0.0
 20
0.0
 30
0.0
  3
*Model_Space
  1

  0
ENDBLK
  5
21
330
1F
100
AcDbEntity
  8
0
100
AcDbBlockEnd
  0
BLOCK
  5
1C
330
1B
100
AcDbEntity
 67
     1
  8
0
100
AcDbBlockBegin
  2
*Paper_Space
 70
     0
 71
     0
 10
0.0
 20
0.0
 30
0.0
  3
*Paper_Space
  1

  0
ENDBLK
  5
1D
330
1B
100
AcDbEntity
 67
     1
  8
0
100
AcDbBlockEnd
  0
BLOCK
  5
24
330
23
100
AcDbEntity
  8
0
100
AcDbBlockBegin
  2
*Paper_Space0
 70
     0
 71
     0
 10
0.0
 20
0.0
 30
0.0
  3
*Paper_Space0
  1

  0
ENDBLK
  5
25
330
23
100
AcDbEntity
  8
0
100
AcDbBlockEnd
  0
BLOCK
  5
58
330
56
100
AcDbEntity
  8
0
100
AcDbBlockBegin
  2
block 2
 70
     0
 71
     0
 10
0.0
 20
0.0
 30
0.0
  3
block 2
  1

  0
POLYLINE
  5
5A
330
56
100
AcDbEntity
  8
Layer 1
 62
   179
420
  2301728
370
     9
100
AcDb2dPolyline
 66
     1
 10
0.0
 20
0.0
 30
0.0
  0
VERTEX
  5
5B
330
5A
100
AcDbEntity
  8
Layer 1
 62
   179
420
  2301728
370
     9
100
AcDbVertex
100
AcDb2dVertex
 10
213.9266492520739
 20
-286.2102646853919
 30
0.0
  0
VERTEX
  5
5C
330
5A
100
AcDbEntity
  8
Layer 1
 62
   179
420
  2301728
370
     9
100
AcDbVertex
100
AcDb2dVertex
 10
215.6843369686484
 20
-286.2102646853919
 30
0.0
  0
VERTEX
  5
5D
330
5A
100
AcDbEntity
  8
Layer 1
 62
   179
420
  2301728
370
     9
100
AcDbVertex
100
AcDb2dVertex
 10
215.6843369686484
 20
-307.2101887252808
 30
0.0
  0
VERTEX
  5
5E
330
5A
100
AcDbEntity
  8
Layer 1
 62
   179
420
  2301728
370
     9
100
AcDbVertex
100
AcDb2dVertex
 10
213.6848035490094
 20
-307.2101887252808
 30
0.0
  0
VERTEX
  5
5F
330
5A
100
AcDbEntity
  8
Layer 1
 62
   179
420
  2301728
370
     9
100
AcDbVertex
100
AcDb2dVertex
 10
213.6848035490094
 20
-323.2099011778781
 30
0.0
  0
VERTEX
  5
60
330
5A
100
AcDbEntity
  8
Layer 1
 62
   179
420
  2301728
370
     9
100
AcDbVertex
100
AcDb2dVertex
 10
210.1845865359955
 20
-323.2099011778781
 30
0.0
  0
VERTEX
  5
61
330
5A
100
AcDbEntity
  8
Layer 1
 62
   179
420
  2301728
370
     9
100
AcDbVertex
100
AcDb2dVertex
 10
210.1845865359955
 20
-307.2101887252808
 30
0.0
  0
VERTEX
  5
62
330
5A
100
AcDbEntity
  8
Layer 1
 62
   179
420
  2301728
370
     9
100
AcDbVertex
100
AcDb2dVertex
 10
208.1843640972595
 20
-307.2101887252808
 30
0.0
  0
VERTEX
  5
63
330
5A
100
AcDbEntity
  8
Layer 1
 62
   179
420
  2301728
370
     9
100
AcDbVertex
100
AcDb2dVertex
 10
208.1843640972595
 20
-286.2102646853919
 30
0.0
  0
VERTEX
  5
64
330
5A
100
AcDbEntity
  8
Layer 1
 62
   179
420
  2301728
370
     9
100
AcDbVertex
100
AcDb2dVertex
 10
209.9268933936988
 20
-286.2102646853919
 30
0.0
  0
SEQEND
  5
65
330
5A
100
AcDbEntity
  8
Layer 1
370
     9
  0
SPLINE
  5
66
330
56
100
AcDbEntity
  8
Layer 1
 62
   179
420
  2301728
370
     9
100
AcDbSpline
210
0.0
220
0.0
230
1.0
 70
     8
 71
     3
 72
    23
 73
    19
 74
     0
 42
0.0000000001
 43
0.0000000001
 40
0.0
 40
0.0
 40
0.0
 40
0.0
 40
1.0
 40
1.0
 40
1.0
 40
2.0
 40
2.0
 40
2.0
 40
3.0
 40
3.0
 40
3.0
 40
4.0
 40
4.0
 40
4.0
 40
5.0
 40
5.0
 40
5.0
 40
6.0
 40
6.0
 40
6.0
 40
6.0
 10
211.9346950425025
 20
-261.2415906464952
 30
0.0
 10
223.532608993596
 20
-261.2415906464952
 30
0.0
 10
232.9346190823914
 20
-271.3150498453657
 30
0.0
 10
232.9346190823914
 20
-283.7415092606619
 30
0.0
 10
232.9346190823914
 20
-283.7415092606619
 30
0.0
 10
232.9346190823914
 20
-310.7414115976619
 30
0.0
 10
232.9346190823914
 20
-310.7414115976619
 30
0.0
 10
232.9346190823914
 20
-323.1678710129581
 30
0.0
 10
223.532608993596
 20
-333.2413302118286
 30
0.0
 10
211.9346950425025
 20
-333.2413302118286
 30
0.0
 10
211.9346950425025
 20
-333.2413302118286
 30
0.0
 10
211.9346950425025
 20
-333.2413302118286
 30
0.0
 10
211.9346950425025
 20
-333.2413302118286
 30
0.0
 10
200.3364365818603
 20
-333.2413302118286
 30
0.0
 10
190.934426493065
 20
-323.1678710129581
 30
0.0
 10
190.934426493065
 20
-310.7414115976619
 30
0.0
 10
190.934426493065
 20
-310.7414115976619
 30
0.0
 10
190.934426493065
 20
-285.1030109964326
 30
0.0
 10
190.934426493065
 20
-285.1030109964326
 30
0.0
  0
SPLINE
  5
67
330
56
100
AcDbEntity
  8
Layer 1
 62
   179
420
  2301728
370
     9
100
AcDbSpline
210
0.0
220
0.0
230
1.0
 70
     8
 71
     3
 72
    20
 73
    16
 74
     0
 42
0.0000000001
 43
0.0000000001
 40
0.0
 40
0.0
 40
0.0
 40
0.0
 40
1.0
 40
1.0
 40
1.0
 40
2.0
 40
2.0
 40
2.0
 40
3.0
 40
3.0
 40
3.0
 40
4.0
 40
4.0
 40
4.0
 40
5.0
 40
5.0
 40
5.0
 40
5.0
 10
190.934426493065
 20
-286.2102646853919
 30
0.0
 10
190.934426493065
 20
-286.2102646853919
 30
0.0
 10
190.934426493065
 20
-286.2102646853919
 30
0.0
 10
190.934426493065
 20
-286.2102646853919
 30
0.0
 10
190.934426493065
 20
-280.9633842613564
 30
0.0
 10
195.1877413791545
 20
-276.7100693752669
 30
0.0
 10
200.43462180319
 20
-276.7100693752669
 30
0.0
 10
200.43462180319
 20
-276.7100693752669
 30
0.0
 10
200.43462180319
 20
-276.7100693752669
 30
0.0
 10
200.43462180319
 20
-276.7100693752669
 30
0.0
 10
205.6815022272255
 20
-276.7100693752669
 30
0.0
 10
209.9344726037664
 20
-280.9633842613564
 30
0.0
 10
209.9344726037664
 20
-286.2102646853919
 30
0.0
 10
209.9344726037664
 20
-286.2102646853919
 30
0.0
 10
209.9344726037664
 20
-286.2102646853919
 30
0.0
 10
209.9344726037664
 20
-286.2102646853919
 30
0.0
  0
SPLINE
  5
68
330
56
100
AcDbEntity
  8
Layer 1
 62
   179
420
  2301728
370
     9
100
AcDbSpline
210
0.0
220
0.0
230
1.0
 70
     8
 71
     3
 72
    20
 73
    16
 74
     0
 42
0.0000000001
 43
0.0000000001
 40
0.0
 40
0.0
 40
0.0
 40
0.0
 40
1.0
 40
1.0
 40
1.0
 40
2.0
 40
2.0
 40
2.0
 40
3.0
 40
3.0
 40
3.0
 40
4.0
 40
4.0
 40
4.0
 40
5.0
 40
5.0
 40
5.0
 40
5.0
 10
186.9343261251414
 20
-286.2102646853919
 30
0.0
 10
186.9343261251414
 20
-286.2102646853919
 30
0.0
 10
186.9343261251414
 20
-286.2102646853919
 30
0.0
 10
186.9343261251414
 20
-286.2102646853919
 30
0.0
 10
186.9343261251414
 20
-278.7543890362142
 30
0.0
 10
192.9787461540123
 20
-272.7099690073434
 30
0.0
 10
200.43462180319
 20
-272.7099690073434
 30
0.0
 10
200.43462180319
 20
-272.7099690073434
 30
0.0
 10
200.43462180319
 20
-272.7099690073434
 30
0.0
 10
200.43462180319
 20
-272.7099690073434
 30
0.0
 10
207.8908419619162
 20
-272.7099690073434
 30
0.0
 10
213.93457297169
 20
-278.7543890362142
 30
0.0
 10
213.93457297169
 20
-286.2102646853919
 30
0.0
 10
213.93457297169
 20
-286.2102646853919
 30
0.0
 10
213.93457297169
 20
-286.2102646853919
 30
0.0
 10
213.93457297169
 20
-286.2102646853919
 30
0.0
  0
SPLINE
  5
69
330
56
100
AcDbEntity
  8
Layer 1
 62
   179
420
  2301728
370
     9
100
AcDbSpline
210
0.0
220
0.0
230
1.0
 70
     8
 71
     3
 72
     8
 73
     4
 74
     0
 42
0.0000000001
 43
0.0000000001
 40
0.0
 40
0.0
 40
0.0
 40
0.0
 40
1.0
 40
1.0
 40
1.0
 40
1.0
 10
211.9346950425025
 20
-261.2415906464952
 30
0.0
 10
225.7416042187382
 20
-261.2415906464952
 30
0.0
 10
236.9343749407664
 20
-272.4340168589748
 30
0.0
 10
236.9343749407664
 20
-286.2412705447591
 30
0.0
  0
SPLINE
  5
6A
330
56
100
AcDbEntity
  8
Layer 1
 62
   179
420
  2301728
370
     9
100
AcDbSpline
210
0.0
220
0.0
230
1.0
 70
     8
 71
     3
 72
    20
 73
    16
 74
     0
 42
0.0000000001
 43
0.0000000001
 40
0.0
 40
0.0
 40
0.0
 40
0.0
 40
1.0
 40
1.0
 40
1.0
 40
2.0
 40
2.0
 40
2.0
 40
3.0
 40
3.0
 40
3.0
 40
4.0
 40
4.0
 40
4.0
 40
5.0
 40
5.0
 40
5.0
 40
5.0
 10
236.9343749407664
 20
-284.6620387743206
 30
0.0
 10
236.9343749407664
 20
-284.6620387743206
 30
0.0
 10
236.9343749407664
 20
-312.2414061719397
 30
0.0
 10
236.9343749407664
 20
-312.2414061719397
 30
0.0
 10
236.9343749407664
 20
-326.048659857724
 30
0.0
 10
225.7416042187382
 20
-337.2414305797521
 30
0.0
 10
211.9346950425025
 20
-337.2414305797521
 30
0.0
 10
211.9346950425025
 20
-337.2414305797521
 30
0.0
 10
211.9346950425025
 20
-337.2414305797521
 30
0.0
 10
211.9346950425025
 20
-337.2414305797521
 30
0.0
 10
198.1274413567182
 20
-337.2414305797521
 30
0.0
 10
186.93467063469
 20
-326.048659857724
 30
0.0
 10
186.93467063469
 20
-312.2414061719397
 30
0.0
 10
186.93467063469
 20
-312.2414061719397
 30
0.0
 10
186.9343261251414
 20
-284.9266221075878
 30
0.0
 10
186.9343261251414
 20
-284.9266221075878
 30
0.0
  0
ENDBLK
  5
59
330
56
100
AcDbEntity
  8
0
100
AcDbBlockEnd
  0
BLOCK
  5
6F
330
6D
100
AcDbEntity
  8
0
100
AcDbBlockBegin
  2
block 3
 70
     0
 71
     0
 10
0.0
 20
0.0
 30
0.0
  3
block 3
  1

  0
SPLINE
  5
71
330
6D
100
AcDbEntity
  8
Layer 1
370
     0
100
AcDbSpline
210
0.0
220
0.0
230
1.0
 70
    11
 71
     3
 72
    59
 73
    55
 74
     0
 42
0.0000000001
 43
0.0000000001
 40
0.0
 40
0.0
 40
0.0
 40
0.0
 40
1.0
 40
1.0
 40
1.0
 40
2.0
 40
2.0
 40
2.0
 40
3.0
 40
3.0
 40
3.0
 40
4.0
 40
4.0
 40
4.0
 40
5.0
 40
5.0
 40
5.0
 40
6.0
 40
6.0
 40
6.0
 40
7.0
 40
7.0
 40
7.0
 40
8.0
 40
8.0
 40
8.0
 40
9.0
 40
9.0
 40
9.0
 40
10.0
 40
10.0
 40
10.0
 40
11.0
 40
11.0
 40
11.0
 40
12.0
 40
12.0
 40
12.0
 40
13.0
 40
13.0
 40
13.0
 40
14.0
 40
14.0
 40
14.0
 40
15.0
 40
15.0
 40
15.0
 40
16.0
 40
16.0
 40
16.0
 40
17.0
 40
17.0
 40
17.0
 40
18.0
 40
18.0
 40
18.0
 40
18.0
 10
233.4169324503263
 20
-150.9465141766731
 30
0.0
 10
233.4169324503263
 20
-150.9465141766731
 30
0.0
 10
233.708732037927
 20
-151.3864528701395
 30
0.0
 10
233.708732037927
 20
-151.3864528701395
 30
0.0
 10
233.7852131576995
 20
-151.5008300402498
 30
0.0
 10
233.8486029146281
 20
-151.606594471647
 30
0.0
 10
233.916126786139
 20
-151.7206271322087
 30
0.0
 10
233.916126786139
 20
-151.7206271322087
 30
0.0
 10
233.9288736394345
 20
-151.7206271322087
 30
0.0
 10
233.9288736394345
 20
-151.7206271322087
 30
0.0
 10
233.9967420204939
 20
-151.5979817329338
 30
0.0
 10
234.0642658920048
 20
-151.4922173015367
 30
0.0
 10
234.1321342730642
 20
-151.3823187555572
 30
0.0
 10
234.1321342730642
 20
-151.3823187555572
 30
0.0
 10
234.4197997460826
 20
-150.9465141766731
 30
0.0
 10
234.4197997460826
 20
-150.9465141766731
 30
0.0
 10
234.4197997460826
 20
-150.9465141766731
 30
0.0
 10
234.8214978796627
 20
-150.9465141766731
 30
0.0
 10
234.8214978796627
 20
-150.9465141766731
 30
0.0
 10
234.8214978796627
 20
-150.9465141766731
 30
0.0
 10
234.1235215343511
 20
-151.9366346191339
 30
0.0
 10
234.1235215343511
 20
-151.9366346191339
 30
0.0
 10
234.1235215343511
 20
-151.9366346191339
 30
0.0
 10
234.8428574716712
 20
-152.9942789331056
 30
0.0
 10
234.8428574716712
 20
-152.9942789331056
 30
0.0
 10
234.8428574716712
 20
-152.9942789331056
 30
0.0
 10
234.4197997460826
 20
-152.9942789331056
 30
0.0
 10
234.4197997460826
 20
-152.9942789331056
 30
0.0
 10
234.4197997460826
 20
-152.9942789331056
 30
0.0
 10
234.1193874197688
 20
-152.5329806476306
 30
0.0
 10
234.1193874197688
 20
-152.5329806476306
 30
0.0
 10
234.0387721854139
 20
-152.4144693629381
 30
0.0
 10
233.971248313903
 20
-152.3004367023763
 30
0.0
 10
233.8992458182613
 20
-152.1777913031014
 30
0.0
 10
233.8992458182613
 20
-152.1777913031014
 30
0.0
 10
233.8909775890967
 20
-152.1777913031014
 30
0.0
 10
233.8909775890967
 20
-152.1777913031014
 30
0.0
 10
233.8231092080373
 20
-152.3004367023763
 30
0.0
 10
233.7511067123956
 20
-152.4103352483558
 30
0.0
 10
233.6749701021716
 20
-152.5329806476306
 30
0.0
 10
233.6749701021716
 20
-152.5329806476306
 30
0.0
 10
233.3790363999886
 20
-152.9942789331056
 30
0.0
 10
233.3790363999886
 20
-152.9942789331056
 30
0.0
 10
233.3790363999886
 20
-152.9942789331056
 30
0.0
 10
232.9683810181468
 20
-152.9942789331056
 30
0.0
 10
232.9683810181468
 20
-152.9942789331056
 30
0.0
 10
232.9683810181468
 20
-152.9942789331056
 30
0.0
 10
233.6963296941801
 20
-151.9493814724293
 30
0.0
 10
233.6963296941801
 20
-151.9493814724293
 30
0.0
 10
233.6963296941801
 20
-151.9493814724293
 30
0.0
 10
233.0021429539023
 20
-150.9465141766731
 30
0.0
 10
233.0021429539023
 20
-150.9465141766731
 30
0.0
 10
233.0021429539023
 20
-150.9465141766731
 30
0.0
 10
233.4169324503263
 20
-150.9465141766731
 30
0.0
 10
233.4169324503263
 20
-150.9465141766731
 30
0.0
  0
HATCH
  5
72
330
6D
100
AcDbEntity
  8
Layer 1
 62
   179
420
  2301728
100
AcDbHatch
 10
0.0
 20
0.0
 30
0.0
210
0.0
220
0.0
230
1.0
  2
SOLID
 70
     1
 71
     0
 91
        1
 92
        1
 93
        1
 72
     4
 94
        3
 73
     0
 74
     1
 95
       59
 96
       55
 40
0.0
 40
0.0
 40
0.0
 40
0.0
 40
1.0
 40
1.0
 40
1.0
 40
2.0
 40
2.0
 40
2.0
 40
3.0
 40
3.0
 40
3.0
 40
4.0
 40
4.0
 40
4.0
 40
5.0
 40
5.0
 40
5.0
 40
6.0
 40
6.0
 40
6.0
 40
7.0
 40
7.0
 40
7.0
 40
8.0
 40
8.0
 40
8.0
 40
9.0
 40
9.0
 40
9.0
 40
10.0
 40
10.0
 40
10.0
 40
11.0
 40
11.0
 40
11.0
 40
12.0
 40
12.0
 40
12.0
 40
13.0
 40
13.0
 40
13.0
 40
14.0
 40
14.0
 40
14.0
 40
15.0
 40
15.0
 40
15.0
 40
16.0
 40
16.0
 40
16.0
 40
17.0
 40
17.0
 40
17.0
 40
18.0
 40
18.0
 40
18.0
 40
18.0
 10
233.4169324503263
 20
-150.9465141766731
 10
233.4169324503263
 20
-150.9465141766731
 10
233.708732037927
 20
-151.3864528701395
 10
233.708732037927
 20
-151.3864528701395
 10
233.7852131576995
 20
-151.5008300402498
 10
233.8486029146281
 20
-151.606594471647
 10
233.916126786139
 20
-151.7206271322087
 10
233.916126786139
 20
-151.7206271322087
 10
233.9288736394345
 20
-151.7206271322087
 10
233.9288736394345
 20
-151.7206271322087
 10
233.9967420204939
 20
-151.5979817329338
 10
234.0642658920048
 20
-151.4922173015367
 10
234.1321342730642
 20
-151.3823187555572
 10
234.1321342730642
 20
-151.3823187555572
 10
234.4197997460826
 20
-150.9465141766731
 10
234.4197997460826
 20
-150.9465141766731
 10
234.4197997460826
 20
-150.9465141766731
 10
234.8214978796627
 20
-150.9465141766731
 10
234.8214978796627
 20
-150.9465141766731
 10
234.8214978796627
 20
-150.9465141766731
 10
234.1235215343511
 20
-151.9366346191339
 10
234.1235215343511
 20
-151.9366346191339
 10
234.1235215343511
 20
-151.9366346191339
 10
234.8428574716712
 20
-152.9942789331056
 10
234.8428574716712
 20
-152.9942789331056
 10
234.8428574716712
 20
-152.9942789331056
 10
234.4197997460826
 20
-152.9942789331056
 10
234.4197997460826
 20
-152.9942789331056
 10
234.4197997460826
 20
-152.9942789331056
 10
234.1193874197688
 20
-152.5329806476306
 10
234.1193874197688
 20
-152.5329806476306
 10
234.0387721854139
 20
-152.4144693629381
 10
233.971248313903
 20
-152.3004367023763
 10
233.8992458182613
 20
-152.1777913031014
 10
233.8992458182613
 20
-152.1777913031014
 10
233.8909775890967
 20
-152.1777913031014
 10
233.8909775890967
 20
-152.1777913031014
 10
233.8231092080373
 20
-152.3004367023763
 10
233.7511067123956
 20
-152.4103352483558
 10
233.6749701021716
 20
-152.5329806476306
 10
233.6749701021716
 20
-152.5329806476306
 10
233.3790363999886
 20
-152.9942789331056
 10
233.3790363999886
 20
-152.9942789331056
 10
233.3790363999886
 20
-152.9942789331056
 10
232.9683810181468
 20
-152.9942789331056
 10
232.9683810181468
 20
-152.9942789331056
 10
232.9683810181468
 20
-152.9942789331056
 10
233.6963296941801
 20
-151.9493814724293
 10
233.6963296941801
 20
-151.9493814724293
 10
233.6963296941801
 20
-151.9493814724293
 10
233.0021429539023
 20
-150.9465141766731
 10
233.0021429539023
 20
-150.9465141766731
 10
233.0021429539023
 20
-150.9465141766731
 10
233.4169324503263
 20
-150.9465141766731
 10
233.4169324503263
 20
-150.9465141766731
 97
        0
 75
     2
 76
     1
 98
        0
  0
SPLINE
  5
73
330
6D
100
AcDbEntity
  8
Layer 1
370
     0
100
AcDbSpline
210
0.0
220
0.0
230
1.0
 70
    11
 71
     3
 72
    47
 73
    43
 74
     0
 42
0.0000000001
 43
0.0000000001
 40
0.0
 40
0.0
 40
0.0
 40
0.0
 40
1.0
 40
1.0
 40
1.0
 40
2.0
 40
2.0
 40
2.0
 40
3.0
 40
3.0
 40
3.0
 40
4.0
 40
4.0
 40
4.0
 40
5.0
 40
5.0
 40
5.0
 40
6.0
 40
6.0
 40
6.0
 40
7.0
 40
7.0
 40
7.0
 40
8.0
 40
8.0
 40
8.0
 40
9.0
 40
9.0
 40
9.0
 40
10.0
 40
10.0
 40
10.0
 40
11.0
 40
11.0
 40
11.0
 40
12.0
 40
12.0
 40
12.0
 40
13.0
 40
13.0
 40
13.0
 40
14.0
 40
14.0
 40
14.0
 40
14.0
 10
235.0850476842843
 20
-152.9942789331056
 30
0.0
 10
235.0850476842843
 20
-152.9942789331056
 30
0.0
 10
235.0850476842843
 20
-152.7658691024335
 30
0.0
 10
235.0850476842843
 20
-152.7658691024335
 30
0.0
 10
235.0850476842843
 20
-152.7658691024335
 30
0.0
 10
235.376847271885
 20
-152.4823377439975
 30
0.0
 10
235.376847271885
 20
-152.4823377439975
 30
0.0
 10
236.0793022413274
 20
-151.813989219859
 30
0.0
 10
236.3965955355189
 20
-151.4584553657812
 30
0.0
 10
236.4007296501012
 20
-151.0436658693571
 30
0.0
 10
236.4007296501012
 20
-150.7646131350519
 30
0.0
 10
236.2653373975309
 20
-150.5065754832067
 30
0.0
 10
235.8550265252376
 20
-150.5065754832067
 30
0.0
 10
235.605257102557
 20
-150.5065754832067
 30
0.0
 10
235.397862354345
 20
-150.6333549970639
 30
0.0
 10
235.2710828404878
 20
-150.7391194284611
 30
0.0
 10
235.2710828404878
 20
-150.7391194284611
 30
0.0
 10
235.1525715557952
 20
-150.4769476620336
 30
0.0
 10
235.1525715557952
 20
-150.4769476620336
 30
0.0
 10
235.3430853361295
 20
-150.3160617028724
 30
0.0
 10
235.6138698412701
 20
-150.1975504181798
 30
0.0
 10
235.9311631354617
 20
-150.1975504181798
 30
0.0
 10
236.5233750493761
 20
-150.1975504181798
 30
0.0
 10
236.7731444720567
 20
-150.6037271758908
 30
0.0
 10
236.7731444720567
 20
-150.9971570803063
 30
0.0
 10
236.7731444720567
 20
-151.5049641548321
 30
0.0
 10
236.4048637646835
 20
-151.9152750271253
 30
0.0
 10
235.8253987040645
 20
-152.4737250052844
 30
0.0
 10
235.8253987040645
 20
-152.4737250052844
 30
0.0
 10
235.605257102557
 20
-152.6769856389141
 30
0.0
 10
235.605257102557
 20
-152.6769856389141
 30
0.0
 10
235.605257102557
 20
-152.6769856389141
 30
0.0
 10
235.605257102557
 20
-152.6852538680787
 30
0.0
 10
235.605257102557
 20
-152.6852538680787
 30
0.0
 10
235.605257102557
 20
-152.6852538680787
 30
0.0
 10
236.8406683435676
 20
-152.6852538680787
 30
0.0
 10
236.8406683435676
 20
-152.6852538680787
 30
0.0
 10
236.8406683435676
 20
-152.6852538680787
 30
0.0
 10
236.8406683435676
 20
-152.9942789331056
 30
0.0
 10
236.8406683435676
 20
-152.9942789331056
 30
0.0
 10
236.8406683435676
 20
-152.9942789331056
 30
0.0
 10
235.0850476842843
 20
-152.9942789331056
 30
0.0
 10
235.0850476842843
 20
-152.9942789331056
 30
0.0
  0
HATCH
  5
74
330
6D
100
AcDbEntity
  8
Layer 1
 62
   179
420
  2301728
100
AcDbHatch
 10
0.0
 20
0.0
 30
0.0
210
0.0
220
0.0
230
1.0
  2
SOLID
 70
     1
 71
     0
 91
        1
 92
        1
 93
        1
 72
     4
 94
        3
 73
     0
 74
     1
 95
       47
 96
       43
 40
0.0
 40
0.0
 40
0.0
 40
0.0
 40
1.0
 40
1.0
 40
1.0
 40
2.0
 40
2.0
 40
2.0
 40
3.0
 40
3.0
 40
3.0
 40
4.0
 40
4.0
 40
4.0
 40
5.0
 40
5.0
 40
5.0
 40
6.0
 40
6.0
 40
6.0
 40
7.0
 40
7.0
 40
7.0
 40
8.0
 40
8.0
 40
8.0
 40
9.0
 40
9.0
 40
9.0
 40
10.0
 40
10.0
 40
10.0
 40
11.0
 40
11.0
 40
11.0
 40
12.0
 40
12.0
 40
12.0
 40
13.0
 40
13.0
 40
13.0
 40
14.0
 40
14.0
 40
14.0
 40
14.0
 10
235.0850476842843
 20
-152.9942789331056
 10
235.0850476842843
 20
-152.9942789331056
 10
235.0850476842843
 20
-152.7658691024335
 10
235.0850476842843
 20
-152.7658691024335
 10
235.0850476842843
 20
-152.7658691024335
 10
235.376847271885
 20
-152.4823377439975
 10
235.376847271885
 20
-152.4823377439975
 10
236.0793022413274
 20
-151.813989219859
 10
236.3965955355189
 20
-151.4584553657812
 10
236.4007296501012
 20
-151.0436658693571
 10
236.4007296501012
 20
-150.7646131350519
 10
236.2653373975309
 20
-150.5065754832067
 10
235.8550265252376
 20
-150.5065754832067
 10
235.605257102557
 20
-150.5065754832067
 10
235.397862354345
 20
-150.6333549970639
 10
235.2710828404878
 20
-150.7391194284611
 10
235.2710828404878
 20
-150.7391194284611
 10
235.1525715557952
 20
-150.4769476620336
 10
235.1525715557952
 20
-150.4769476620336
 10
235.3430853361295
 20
-150.3160617028724
 10
235.6138698412701
 20
-150.1975504181798
 10
235.9311631354617
 20
-150.1975504181798
 10
236.5233750493761
 20
-150.1975504181798
 10
236.7731444720567
 20
-150.6037271758908
 10
236.7731444720567
 20
-150.9971570803063
 10
236.7731444720567
 20
-151.5049641548321
 10
236.4048637646835
 20
-151.9152750271253
 10
235.8253987040645
 20
-152.4737250052844
 10
235.8253987040645
 20
-152.4737250052844
 10
235.605257102557
 20
-152.6769856389141
 10
235.605257102557
 20
-152.6769856389141
 10
235.605257102557
 20
-152.6769856389141
 10
235.605257102557
 20
-152.6852538680787
 10
235.605257102557
 20
-152.6852538680787
 10
235.605257102557
 20
-152.6852538680787
 10
236.8406683435676
 20
-152.6852538680787
 10
236.8406683435676
 20
-152.6852538680787
 10
236.8406683435676
 20
-152.6852538680787
 10
236.8406683435676
 20
-152.9942789331056
 10
236.8406683435676
 20
-152.9942789331056
 10
236.8406683435676
 20
-152.9942789331056
 10
235.0850476842843
 20
-152.9942789331056
 10
235.0850476842843
 20
-152.9942789331056
 97
        0
 75
     2
 76
     1
 98
        0
  0
ENDBLK
  5
70
330
6D
100
AcDbEntity
  8
0
100
AcDbBlockEnd
  0
BLOCK
  5
78
330
76
100
AcDbEntity
  8
0
100
AcDbBlockBegin
  2
block 4
 70
     0
 71
     0
 10
0.0
 20
0.0
 30
0.0
  3
block 4
  1

  0
POLYLINE
  5
7A
330
76
100
AcDbEntity
  8
Layer 1
 62
   179
420
  2301728
370
     9
100
AcDb2dPolyline
 66
     1
 10
0.0
 20
0.0
 30
0.0
  0
VERTEX
  5
7B
330
7A
100
AcDbEntity
  8
Layer 1
 62
   179
420
  2301728
370
     9
100
AcDbVertex
100
AcDb2dVertex
 10
243.6974418878604
 20
-551.6807100400313
 30
0.0
  0
VERTEX
  5
7C
330
7A
100
AcDbEntity
  8
Layer 1
 62
   179
420
  2301728
370
     9
100
AcDbVertex
100
AcDb2dVertex
 10
33.69751246987423
 20
-551.6807100400313
 30
0.0
  0
VERTEX
  5
7D
330
7A
100
AcDbEntity
  8
Layer 1
 62
   179
420
  2301728
370
     9
100
AcDbVertex
100
AcDb2dVertex
 10
33.69751246987423
 20
-451.6809569183298
 30
0.0
  0
VERTEX
  5
7E
330
7A
100
AcDbEntity
  8
Layer 1
 62
   179
420
  2301728
370
     9
100
AcDbVertex
100
AcDb2dVertex
 10
243.6974418878604
 20
-451.6809569183298
 30
0.0
  0
VERTEX
  5
7F
330
7A
100
AcDbEntity
  8
Layer 1
 62
   179
420
  2301728
370
     9
100
AcDbVertex
100
AcDb2dVertex
 10
243.6974418878604
 20
-551.6807100400313
 30
0.0
  0
SEQEND
  5
80
330
7A
100
AcDbEntity
  8
Layer 1
370
     9
  0
SPLINE
  5
81
330
76
100
AcDbEntity
  8
Layer 1
 62
   179
420
  2301728
370
     9
100
AcDbSpline
210
0.0
220
0.0
230
1.0
 70
    11
 71
     3
 72
    26
 73
    22
 74
     0
 42
0.0000000001
 43
0.0000000001
 40
0.0
 40
0.0
 40
0.0
 40
0.0
 40
1.0
 40
1.0
 40
1.0
 40
2.0
 40
2.0
 40
2.0
 40
3.0
 40
3.0
 40
3.0
 40
4.0
 40
4.0
 40
4.0
 40
5.0
 40
5.0
 40
5.0
 40
6.0
 40
6.0
 40
6.0
 40
7.0
 40
7.0
 40
7.0
 40
7.0
 10
89.48911130575273
 20
-470.0677760326567
 30
0.0
 10
89.48911130575273
 20
-470.0677760326567
 30
0.0
 10
89.48911130575273
 20
-480.3179686299205
 30
0.0
 10
89.48911130575273
 20
-480.3179686299205
 30
0.0
 10
83.82881942348725
 20
-480.3179686299205
 30
0.0
 10
79.23960772758593
 20
-484.9068358162733
 30
0.0
 10
79.23960772758593
 20
-490.5678167176358
 30
0.0
 10
79.23960772758593
 20
-496.2284531094498
 30
0.0
 10
83.82881942348725
 20
-500.8173202958026
 30
0.0
 10
89.48911130575273
 20
-500.8173202958026
 30
0.0
 10
89.48911130575273
 20
-500.8173202958026
 30
0.0
 10
89.48911130575273
 20
-511.067857402615
 30
0.0
 10
89.48911130575273
 20
-511.067857402615
 30
0.0
 10
89.48911130575273
 20
-511.067857402615
 30
0.0
 10
161.2390814484055
 20
-511.067857402615
 30
0.0
 10
161.2390814484055
 20
-511.067857402615
 30
0.0
 10
161.2390814484055
 20
-511.067857402615
 30
0.0
 10
161.2390814484055
 20
-470.0677760326567
 30
0.0
 10
161.2390814484055
 20
-470.0677760326567
 30
0.0
 10
161.2390814484055
 20
-470.0677760326567
 30
0.0
 10
89.48911130575273
 20
-470.0677760326567
 30
0.0
 10
89.48911130575273
 20
-470.0677760326567
 30
0.0
  0
ENDBLK
  5
79
330
76
100
AcDbEntity
  8
0
100
AcDbBlockEnd
  0
BLOCK
  5
84
330
82
100
AcDbEntity
  8
0
100
AcDbBlockBegin
  2
block 5
 70
     0
 71
     0
 10
0.0
 20
0.0
 30
0.0
  3
block 5
  1

  0
POLYLINE
  5
86
330
82
100
AcDbEntity
  8
Layer 1
 62
   179
420
  2301728
370
     9
100
AcDb2dPolyline
 66
     1
 10
0.0
 20
0.0
 30
0.0
  0
VERTEX
  5
87
330
86
100
AcDbEntity
  8
Layer 1
 62
   179
420
  2301728
370
     9
100
AcDbVertex
100
AcDb2dVertex
 10
243.6974418878604
 20
-448.430164818448
 30
0.0
  0
VERTEX
  5
88
330
86
100
AcDbEntity
  8
Layer 1
 62
   179
420
  2301728
370
     9
100
AcDbVertex
100
AcDb2dVertex
 10
33.69751246987423
 20
-448.430164818448
 30
0.0
  0
VERTEX
  5
89
330
86
100
AcDbEntity
  8
Layer 1
 62
   179
420
  2301728
370
     9
100
AcDbVertex
100
AcDb2dVertex
 10
33.69751246987423
 20
-348.4304116967466
 30
0.0
  0
VERTEX
  5
8A
330
86
100
AcDbEntity
  8
Layer 1
 62
   179
420
  2301728
370
     9
100
AcDbVertex
100
AcDb2dVertex
 10
243.6974418878604
 20
-348.4304116967466
 30
0.0
  0
VERTEX
  5
8B
330
86
100
AcDbEntity
  8
Layer 1
 62
   179
420
  2301728
370
     9
100
AcDbVertex
100
AcDb2dVertex
 10
243.6974418878604
 20
-448.430164818448
 30
0.0
  0
SEQEND
  5
8C
330
86
100
AcDbEntity
  8
Layer 1
370
     9
  0
SPLINE
  5
8D
330
82
100
AcDbEntity
  8
Layer 1
 62
   179
420
  2301728
370
     9
100
AcDbSpline
210
0.0
220
0.0
230
1.0
 70
    11
 71
     3
 72
   122
 73
   118
 74
     0
 42
0.0000000001
 43
0.0000000001
 40
0.0
 40
0.0
 40
0.0
 40
0.0
 40
1.0
 40
1.0
 40
1.0
 40
2.0
 40
2.0
 40
2.0
 40
3.0
 40
3.0
 40
3.0
 40
4.0
 40
4.0
 40
4.0
 40
5.0
 40
5.0
 40
5.0
 40
6.0
 40
6.0
 40
6.0
 40
7.0
 40
7.0
 40
7.0
 40
8.0
 40
8.0
 40
8.0
 40
9.0
 40
9.0
 40
9.0
 40
10.0
 40
10.0
 40
10.0
 40
11.0
 40
11.0
 40
11.0
 40
12.0
 40
12.0
 40
12.0
 40
13.0
 40
13.0
 40
13.0
 40
14.0
 40
14.0
 40
14.0
 40
15.0
 40
15.0
 40
15.0
 40
16.0
 40
16.0
 40
16.0
 40
17.0
 40
17.0
 40
17.0
 40
18.0
 40
18.0
 40
18.0
 40
19.0
 40
19.0
 40
19.0
 40
20.0
 40
20.0
 40
20.0
 40
21.0
 40
21.0
 40
21.0
 40
22.0
 40
22.0
 40
22.0
 40
23.0
 40
23.0
 40
23.0
 40
24.0
 40
24.0
 40
24.0
 40
25.0
 40
25.0
 40
25.0
 40
26.0
 40
26.0
 40
26.0
 40
27.0
 40
27.0
 40
27.0
 40
28.0
 40
28.0
 40
28.0
 40
29.0
 40
29.0
 40
29.0
 40
30.0
 40
30.0
 40
30.0
 40
31.0
 40
31.0
 40
31.0
 40
32.0
 40
32.0
 40
32.0
 40
33.0
 40
33.0
 40
33.0
 40
34.0
 40
34.0
 40
34.0
 40
35.0
 40
35.0
 40
35.0
 40
36.0
 40
36.0
 40
36.0
 40
37.0
 40
37.0
 40
37.0
 40
38.0
 40
38.0
 40
38.0
 40
39.0
 40
39.0
 40
39.0
 40
39.0
 10
179.6376138873823
 20
-374.9924423975713
 30
0.0
 10
179.6376138873823
 20
-374.9924423975713
 30
0.0
 10
180.2856363481578
 20
-367.8838323733069
 30
0.0
 10
180.2856363481578
 20
-367.8838323733069
 30
0.0
 10
180.2856363481578
 20
-367.8838323733069
 30
0.0
 10
172.759480751081
 20
-361.7687878869884
 30
0.0
 10
172.759480751081
 20
-361.7687878869884
 30
0.0
 10
172.759480751081
 20
-361.7687878869884
 30
0.0
 10
153.2395697316554
 20
-362.9449434856527
 30
0.0
 10
153.2395697316554
 20
-362.9449434856527
 30
0.0
 10
153.2395697316554
 20
-362.9449434856527
 30
0.0
 10
134.9116617501263
 20
-362.5129285118023
 30
0.0
 10
134.9116617501263
 20
-362.5129285118023
 30
0.0
 10
134.9116617501263
 20
-362.5129285118023
 30
0.0
 10
114.9590467377533
 20
-362.0423284685172
 30
0.0
 10
114.9590467377533
 20
-362.0423284685172
 30
0.0
 10
114.9590467377533
 20
-362.0423284685172
 30
0.0
 10
103.3807698309256
 20
-361.7694769060854
 30
0.0
 10
103.3807698309256
 20
-361.7694769060854
 30
0.0
 10
103.3807698309256
 20
-361.7694769060854
 30
0.0
 10
92.56213647859558
 20
-362.3572101958691
 30
0.0
 10
92.56213647859558
 20
-362.3572101958691
 30
0.0
 10
92.56213647859558
 20
-362.3572101958691
 30
0.0
 10
69.74905868481969
 20
-358.7119546629262
 30
0.0
 10
69.74905868481969
 20
-358.7119546629262
 30
0.0
 10
69.74905868481969
 20
-358.7119546629262
 30
0.0
 10
71.63076983886315
 20
-354.4786213306512
 30
0.0
 10
71.63076983886315
 20
-354.4786213306512
 30
0.0
 10
71.63076983886315
 20
-354.4786213306512
 30
0.0
 10
63.16410317431314
 20
-352.8322101982503
 30
0.0
 10
63.16410317431314
 20
-352.8322101982503
 30
0.0
 10
63.16410317431314
 20
-352.8322101982503
 30
0.0
 10
61.28273652981821
 20
-354.4786213306512
 30
0.0
 10
61.28273652981821
 20
-354.4786213306512
 30
0.0
 10
61.28273652981821
 20
-354.4786213306512
 30
0.0
 10
52.93354762131523
 20
-351.7738768651815
 30
0.0
 10
52.93354762131523
 20
-351.7738768651815
 30
0.0
 10
52.93354762131523
 20
-351.7738768651815
 30
0.0
 10
47.50993379888641
 20
-351.4796657107412
 30
0.0
 10
47.50993379888641
 20
-351.4796657107412
 30
0.0
 10
47.50993379888641
 20
-351.4796657107412
 30
0.0
 10
45.67025280976299
 20
-351.8369221125616
 30
0.0
 10
45.67025280976299
 20
-351.8369221125616
 30
0.0
 10
45.67025280976299
 20
-351.8369221125616
 30
0.0
 10
50.93263616348212
 20
-356.4764322025476
 30
0.0
 10
50.93263616348212
 20
-356.4764322025476
 30
0.0
 10
50.93263616348212
 20
-356.4764322025476
 30
0.0
 10
46.81678058725414
 20
-364.9430988670976
 30
0.0
 10
46.81678058725414
 20
-364.9430988670976
 30
0.0
 10
46.81678058725414
 20
-364.9430988670976
 30
0.0
 10
37.64455836732498
 20
-373.9978433309797
 30
0.0
 10
37.64455836732498
 20
-373.9978433309797
 30
0.0
 10
37.64455836732498
 20
-373.9978433309797
 30
0.0
 10
41.99536945564699
 20
-381.7589544401505
 30
0.0
 10
41.99536945564699
 20
-381.7589544401505
 30
0.0
 10
41.99536945564699
 20
-381.7589544401505
 30
0.0
 10
60.69328069229196
 20
-383.1704100604574
 30
0.0
 10
60.69328069229196
 20
-383.1704100604574
 30
0.0
 10
60.69328069229196
 20
-383.1704100604574
 30
0.0
 10
79.0377251321503
 20
-412.2160100965988
 30
0.0
 10
79.0377251321503
 20
-412.2160100965988
 30
0.0
 10
79.0377251321503
 20
-412.2160100965988
 30
0.0
 10
84.09443628540001
 20
-414.6854545404259
 30
0.0
 10
84.09443628540001
 20
-414.6854545404259
 30
0.0
 10
84.09443628540001
 20
-414.6854545404259
 30
0.0
 10
84.68216957518362
 20
-445.4949434650152
 30
0.0
 10
84.68216957518362
 20
-445.4949434650152
 30
0.0
 10
84.68216957518362
 20
-445.4949434650152
 30
0.0
 10
93.97221406070834
 20
-445.4949434650152
 30
0.0
 10
93.97221406070834
 20
-445.4949434650152
 30
0.0
 10
93.97221406070834
 20
-445.4949434650152
 30
0.0
 10
103.1444362806375
 20
-414.2148544971408
 30
0.0
 10
103.1444362806375
 20
-414.2148544971408
 30
0.0
 10
103.1444362806375
 20
-414.2148544971408
 30
0.0
 10
106.9474771868048
 20
-414.4890840977666
 30
0.0
 10
106.9474771868048
 20
-414.4890840977666
 30
0.0
 10
106.9467881677078
 20
-414.5448946446277
 30
0.0
 10
106.9433430722225
 20
-414.6000161723917
 30
0.0
 10
106.9433430722225
 20
-414.6565157383498
 30
0.0
 10
106.9433430722225
 20
-422.9405923421816
 30
0.0
 10
113.6592122111685
 20
-429.6564614811276
 30
0.0
 10
121.9432888150003
 20
-429.6564614811276
 30
0.0
 10
129.5541937610142
 20
-429.6564614811276
 30
0.0
 10
135.8366698879158
 20
-423.9865233315034
 30
0.0
 10
136.8085313243048
 20
-416.6412352474022
 30
0.0
 10
136.8085313243048
 20
-416.6412352474022
 30
0.0
 10
142.3027696041813
 20
-417.0370767186574
 30
0.0
 10
142.3027696041813
 20
-417.0370767186574
 30
0.0
 10
142.3027696041813
 20
-417.0370767186574
 30
0.0
 10
149.593280670067
 20
-414.4498100092348
 30
0.0
 10
149.593280670067
 20
-414.4498100092348
 30
0.0
 10
149.593280670067
 20
-414.4498100092348
 30
0.0
 10
164.4099473330295
 20
-424.0929767819976
 30
0.0
 10
164.4099473330295
 20
-424.0929767819976
 30
0.0
 10
164.4099473330295
 20
-424.0929767819976
 30
0.0
 10
170.9955918626331
 20
-445.4949434650152
 30
0.0
 10
170.9955918626331
 20
-445.4949434650152
 30
0.0
 10
170.9955918626331
 20
-445.4949434650152
 30
0.0
 10
179.3458142997816
 20
-445.4949434650152
 30
0.0
 10
179.3458142997816
 20
-445.4949434650152
 30
0.0
 10
179.3458142997816
 20
-445.4949434650152
 30
0.0
 10
179.4381428587863
 20
-417.3901990058955
 30
0.0
 10
179.4381428587863
 20
-417.3901990058955
 30
0.0
 10
179.4381428587863
 20
-417.3901990058955
 30
0.0
 10
176.4050807935724
 20
-410.4521212081509
 30
0.0
 10
176.4050807935724
 20
-410.4521212081509
 30
0.0
 10
176.4050807935724
 20
-410.4521212081509
 30
0.0
 10
177.1006455720443
 20
-402.821579217871
 30
0.0
 10
177.1006455720443
 20
-402.821579217871
 30
0.0
 10
177.6976806196381
 20
-402.8601642873058
 30
0.0
 10
178.9492838094293
 20
-402.7502657413264
 30
0.0
 10
179.9328585704682
 20
-401.3680934326441
 30
0.0
 10
179.9328585704682
 20
-401.3680934326441
 30
0.0
 10
182.2128227626065
 20
-377.2617267937054
 30
0.0
 10
182.2128227626065
 20
-377.2617267937054
 30
0.0
 10
181.9403157097233
 20
-375.7172904876679
 30
0.0
 10
180.3490261050864
 20
-375.1646971718338
 30
0.0
 10
179.6376138873823
 20
-374.9924423975713
 30
0.0
  0
ENDBLK
  5
85
330
82
100
AcDbEntity
  8
0
100
AcDbBlockEnd
  0
BLOCK
  5
90
330
8E
100
AcDbEntity
  8
0
100
AcDbBlockBegin
  2
block 6
 70
     0
 71
     0
 10
0.0
 20
0.0
 30
0.0
  3
block 6
  1

  0
SPLINE
  5
92
330
8E
100
AcDbEntity
  8
Layer 1
370
     0
100
AcDbSpline
210
0.0
220
0.0
230
1.0
 70
    11
 71
     3
 72
    59
 73
    55
 74
     0
 42
0.0000000001
 43
0.0000000001
 40
0.0
 40
0.0
 40
0.0
 40
0.0
 40
1.0
 40
1.0
 40
1.0
 40
2.0
 40
2.0
 40
2.0
 40
3.0
 40
3.0
 40
3.0
 40
4.0
 40
4.0
 40
4.0
 40
5.0
 40
5.0
 40
5.0
 40
6.0
 40
6.0
 40
6.0
 40
7.0
 40
7.0
 40
7.0
 40
8.0
 40
8.0
 40
8.0
 40
9.0
 40
9.0
 40
9.0
 40
10.0
 40
10.0
 40
10.0
 40
11.0
 40
11.0
 40
11.0
 40
12.0
 40
12.0
 40
12.0
 40
13.0
 40
13.0
 40
13.0
 40
14.0
 40
14.0
 40
14.0
 40
15.0
 40
15.0
 40
15.0
 40
16.0
 40
16.0
 40
16.0
 40
17.0
 40
17.0
 40
17.0
 40
18.0
 40
18.0
 40
18.0
 40
18.0
 10
233.4169324503263
 20
-361.2647704174963
 30
0.0
 10
233.4169324503263
 20
-361.2647704174963
 30
0.0
 10
233.708732037927
 20
-361.7047091109627
 30
0.0
 10
233.708732037927
 20
-361.7047091109627
 30
0.0
 10
233.7852131576995
 20
-361.819086281073
 30
0.0
 10
233.8486029146281
 20
-361.9248507124702
 30
0.0
 10
233.916126786139
 20
-362.038883373032
 30
0.0
 10
233.916126786139
 20
-362.038883373032
 30
0.0
 10
233.9288736394345
 20
-362.038883373032
 30
0.0
 10
233.9288736394345
 20
-362.038883373032
 30
0.0
 10
233.9967420204939
 20
-361.9162379737571
 30
0.0
 10
234.0642658920048
 20
-361.8104735423599
 30
0.0
 10
234.1321342730642
 20
-361.7005749963805
 30
0.0
 10
234.1321342730642
 20
-361.7005749963805
 30
0.0
 10
234.4197997460826
 20
-361.2647704174963
 30
0.0
 10
234.4197997460826
 20
-361.2647704174963
 30
0.0
 10
234.4197997460826
 20
-361.2647704174963
 30
0.0
 10
234.8214978796627
 20
-361.2647704174963
 30
0.0
 10
234.8214978796627
 20
-361.2647704174963
 30
0.0
 10
234.8214978796627
 20
-361.2647704174963
 30
0.0
 10
234.1235215343511
 20
-362.2548908599571
 30
0.0
 10
234.1235215343511
 20
-362.2548908599571
 30
0.0
 10
234.1235215343511
 20
-362.2548908599571
 30
0.0
 10
234.8428574716712
 20
-363.3125351739288
 30
0.0
 10
234.8428574716712
 20
-363.3125351739288
 30
0.0
 10
234.8428574716712
 20
-363.3125351739288
 30
0.0
 10
234.4197997460826
 20
-363.3125351739288
 30
0.0
 10
234.4197997460826
 20
-363.3125351739288
 30
0.0
 10
234.4197997460826
 20
-363.3125351739288
 30
0.0
 10
234.1193874197688
 20
-362.8512368884539
 30
0.0
 10
234.1193874197688
 20
-362.8512368884539
 30
0.0
 10
234.0387721854139
 20
-362.7327256037613
 30
0.0
 10
233.971248313903
 20
-362.6186929431995
 30
0.0
 10
233.8992458182613
 20
-362.4960475439246
 30
0.0
 10
233.8992458182613
 20
-362.4960475439246
 30
0.0
 10
233.8909775890967
 20
-362.4960475439246
 30
0.0
 10
233.8909775890967
 20
-362.4960475439246
 30
0.0
 10
233.8231092080373
 20
-362.6186929431995
 30
0.0
 10
233.7511067123956
 20
-362.728591489179
 30
0.0
 10
233.6749701021716
 20
-362.8512368884539
 30
0.0
 10
233.6749701021716
 20
-362.8512368884539
 30
0.0
 10
233.3790363999886
 20
-363.3125351739288
 30
0.0
 10
233.3790363999886
 20
-363.3125351739288
 30
0.0
 10
233.3790363999886
 20
-363.3125351739288
 30
0.0
 10
232.9683810181468
 20
-363.3125351739288
 30
0.0
 10
232.9683810181468
 20
-363.3125351739288
 30
0.0
 10
232.9683810181468
 20
-363.3125351739288
 30
0.0
 10
233.6963296941801
 20
-362.2676377132526
 30
0.0
 10
233.6963296941801
 20
-362.2676377132526
 30
0.0
 10
233.6963296941801
 20
-362.2676377132526
 30
0.0
 10
233.0021429539023
 20
-361.2647704174963
 30
0.0
 10
233.0021429539023
 20
-361.2647704174963
 30
0.0
 10
233.0021429539023
 20
-361.2647704174963
 30
0.0
 10
233.4169324503263
 20
-361.2647704174963
 30
0.0
 10
233.4169324503263
 20
-361.2647704174963
 30
0.0
  0
HATCH
  5
93
330
8E
100
AcDbEntity
  8
Layer 1
 62
   179
420
  2301728
100
AcDbHatch
 10
0.0
 20
0.0
 30
0.0
210
0.0
220
0.0
230
1.0
  2
SOLID
 70
     1
 71
     0
 91
        1
 92
        1
 93
        1
 72
     4
 94
        3
 73
     0
 74
     1
 95
       59
 96
       55
 40
0.0
 40
0.0
 40
0.0
 40
0.0
 40
1.0
 40
1.0
 40
1.0
 40
2.0
 40
2.0
 40
2.0
 40
3.0
 40
3.0
 40
3.0
 40
4.0
 40
4.0
 40
4.0
 40
5.0
 40
5.0
 40
5.0
 40
6.0
 40
6.0
 40
6.0
 40
7.0
 40
7.0
 40
7.0
 40
8.0
 40
8.0
 40
8.0
 40
9.0
 40
9.0
 40
9.0
 40
10.0
 40
10.0
 40
10.0
 40
11.0
 40
11.0
 40
11.0
 40
12.0
 40
12.0
 40
12.0
 40
13.0
 40
13.0
 40
13.0
 40
14.0
 40
14.0
 40
14.0
 40
15.0
 40
15.0
 40
15.0
 40
16.0
 40
16.0
 40
16.0
 40
17.0
 40
17.0
 40
17.0
 40
18.0
 40
18.0
 40
18.0
 40
18.0
 10
233.4169324503263
 20
-361.2647704174963
 10
233.4169324503263
 20
-361.2647704174963
 10
233.708732037927
 20
-361.7047091109627
 10
233.708732037927
 20
-361.7047091109627
 10
233.7852131576995
 20
-361.819086281073
 10
233.8486029146281
 20
-361.9248507124702
 10
233.916126786139
 20
-362.038883373032
 10
233.916126786139
 20
-362.038883373032
 10
233.9288736394345
 20
-362.038883373032
 10
233.9288736394345
 20
-362.038883373032
 10
233.9967420204939
 20
-361.9162379737571
 10
234.0642658920048
 20
-361.8104735423599
 10
234.1321342730642
 20
-361.7005749963805
 10
234.1321342730642
 20
-361.7005749963805
 10
234.4197997460826
 20
-361.2647704174963
 10
234.4197997460826
 20
-361.2647704174963
 10
234.4197997460826
 20
-361.2647704174963
 10
234.8214978796627
 20
-361.2647704174963
 10
234.8214978796627
 20
-361.2647704174963
 10
234.8214978796627
 20
-361.2647704174963
 10
234.1235215343511
 20
-362.2548908599571
 10
234.1235215343511
 20
-362.2548908599571
 10
234.1235215343511
 20
-362.2548908599571
 10
234.8428574716712
 20
-363.3125351739288
 10
234.8428574716712
 20
-363.3125351739288
 10
234.8428574716712
 20
-363.3125351739288
 10
234.4197997460826
 20
-363.3125351739288
 10
234.4197997460826
 20
-363.3125351739288
 10
234.4197997460826
 20
-363.3125351739288
 10
234.1193874197688
 20
-362.8512368884539
 10
234.1193874197688
 20
-362.8512368884539
 10
234.0387721854139
 20
-362.7327256037613
 10
233.971248313903
 20
-362.6186929431995
 10
233.8992458182613
 20
-362.4960475439246
 10
233.8992458182613
 20
-362.4960475439246
 10
233.8909775890967
 20
-362.4960475439246
 10
233.8909775890967
 20
-362.4960475439246
 10
233.8231092080373
 20
-362.6186929431995
 10
233.7511067123956
 20
-362.728591489179
 10
233.6749701021716
 20
-362.8512368884539
 10
233.6749701021716
 20
-362.8512368884539
 10
233.3790363999886
 20
-363.3125351739288
 10
233.3790363999886
 20
-363.3125351739288
 10
233.3790363999886
 20
-363.3125351739288
 10
232.9683810181468
 20
-363.3125351739288
 10
232.9683810181468
 20
-363.3125351739288
 10
232.9683810181468
 20
-363.3125351739288
 10
233.6963296941801
 20
-362.2676377132526
 10
233.6963296941801
 20
-362.2676377132526
 10
233.6963296941801
 20
-362.2676377132526
 10
233.0021429539023
 20
-361.2647704174963
 10
233.0021429539023
 20
-361.2647704174963
 10
233.0021429539023
 20
-361.2647704174963
 10
233.4169324503263
 20
-361.2647704174963
 10
233.4169324503263
 20
-361.2647704174963
 97
        0
 75
     2
 76
     1
 98
        0
  0
SPLINE
  5
94
330
8E
100
AcDbEntity
  8
Layer 1
370
     0
100
AcDbSpline
210
0.0
220
0.0
230
1.0
 70
    11
 71
     3
 72
    47
 73
    43
 74
     0
 42
0.0000000001
 43
0.0000000001
 40
0.0
 40
0.0
 40
0.0
 40
0.0
 40
1.0
 40
1.0
 40
1.0
 40
2.0
 40
2.0
 40
2.0
 40
3.0
 40
3.0
 40
3.0
 40
4.0
 40
4.0
 40
4.0
 40
5.0
 40
5.0
 40
5.0
 40
6.0
 40
6.0
 40
6.0
 40
7.0
 40
7.0
 40
7.0
 40
8.0
 40
8.0
 40
8.0
 40
9.0
 40
9.0
 40
9.0
 40
10.0
 40
10.0
 40
10.0
 40
11.0
 40
11.0
 40
11.0
 40
12.0
 40
12.0
 40
12.0
 40
13.0
 40
13.0
 40
13.0
 40
14.0
 40
14.0
 40
14.0
 40
14.0
 10
235.0850476842843
 20
-363.3125351739288
 30
0.0
 10
235.0850476842843
 20
-363.3125351739288
 30
0.0
 10
235.0850476842843
 20
-363.0841253432567
 30
0.0
 10
235.0850476842843
 20
-363.0841253432567
 30
0.0
 10
235.0850476842843
 20
-363.0841253432567
 30
0.0
 10
235.376847271885
 20
-362.8005939848207
 30
0.0
 10
235.376847271885
 20
-362.8005939848207
 30
0.0
 10
236.0793022413274
 20
-362.1322454606822
 30
0.0
 10
236.3965955355189
 20
-361.7767116066045
 30
0.0
 10
236.4007296501012
 20
-361.3619221101804
 30
0.0
 10
236.4007296501012
 20
-361.0828693758751
 30
0.0
 10
236.2653373975309
 20
-360.8248317240299
 30
0.0
 10
235.8550265252376
 20
-360.8248317240299
 30
0.0
 10
235.605257102557
 20
-360.8248317240299
 30
0.0
 10
235.397862354345
 20
-360.9516112378871
 30
0.0
 10
235.2710828404878
 20
-361.0573756692843
 30
0.0
 10
235.2710828404878
 20
-361.0573756692843
 30
0.0
 10
235.1525715557952
 20
-360.7952039028568
 30
0.0
 10
235.1525715557952
 20
-360.7952039028568
 30
0.0
 10
235.3430853361295
 20
-360.6343179436956
 30
0.0
 10
235.6138698412701
 20
-360.515806659003
 30
0.0
 10
235.9311631354617
 20
-360.515806659003
 30
0.0
 10
236.5233750493761
 20
-360.515806659003
 30
0.0
 10
236.7731444720567
 20
-360.9219834167139
 30
0.0
 10
236.7731444720567
 20
-361.3154133211295
 30
0.0
 10
236.7731444720567
 20
-361.8232203956553
 30
0.0
 10
236.4048637646835
 20
-362.2335312679486
 30
0.0
 10
235.8253987040645
 20
-362.7919812461076
 30
0.0
 10
235.8253987040645
 20
-362.7919812461076
 30
0.0
 10
235.605257102557
 20
-362.9952418797373
 30
0.0
 10
235.605257102557
 20
-362.9952418797373
 30
0.0
 10
235.605257102557
 20
-362.9952418797373
 30
0.0
 10
235.605257102557
 20
-363.0035101089019
 30
0.0
 10
235.605257102557
 20
-363.0035101089019
 30
0.0
 10
235.605257102557
 20
-363.0035101089019
 30
0.0
 10
236.8406683435676
 20
-363.0035101089019
 30
0.0
 10
236.8406683435676
 20
-363.0035101089019
 30
0.0
 10
236.8406683435676
 20
-363.0035101089019
 30
0.0
 10
236.8406683435676
 20
-363.3125351739288
 30
0.0
 10
236.8406683435676
 20
-363.3125351739288
 30
0.0
 10
236.8406683435676
 20
-363.3125351739288
 30
0.0
 10
235.0850476842843
 20
-363.3125351739288
 30
0.0
 10
235.0850476842843
 20
-363.3125351739288
 30
0.0
  0
HATCH
  5
95
330
8E
100
AcDbEntity
  8
Layer 1
 62
   179
420
  2301728
100
AcDbHatch
 10
0.0
 20
0.0
 30
0.0
210
0.0
220
0.0
230
1.0
  2
SOLID
 70
     1
 71
     0
 91
        1
 92
        1
 93
        1
 72
     4
 94
        3
 73
     0
 74
     1
 95
       47
 96
       43
 40
0.0
 40
0.0
 40
0.0
 40
0.0
 40
1.0
 40
1.0
 40
1.0
 40
2.0
 40
2.0
 40
2.0
 40
3.0
 40
3.0
 40
3.0
 40
4.0
 40
4.0
 40
4.0
 40
5.0
 40
5.0
 40
5.0
 40
6.0
 40
6.0
 40
6.0
 40
7.0
 40
7.0
 40
7.0
 40
8.0
 40
8.0
 40
8.0
 40
9.0
 40
9.0
 40
9.0
 40
10.0
 40
10.0
 40
10.0
 40
11.0
 40
11.0
 40
11.0
 40
12.0
 40
12.0
 40
12.0
 40
13.0
 40
13.0
 40
13.0
 40
14.0
 40
14.0
 40
14.0
 40
14.0
 10
235.0850476842843
 20
-363.3125351739288
 10
235.0850476842843
 20
-363.3125351739288
 10
235.0850476842843
 20
-363.0841253432567
 10
235.0850476842843
 20
-363.0841253432567
 10
235.0850476842843
 20
-363.0841253432567
 10
235.376847271885
 20
-362.8005939848207
 10
235.376847271885
 20
-362.8005939848207
 10
236.0793022413274
 20
-362.1322454606822
 10
236.3965955355189
 20
-361.7767116066045
 10
236.4007296501012
 20
-361.3619221101804
 10
236.4007296501012
 20
-361.0828693758751
 10
236.2653373975309
 20
-360.8248317240299
 10
235.8550265252376
 20
-360.8248317240299
 10
235.605257102557
 20
-360.8248317240299
 10
235.397862354345
 20
-360.9516112378871
 10
235.2710828404878
 20
-361.0573756692843
 10
235.2710828404878
 20
-361.0573756692843
 10
235.1525715557952
 20
-360.7952039028568
 10
235.1525715557952
 20
-360.7952039028568
 10
235.3430853361295
 20
-360.6343179436956
 10
235.6138698412701
 20
-360.515806659003
 10
235.9311631354617
 20
-360.515806659003
 10
236.5233750493761
 20
-360.515806659003
 10
236.7731444720567
 20
-360.9219834167139
 10
236.7731444720567
 20
-361.3154133211295
 10
236.7731444720567
 20
-361.8232203956553
 10
236.4048637646835
 20
-362.2335312679486
 10
235.8253987040645
 20
-362.7919812461076
 10
235.8253987040645
 20
-362.7919812461076
 10
235.605257102557
 20
-362.9952418797373
 10
235.605257102557
 20
-362.9952418797373
 10
235.605257102557
 20
-362.9952418797373
 10
235.605257102557
 20
-363.0035101089019
 10
235.605257102557
 20
-363.0035101089019
 10
235.605257102557
 20
-363.0035101089019
 10
236.8406683435676
 20
-363.0035101089019
 10
236.8406683435676
 20
-363.0035101089019
 10
236.8406683435676
 20
-363.0035101089019
 10
236.8406683435676
 20
-363.3125351739288
 10
236.8406683435676
 20
-363.3125351739288
 10
236.8406683435676
 20
-363.3125351739288
 10
235.0850476842843
 20
-363.3125351739288
 10
235.0850476842843
 20
-363.3125351739288
 97
        0
 75
     2
 76
     1
 98
        0
  0
ENDBLK
  5
91
330
8E
100
AcDbEntity
  8
0
100
AcDbBlockEnd
  0
ENDSEC
  0
SECTION
  2
ENTITIES
  0
POLYLINE
  5
3C
330
1F
100
AcDbEntity
  8
Layer 1
 62
   179
420
  2301728
370
     9
100
AcDb2dPolyline
 66
     1
 10
0.0
 20
0.0
 30
0.0
  0
VERTEX
  5
3D
330
3C
100
AcDbEntity
  8
Layer 1
 62
   179
420
  2301728
370
     9
100
AcDbVertex
100
AcDb2dVertex
 10
243.6974418878604
 20
-242.9942978993209
 30
0.0
  0
VERTEX
  5
3E
330
3C
100
AcDbEntity
  8
Layer 1
 62
   179
420
  2301728
370
     9
100
AcDbVertex
100
AcDb2dVertex
 10
33.69751246987423
 20
-242.9942978993209
 30
0.0
  0
VERTEX
  5
3F
330
3C
100
AcDbEntity
  8
Layer 1
 62
   179
420
  2301728
370
     9
100
AcDbVertex
100
AcDb2dVertex
 10
33.69751246987423
 20
-142.9945447776194
 30
0.0
  0
VERTEX
  5
40
330
3C
100
AcDbEntity
  8
Layer 1
 62
   179
420
  2301728
370
     9
100
AcDbVertex
100
AcDb2dVertex
 10
243.6974418878604
 20
-142.9945447776194
 30
0.0
  0
VERTEX
  5
41
330
3C
100
AcDbEntity
  8
Layer 1
 62
   179
420
  2301728
370
     9
100
AcDbVertex
100
AcDb2dVertex
 10
243.6974418878604
 20
-242.9942978993209
 30
0.0
  0
SEQEND
  5
42
330
3C
100
AcDbEntity
  8
Layer 1
370
     9
  0
SPLINE
  5
43
330
1F
100
AcDbEntity
  8
Layer 1
 62
   179
420
  2301728
370
     9
100
AcDbSpline
210
0.0
220
0.0
230
1.0
 70
    11
 71
     3
 72
    29
 73
    25
 74
     0
 42
0.0000000001
 43
0.0000000001
 40
0.0
 40
0.0
 40
0.0
 40
0.0
 40
1.0
 40
1.0
 40
1.0
 40
2.0
 40
2.0
 40
2.0
 40
3.0
 40
3.0
 40
3.0
 40
4.0
 40
4.0
 40
4.0
 40
5.0
 40
5.0
 40
5.0
 40
6.0
 40
6.0
 40
6.0
 40
7.0
 40
7.0
 40
7.0
 40
8.0
 40
8.0
 40
8.0
 40
8.0
 10
236.9340304312179
 20
-207.9945393360222
 30
0.0
 10
236.9340304312179
 20
-221.8017930218065
 30
0.0
 10
225.7412597091897
 20
-232.9942192342862
 30
0.0
 10
211.9343505329539
 20
-232.9942192342862
 30
0.0
 10
211.9343505329539
 20
-232.9942192342862
 30
0.0
 10
211.9343505329539
 20
-232.9942192342862
 30
0.0
 10
211.9343505329539
 20
-232.9942192342862
 30
0.0
 10
198.1270968471696
 20
-232.9942192342862
 30
0.0
 10
186.9343261251414
 20
-221.8017930218065
 30
0.0
 10
186.9343261251414
 20
-207.9945393360222
 30
0.0
 10
186.9343261251414
 20
-207.9945393360222
 30
0.0
 10
186.9343261251414
 20
-177.9943033409181
 30
0.0
 10
186.9343261251414
 20
-177.9943033409181
 30
0.0
 10
186.9343261251414
 20
-164.1873941646823
 30
0.0
 10
198.1270968471696
 20
-152.9942789331056
 30
0.0
 10
211.9343505329539
 20
-152.9942789331056
 30
0.0
 10
211.9343505329539
 20
-152.9942789331056
 30
0.0
 10
211.9343505329539
 20
-152.9942789331056
 30
0.0
 10
211.9343505329539
 20
-152.9942789331056
 30
0.0
 10
225.7412597091897
 20
-152.9942789331056
 30
0.0
 10
236.9340304312179
 20
-164.1873941646823
 30
0.0
 10
236.9340304312179
 20
-177.9943033409181
 30
0.0
 10
236.9340304312179
 20
-177.9943033409181
 30
0.0
 10
236.9340304312179
 20
-207.9945393360222
 30
0.0
 10
236.9340304312179
 20
-207.9945393360222
 30
0.0
  0
POLYLINE
  5
44
330
1F
100
AcDbEntity
  8
Layer 1
 62
   179
420
  2301728
370
     9
100
AcDb2dPolyline
 66
     1
 10
0.0
 20
0.0
 30
0.0
  0
VERTEX
  5
45
330
44
100
AcDbEntity
  8
Layer 1
 62
   179
420
  2301728
370
     9
100
AcDbVertex
100
AcDb2dVertex
 10
242.2225965106249
 20
-80.93356117768327
 30
0.0
  0
VERTEX
  5
96
330
44
100
AcDbEntity
  8
0
100
AcDbVertex
100
AcDb2dVertex
 10
242.2225965106249
 20
-80.93356117768327
 30
0.0
  0
SEQEND
  5
46
330
44
100
AcDbEntity
  8
Layer 1
370
     9
  0
POLYLINE
  5
47
330
1F
100
AcDbEntity
  8
Layer 1
 62
   179
420
  2301728
370
     9
100
AcDb2dPolyline
 66
     1
 10
0.0
 20
0.0
 30
0.0
  0
VERTEX
  5
48
330
47
100
AcDbEntity
  8
Layer 1
 62
   179
420
  2301728
370
     9
100
AcDbVertex
100
AcDb2dVertex
 10
243.6974418878604
 20
-130.9336099933083
 30
0.0
  0
VERTEX
  5
49
330
47
100
AcDbEntity
  8
Layer 1
 62
   179
420
  2301728
370
     9
100
AcDbVertex
100
AcDb2dVertex
 10
33.69751246987423
 20
-130.9336099933083
 30
0.0
  0
VERTEX
  5
4A
330
47
100
AcDbEntity
  8
Layer 1
 62
   179
420
  2301728
370
     9
100
AcDbVertex
100
AcDb2dVertex
 10
33.69751246987423
 20
-30.93368461683255
 30
0.0
  0
VERTEX
  5
4B
330
47
100
AcDbEntity
  8
Layer 1
 62
   179
420
  2301728
370
     9
100
AcDbVertex
100
AcDb2dVertex
 10
243.6974418878604
 20
-30.93368461683255
 30
0.0
  0
VERTEX
  5
4C
330
47
100
AcDbEntity
  8
Layer 1
 62
   179
420
  2301728
370
     9
100
AcDbVertex
100
AcDb2dVertex
 10
243.6974418878604
 20
-130.9336099933083
 30
0.0
  0
SEQEND
  5
4D
330
47
100
AcDbEntity
  8
Layer 1
370
     9
  0
SPLINE
  5
4E
330
1F
100
AcDbEntity
  8
Layer 1
 62
   179
420
  2301728
370
     9
100
AcDbSpline
210
0.0
220
0.0
230
1.0
 70
    11
 71
     3
 72
    71
 73
    67
 74
     0
 42
0.0000000001
 43
0.0000000001
 40
0.0
 40
0.0
 40
0.0
 40
0.0
 40
1.0
 40
1.0
 40
1.0
 40
2.0
 40
2.0
 40
2.0
 40
3.0
 40
3.0
 40
3.0
 40
4.0
 40
4.0
 40
4.0
 40
5.0
 40
5.0
 40
5.0
 40
6.0
 40
6.0
 40
6.0
 40
7.0
 40
7.0
 40
7.0
 40
8.0
 40
8.0
 40
8.0
 40
9.0
 40
9.0
 40
9.0
 40
10.0
 40
10.0
 40
10.0
 40
11.0
 40
11.0
 40
11.0
 40
12.0
 40
12.0
 40
12.0
 40
13.0
 40
13.0
 40
13.0
 40
14.0
 40
14.0
 40
14.0
 40
15.0
 40
15.0
 40
15.0
 40
16.0
 40
16.0
 40
16.0
 40
17.0
 40
17.0
 40
17.0
 40
18.0
 40
18.0
 40
18.0
 40
19.0
 40
19.0
 40
19.0
 40
20.0
 40
20.0
 40
20.0
 40
21.0
 40
21.0
 40
21.0
 40
22.0
 40
22.0
 40
22.0
 40
22.0
 10
214.8151393777198
 20
-35.91322563121267
 30
0.0
 10
214.8151393777198
 20
-35.91322563121267
 30
0.0
 10
214.8151393777198
 20
-35.87550183564918
 30
0.0
 10
214.8151393777198
 20
-35.87550183564918
 30
0.0
 10
214.8151393777198
 20
-35.87550183564918
 30
0.0
 10
201.2855603880467
 20
-35.87550183564918
 30
0.0
 10
201.2855603880467
 20
-35.87550183564918
 30
0.0
 10
201.2855603880467
 20
-35.87550183564918
 30
0.0
 10
201.2855603880467
 20
-34.11781411907472
 30
0.0
 10
201.2855603880467
 20
-34.11781411907472
 30
0.0
 10
201.2855603880467
 20
-34.11781411907472
 30
0.0
 10
180.2856363481578
 20
-34.11781411907472
 30
0.0
 10
180.2856363481578
 20
-34.11781411907472
 30
0.0
 10
180.2856363481578
 20
-34.11781411907472
 30
0.0
 10
180.2856363481578
 20
-36.11769204826224
 30
0.0
 10
180.2856363481578
 20
-36.11769204826224
 30
0.0
 10
180.2856363481578
 20
-36.11769204826224
 30
0.0
 10
164.2859238955605
 20
-36.11769204826224
 30
0.0
 10
164.2859238955605
 20
-36.11769204826224
 30
0.0
 10
164.2859238955605
 20
-36.11769204826224
 30
0.0
 10
164.2859238955605
 20
-39.61773680650182
 30
0.0
 10
164.2859238955605
 20
-39.61773680650182
 30
0.0
 10
164.2859238955605
 20
-39.61773680650182
 30
0.0
 10
180.2856363481578
 20
-39.61773680650182
 30
0.0
 10
180.2856363481578
 20
-39.61773680650182
 30
0.0
 10
180.2856363481578
 20
-39.61773680650182
 30
0.0
 10
180.2856363481578
 20
-41.61778699046361
 30
0.0
 10
180.2856363481578
 20
-41.61778699046361
 30
0.0
 10
180.2856363481578
 20
-41.61778699046361
 30
0.0
 10
201.2855603880467
 20
-41.61778699046361
 30
0.0
 10
201.2855603880467
 20
-41.61778699046361
 30
0.0
 10
201.2855603880467
 20
-41.61778699046361
 30
0.0
 10
201.2855603880467
 20
-39.87542994879851
 30
0.0
 10
201.2855603880467
 20
-39.87542994879851
 30
0.0
 10
201.2855603880467
 20
-39.87542994879851
 30
0.0
 10
212.9275715613514
 20
-39.87542994879851
 30
0.0
 10
212.9275715613514
 20
-39.87542994879851
 30
0.0
 10
212.9275715613514
 20
-39.87542994879851
 30
0.0
 10
212.4176974295345
 20
-40.94599337083989
 30
0.0
 10
212.4176974295345
 20
-40.94599337083989
 30
0.0
 10
212.2561224512763
 20
-40.94289278490317
 30
0.0
 10
212.0962700207607
 20
-40.93376328186726
 30
0.0
 10
211.9343505329539
 20
-40.93376328186726
 30
0.0
 10
198.1270968471696
 20
-40.93376328186726
 30
0.0
 10
186.9343261251414
 20
-52.12636174912119
 30
0.0
 10
186.9343261251414
 20
-65.93361543490549
 30
0.0
 10
186.9343261251414
 20
-65.93361543490549
 30
0.0
 10
186.9343261251414
 20
-95.9338514300096
 30
0.0
 10
186.9343261251414
 20
-95.9338514300096
 30
0.0
 10
186.9343261251414
 20
-109.7407606062454
 30
0.0
 10
198.1270968471696
 20
-120.9338758378221
 30
0.0
 10
211.9343505329539
 20
-120.9338758378221
 30
0.0
 10
225.7412597091897
 20
-120.9338758378221
 30
0.0
 10
236.9340304312179
 20
-109.7407606062454
 30
0.0
 10
236.9340304312179
 20
-95.9338514300096
 30
0.0
 10
236.9340304312179
 20
-95.9338514300096
 30
0.0
 10
236.9340304312179
 20
-94.44178057534789
 30
0.0
 10
236.9340304312179
 20
-94.44178057534789
 30
0.0
 10
236.9340304312179
 20
-94.44178057534789
 30
0.0
 10
236.9340304312179
 20
-65.93361543490549
 30
0.0
 10
236.9340304312179
 20
-65.93361543490549
 30
0.0
 10
236.9340304312179
 20
-65.93361543490549
 30
0.0
 10
236.9340304312179
 20
-62.6504394374624
 30
0.0
 10
236.9340304312179
 20
-62.6504394374624
 30
0.0
 10
236.9340304312179
 20
-48.01911891160633
 30
0.0
 10
228.6220485539556
 20
-35.91322563121267
 30
0.0
 10
214.8151393777198
 20
-35.91322563121267
 30
0.0
  0
POLYLINE
  5
4F
330
1F
100
AcDbEntity
  8
Layer 1
 62
   179
420
  2301728
370
     9
100
AcDb2dPolyline
 66
     1
 10
0.0
 20
0.0
 30
0.0
  0
VERTEX
  5
50
330
4F
100
AcDbEntity
  8
Layer 1
 62
   179
420
  2301728
370
     9
100
AcDbVertex
100
AcDb2dVertex
 10
243.6974418878604
 20
-347.1839761501832
 30
0.0
  0
VERTEX
  5
51
330
4F
100
AcDbEntity
  8
Layer 1
 62
   179
420
  2301728
370
     9
100
AcDbVertex
100
AcDb2dVertex
 10
33.69751246987423
 20
-347.1839761501832
 30
0.0
  0
VERTEX
  5
52
330
4F
100
AcDbEntity
  8
Layer 1
 62
   179
420
  2301728
370
     9
100
AcDbVertex
100
AcDb2dVertex
 10
33.69751246987423
 20
-247.1842230284817
 30
0.0
  0
VERTEX
  5
53
330
4F
100
AcDbEntity
  8
Layer 1
 62
   179
420
  2301728
370
     9
100
AcDbVertex
100
AcDb2dVertex
 10
243.6974418878604
 20
-247.1842230284817
 30
0.0
  0
VERTEX
  5
54
330
4F
100
AcDbEntity
  8
Layer 1
 62
   179
420
  2301728
370
     9
100
AcDbVertex
100
AcDb2dVertex
 10
243.6974418878604
 20
-347.1839761501832
 30
0.0
  0
SEQEND
  5
55
330
4F
100
AcDbEntity
  8
Layer 1
370
     9
  0
INSERT
  5
57
330
1F
100
AcDbEntity
  8
Layer 1
100
AcDbBlockReference
  2
block 2
 10
0.0
 20
0.0
 30
0.0
  0
SPLINE
  5
6B
330
1F
100
AcDbEntity
  8
Layer 1
 62
   179
420
  2301728
370
     9
100
AcDbSpline
210
0.0
220
0.0
230
1.0
 70
    11
 71
     3
 72
   125
 73
   121
 74
     0
 42
0.0000000001
 43
0.0000000001
 40
0.0
 40
0.0
 40
0.0
 40
0.0
 40
1.0
 40
1.0
 40
1.0
 40
2.0
 40
2.0
 40
2.0
 40
3.0
 40
3.0
 40
3.0
 40
4.0
 40
4.0
 40
4.0
 40
5.0
 40
5.0
 40
5.0
 40
6.0
 40
6.0
 40
6.0
 40
7.0
 40
7.0
 40
7.0
 40
8.0
 40
8.0
 40
8.0
 40
9.0
 40
9.0
 40
9.0
 40
10.0
 40
10.0
 40
10.0
 40
11.0
 40
11.0
 40
11.0
 40
12.0
 40
12.0
 40
12.0
 40
13.0
 40
13.0
 40
13.0
 40
14.0
 40
14.0
 40
14.0
 40
15.0
 40
15.0
 40
15.0
 40
16.0
 40
16.0
 40
16.0
 40
17.0
 40
17.0
 40
17.0
 40
18.0
 40
18.0
 40
18.0
 40
19.0
 40
19.0
 40
19.0
 40
20.0
 40
20.0
 40
20.0
 40
21.0
 40
21.0
 40
21.0
 40
22.0
 40
22.0
 40
22.0
 40
23.0
 40
23.0
 40
23.0
 40
24.0
 40
24.0
 40
24.0
 40
25.0
 40
25.0
 40
25.0
 40
26.0
 40
26.0
 40
26.0
 40
27.0
 40
27.0
 40
27.0
 40
28.0
 40
28.0
 40
28.0
 40
29.0
 40
29.0
 40
29.0
 40
30.0
 40
30.0
 40
30.0
 40
31.0
 40
31.0
 40
31.0
 40
32.0
 40
32.0
 40
32.0
 40
33.0
 40
33.0
 40
33.0
 40
34.0
 40
34.0
 40
34.0
 40
35.0
 40
35.0
 40
35.0
 40
36.0
 40
36.0
 40
36.0
 40
37.0
 40
37.0
 40
37.0
 40
38.0
 40
38.0
 40
38.0
 40
39.0
 40
39.0
 40
39.0
 40
40.0
 40
40.0
 40
40.0
 40
40.0
 10
179.9328585704682
 20
-83.81452227722346
 30
0.0
 10
179.9328585704682
 20
-83.81452227722346
 30
0.0
 10
182.2128227626065
 20
-59.70798338351051
 30
0.0
 10
182.2128227626065
 20
-59.70798338351051
 30
0.0
 10
181.9403157097233
 20
-58.16337482269874
 30
0.0
 10
180.3490261050864
 20
-57.61078150686467
 30
0.0
 10
179.6376138873823
 20
-57.43852673260218
 30
0.0
 10
179.6376138873823
 20
-57.43852673260218
 30
0.0
 10
180.2856363481578
 20
-50.33008896311193
 30
0.0
 10
180.2856363481578
 20
-50.33008896311193
 30
0.0
 10
180.2856363481578
 20
-50.33008896311193
 30
0.0
 10
172.759480751081
 20
-44.21504447679347
 30
0.0
 10
172.759480751081
 20
-44.21504447679347
 30
0.0
 10
172.759480751081
 20
-44.21504447679347
 30
0.0
 10
153.2395697316554
 20
-45.39120007545776
 30
0.0
 10
153.2395697316554
 20
-45.39120007545776
 30
0.0
 10
153.2395697316554
 20
-45.39120007545776
 30
0.0
 10
134.9116617501263
 20
-44.95918510160743
 30
0.0
 10
134.9116617501263
 20
-44.95918510160743
 30
0.0
 10
134.7125352310788
 20
-39.61188014417689
 30
0.0
 10
130.3172824109971
 20
-35.33720566607889
 30
0.0
 10
124.9208848429017
 20
-35.33720566607889
 30
0.0
 10
119.684339705322
 20
-35.33720566607889
 30
0.0
 10
115.3903726925066
 20
-39.36348875969038
 30
0.0
 10
114.9590467377533
 20
-44.4885850583223
 30
0.0
 10
114.9590467377533
 20
-44.4885850583223
 30
0.0
 10
103.3807698309256
 20
-44.21573349589051
 30
0.0
 10
103.3807698309256
 20
-44.21573349589051
 30
0.0
 10
103.3807698309256
 20
-44.21573349589051
 30
0.0
 10
92.56213647859558
 20
-44.80346678567413
 30
0.0
 10
92.56213647859558
 20
-44.80346678567413
 30
0.0
 10
92.56213647859558
 20
-44.80346678567413
 30
0.0
 10
69.74905868481969
 20
-41.15821125273128
 30
0.0
 10
69.74905868481969
 20
-41.15821125273128
 30
0.0
 10
69.74905868481969
 20
-41.15821125273128
 30
0.0
 10
71.63076983886315
 20
-36.92487792045628
 30
0.0
 10
71.63076983886315
 20
-36.92487792045628
 30
0.0
 10
71.63076983886315
 20
-36.92487792045628
 30
0.0
 10
63.16410317431314
 20
-35.27863904282965
 30
0.0
 10
63.16410317431314
 20
-35.27863904282965
 30
0.0
 10
63.16410317431314
 20
-35.27863904282965
 30
0.0
 10
61.28256427504395
 20
-36.92487792045628
 30
0.0
 10
61.28256427504395
 20
-36.92487792045628
 30
0.0
 10
61.28256427504395
 20
-36.92487792045628
 30
0.0
 10
52.93354762131523
 20
-34.22013345498664
 30
0.0
 10
52.93354762131523
 20
-34.22013345498664
 30
0.0
 10
52.93354762131523
 20
-34.22013345498664
 30
0.0
 10
47.50976154411214
 20
-33.92609455532056
 30
0.0
 10
47.50976154411214
 20
-33.92609455532056
 30
0.0
 10
47.50976154411214
 20
-33.92609455532056
 30
0.0
 10
45.67008055498873
 20
-34.2831787023667
 30
0.0
 10
45.67008055498873
 20
-34.2831787023667
 30
0.0
 10
45.67008055498873
 20
-34.2831787023667
 30
0.0
 10
50.93263616348212
 20
-38.92268879235267
 30
0.0
 10
50.93263616348212
 20
-38.92268879235267
 30
0.0
 10
50.93263616348212
 20
-38.92268879235267
 30
0.0
 10
46.81678058725414
 20
-47.38935545690266
 30
0.0
 10
46.81678058725414
 20
-47.38935545690266
 30
0.0
 10
46.81678058725414
 20
-47.38935545690266
 30
0.0
 10
37.64473062209924
 20
-56.44409992078481
 30
0.0
 10
37.64473062209924
 20
-56.44409992078481
 30
0.0
 10
37.64473062209924
 20
-56.44409992078481
 30
0.0
 10
41.99536945564699
 20
-64.20521102995565
 30
0.0
 10
41.99536945564699
 20
-64.20521102995565
 30
0.0
 10
41.99536945564699
 20
-64.20521102995565
 30
0.0
 10
60.69328069229196
 20
-65.6166666502625
 30
0.0
 10
60.69328069229196
 20
-65.6166666502625
 30
0.0
 10
60.69328069229196
 20
-65.6166666502625
 30
0.0
 10
79.0377251321503
 20
-94.66226668640388
 30
0.0
 10
79.0377251321503
 20
-94.66226668640388
 30
0.0
 10
79.0377251321503
 20
-94.66226668640388
 30
0.0
 10
84.09443628540001
 20
-97.13171113023097
 30
0.0
 10
84.09443628540001
 20
-97.13171113023097
 30
0.0
 10
84.09443628540001
 20
-97.13171113023097
 30
0.0
 10
84.68216957518362
 20
-127.9412000548203
 30
0.0
 10
84.68216957518362
 20
-127.9412000548203
 30
0.0
 10
84.68216957518362
 20
-127.9412000548203
 30
0.0
 10
93.97221406070834
 20
-127.9412000548203
 30
0.0
 10
93.97221406070834
 20
-127.9412000548203
 30
0.0
 10
93.97221406070834
 20
-127.9412000548203
 30
0.0
 10
103.1444362806375
 20
-96.66111108694584
 30
0.0
 10
103.1444362806375
 20
-96.66111108694584
 30
0.0
 10
103.1444362806375
 20
-96.66111108694584
 30
0.0
 10
106.9474771868048
 20
-96.93516843279747
 30
0.0
 10
106.9474771868048
 20
-96.93516843279747
 30
0.0
 10
106.946960422482
 20
-96.99132348920703
 30
0.0
 10
106.9433430722225
 20
-97.04644501697103
 30
0.0
 10
106.9433430722225
 20
-97.1026000733806
 30
0.0
 10
106.9433430722225
 20
-105.3868489319866
 30
0.0
 10
113.6590399563943
 20
-112.1025458161584
 30
0.0
 10
121.9432888150003
 20
-112.1025458161584
 30
0.0
 10
129.55402150624
 20
-112.1025458161584
 30
0.0
 10
135.8366698879158
 20
-106.4327799213085
 30
0.0
 10
136.8085313243048
 20
-99.0874918372073
 30
0.0
 10
136.8085313243048
 20
-99.0874918372073
 30
0.0
 10
142.3027696041813
 20
-99.4833333084625
 30
0.0
 10
142.3027696041813
 20
-99.4833333084625
 30
0.0
 10
142.3027696041813
 20
-99.4833333084625
 30
0.0
 10
149.593280670067
 20
-96.89606659903988
 30
0.0
 10
149.593280670067
 20
-96.89606659903988
 30
0.0
 10
149.593280670067
 20
-96.89606659903988
 30
0.0
 10
164.4099473330295
 20
-106.5392333718027
 30
0.0
 10
164.4099473330295
 20
-106.5392333718027
 30
0.0
 10
164.4099473330295
 20
-106.5392333718027
 30
0.0
 10
170.9955918626331
 20
-127.9412000548203
 30
0.0
 10
170.9955918626331
 20
-127.9412000548203
 30
0.0
 10
170.9955918626331
 20
-127.9412000548203
 30
0.0
 10
179.3458142997816
 20
-127.9412000548203
 30
0.0
 10
179.3458142997816
 20
-127.9412000548203
 30
0.0
 10
179.3458142997816
 20
-127.9412000548203
 30
0.0
 10
179.4381428587863
 20
-99.83645559570061
 30
0.0
 10
179.4381428587863
 20
-99.83645559570061
 30
0.0
 10
179.4381428587863
 20
-99.83645559570061
 30
0.0
 10
176.4050807935724
 20
-92.89837779795596
 30
0.0
 10
176.4050807935724
 20
-92.89837779795596
 30
0.0
 10
176.4050807935724
 20
-92.89837779795596
 30
0.0
 10
177.1006455720443
 20
-85.26783580767611
 30
0.0
 10
177.1006455720443
 20
-85.26783580767611
 30
0.0
 10
177.6976806196381
 20
-85.3064208771109
 30
0.0
 10
178.9492838094293
 20
-85.19635007635716
 30
0.0
 10
179.9328585704682
 20
-83.81452227722346
 30
0.0
  0
SPLINE
  5
6C
330
1F
100
AcDbEntity
  8
Layer 1
 62
   179
420
  2301728
370
     9
100
AcDbSpline
210
0.0
220
0.0
230
1.0
 70
    11
 71
     3
 72
   122
 73
   118
 74
     0
 42
0.0000000001
 43
0.0000000001
 40
0.0
 40
0.0
 40
0.0
 40
0.0
 40
1.0
 40
1.0
 40
1.0
 40
2.0
 40
2.0
 40
2.0
 40
3.0
 40
3.0
 40
3.0
 40
4.0
 40
4.0
 40
4.0
 40
5.0
 40
5.0
 40
5.0
 40
6.0
 40
6.0
 40
6.0
 40
7.0
 40
7.0
 40
7.0
 40
8.0
 40
8.0
 40
8.0
 40
9.0
 40
9.0
 40
9.0
 40
10.0
 40
10.0
 40
10.0
 40
11.0
 40
11.0
 40
11.0
 40
12.0
 40
12.0
 40
12.0
 40
13.0
 40
13.0
 40
13.0
 40
14.0
 40
14.0
 40
14.0
 40
15.0
 40
15.0
 40
15.0
 40
16.0
 40
16.0
 40
16.0
 40
17.0
 40
17.0
 40
17.0
 40
18.0
 40
18.0
 40
18.0
 40
19.0
 40
19.0
 40
19.0
 40
20.0
 40
20.0
 40
20.0
 40
21.0
 40
21.0
 40
21.0
 40
22.0
 40
22.0
 40
22.0
 40
23.0
 40
23.0
 40
23.0
 40
24.0
 40
24.0
 40
24.0
 40
25.0
 40
25.0
 40
25.0
 40
26.0
 40
26.0
 40
26.0
 40
27.0
 40
27.0
 40
27.0
 40
28.0
 40
28.0
 40
28.0
 40
29.0
 40
29.0
 40
29.0
 40
30.0
 40
30.0
 40
30.0
 40
31.0
 40
31.0
 40
31.0
 40
32.0
 40
32.0
 40
32.0
 40
33.0
 40
33.0
 40
33.0
 40
34.0
 40
34.0
 40
34.0
 40
35.0
 40
35.0
 40
35.0
 40
36.0
 40
36.0
 40
36.0
 40
37.0
 40
37.0
 40
37.0
 40
38.0
 40
38.0
 40
38.0
 40
39.0
 40
39.0
 40
39.0
 40
39.0
 10
179.6376138873823
 20
-169.4990423838405
 30
0.0
 10
179.6376138873823
 20
-169.4990423838405
 30
0.0
 10
180.2856363481578
 20
-162.390432359576
 30
0.0
 10
180.2856363481578
 20
-162.390432359576
 30
0.0
 10
180.2856363481578
 20
-162.390432359576
 30
0.0
 10
172.759480751081
 20
-156.2753878732576
 30
0.0
 10
172.759480751081
 20
-156.2753878732576
 30
0.0
 10
172.759480751081
 20
-156.2753878732576
 30
0.0
 10
153.2395697316554
 20
-157.4515434719218
 30
0.0
 10
153.2395697316554
 20
-157.4515434719218
 30
0.0
 10
153.2395697316554
 20
-157.4515434719218
 30
0.0
 10
134.9116617501263
 20
-157.0195284980715
 30
0.0
 10
134.9116617501263
 20
-157.0195284980715
 30
0.0
 10
134.9116617501263
 20
-157.0195284980715
 30
0.0
 10
114.9590467377533
 20
-156.5489284547864
 30
0.0
 10
114.9590467377533
 20
-156.5489284547864
 30
0.0
 10
114.9590467377533
 20
-156.5489284547864
 30
0.0
 10
103.3807698309256
 20
-156.2760768923546
 30
0.0
 10
103.3807698309256
 20
-156.2760768923546
 30
0.0
 10
103.3807698309256
 20
-156.2760768923546
 30
0.0
 10
92.56213647859558
 20
-156.8638101821382
 30
0.0
 10
92.56213647859558
 20
-156.8638101821382
 30
0.0
 10
92.56213647859558
 20
-156.8638101821382
 30
0.0
 10
69.74905868481969
 20
-153.2185546491954
 30
0.0
 10
69.74905868481969
 20
-153.2185546491954
 30
0.0
 10
69.74905868481969
 20
-153.2185546491954
 30
0.0
 10
71.63076983886315
 20
-148.9852213169204
 30
0.0
 10
71.63076983886315
 20
-148.9852213169204
 30
0.0
 10
71.63076983886315
 20
-148.9852213169204
 30
0.0
 10
63.16410317431314
 20
-147.3388101845195
 30
0.0
 10
63.16410317431314
 20
-147.3388101845195
 30
0.0
 10
63.16410317431314
 20
-147.3388101845195
 30
0.0
 10
61.28273652981821
 20
-148.9852213169204
 30
0.0
 10
61.28273652981821
 20
-148.9852213169204
 30
0.0
 10
61.28273652981821
 20
-148.9852213169204
 30
0.0
 10
52.93354762131523
 20
-146.2804768514507
 30
0.0
 10
52.93354762131523
 20
-146.2804768514507
 30
0.0
 10
52.93354762131523
 20
-146.2804768514507
 30
0.0
 10
47.50993379888641
 20
-145.9862656970104
 30
0.0
 10
47.50993379888641
 20
-145.9862656970104
 30
0.0
 10
47.50993379888641
 20
-145.9862656970104
 30
0.0
 10
45.67025280976299
 20
-146.3435220988308
 30
0.0
 10
45.67025280976299
 20
-146.3435220988308
 30
0.0
 10
45.67025280976299
 20
-146.3435220988308
 30
0.0
 10
50.93263616348212
 20
-150.9830321888167
 30
0.0
 10
50.93263616348212
 20
-150.9830321888167
 30
0.0
 10
50.93263616348212
 20
-150.9830321888167
 30
0.0
 10
46.81678058725414
 20
-159.4496988533668
 30
0.0
 10
46.81678058725414
 20
-159.4496988533668
 30
0.0
 10
46.81678058725414
 20
-159.4496988533668
 30
0.0
 10
37.64455836732498
 20
-168.5044433172489
 30
0.0
 10
37.64455836732498
 20
-168.5044433172489
 30
0.0
 10
37.64455836732498
 20
-168.5044433172489
 30
0.0
 10
41.99536945564699
 20
-176.2655544264197
 30
0.0
 10
41.99536945564699
 20
-176.2655544264197
 30
0.0
 10
41.99536945564699
 20
-176.2655544264197
 30
0.0
 10
60.69328069229196
 20
-177.6770100467266
 30
0.0
 10
60.69328069229196
 20
-177.6770100467266
 30
0.0
 10
60.69328069229196
 20
-177.6770100467266
 30
0.0
 10
79.0377251321503
 20
-206.722610082868
 30
0.0
 10
79.0377251321503
 20
-206.722610082868
 30
0.0
 10
79.0377251321503
 20
-206.722610082868
 30
0.0
 10
84.09443628540001
 20
-209.192054526695
 30
0.0
 10
84.09443628540001
 20
-209.192054526695
 30
0.0
 10
84.09443628540001
 20
-209.192054526695
 30
0.0
 10
84.68216957518362
 20
-240.0015434512843
 30
0.0
 10
84.68216957518362
 20
-240.0015434512843
 30
0.0
 10
84.68216957518362
 20
-240.0015434512843
 30
0.0
 10
93.97221406070834
 20
-240.0015434512843
 30
0.0
 10
93.97221406070834
 20
-240.0015434512843
 30
0.0
 10
93.97221406070834
 20
-240.0015434512843
 30
0.0
 10
103.1444362806375
 20
-208.7214544834099
 30
0.0
 10
103.1444362806375
 20
-208.7214544834099
 30
0.0
 10
103.1444362806375
 20
-208.7214544834099
 30
0.0
 10
106.9474771868048
 20
-208.9956840840358
 30
0.0
 10
106.9474771868048
 20
-208.9956840840358
 30
0.0
 10
106.9467881677078
 20
-209.0514946308969
 30
0.0
 10
106.9433430722225
 20
-209.1066161586608
 30
0.0
 10
106.9433430722225
 20
-209.163115724619
 30
0.0
 10
106.9433430722225
 20
-217.4471923284507
 30
0.0
 10
113.6592122111685
 20
-224.1630614673967
 30
0.0
 10
121.9432888150003
 20
-224.1630614673967
 30
0.0
 10
129.5541937610142
 20
-224.1630614673967
 30
0.0
 10
135.8366698879158
 20
-218.4931233177726
 30
0.0
 10
136.8085313243048
 20
-211.1478352336714
 30
0.0
 10
136.8085313243048
 20
-211.1478352336714
 30
0.0
 10
142.3027696041813
 20
-211.5436767049266
 30
0.0
 10
142.3027696041813
 20
-211.5436767049266
 30
0.0
 10
142.3027696041813
 20
-211.5436767049266
 30
0.0
 10
149.593280670067
 20
-208.956409995504
 30
0.0
 10
149.593280670067
 20
-208.956409995504
 30
0.0
 10
149.593280670067
 20
-208.956409995504
 30
0.0
 10
164.4099473330295
 20
-218.5995767682668
 30
0.0
 10
164.4099473330295
 20
-218.5995767682668
 30
0.0
 10
164.4099473330295
 20
-218.5995767682668
 30
0.0
 10
170.9955918626331
 20
-240.0015434512843
 30
0.0
 10
170.9955918626331
 20
-240.0015434512843
 30
0.0
 10
170.9955918626331
 20
-240.0015434512843
 30
0.0
 10
179.3458142997816
 20
-240.0015434512843
 30
0.0
 10
179.3458142997816
 20
-240.0015434512843
 30
0.0
 10
179.3458142997816
 20
-240.0015434512843
 30
0.0
 10
179.4381428587863
 20
-211.8967989921647
 30
0.0
 10
179.4381428587863
 20
-211.8967989921647
 30
0.0
 10
179.4381428587863
 20
-211.8967989921647
 30
0.0
 10
176.4050807935724
 20
-204.9587211944201
 30
0.0
 10
176.4050807935724
 20
-204.9587211944201
 30
0.0
 10
176.4050807935724
 20
-204.9587211944201
 30
0.0
 10
177.1006455720443
 20
-197.3281792041402
 30
0.0
 10
177.1006455720443
 20
-197.3281792041402
 30
0.0
 10
177.6976806196381
 20
-197.366764273575
 30
0.0
 10
178.9492838094293
 20
-197.2568657275955
 30
0.0
 10
179.9328585704682
 20
-195.8746934189133
 30
0.0
 10
179.9328585704682
 20
-195.8746934189133
 30
0.0
 10
182.2128227626065
 20
-171.7683267799746
 30
0.0
 10
182.2128227626065
 20
-171.7683267799746
 30
0.0
 10
181.9403157097233
 20
-170.2238904739371
 30
0.0
 10
180.3490261050864
 20
-169.671297158103
 30
0.0
 10
179.6376138873823
 20
-169.4990423838405
 30
0.0
  0
INSERT
  5
6E
330
1F
100
AcDbEntity
  8
Layer 1
100
AcDbBlockReference
  2
block 3
 10
0.0
 20
0.0
 30
0.0
  0
SPLINE
  5
75
330
1F
100
AcDbEntity
  8
Layer 1
 62
   179
420
  2301728
370
     9
100
AcDbSpline
210
0.0
220
0.0
230
1.0
 70
    11
 71
     3
 72
   122
 73
   118
 74
     0
 42
0.0000000001
 43
0.0000000001
 40
0.0
 40
0.0
 40
0.0
 40
0.0
 40
1.0
 40
1.0
 40
1.0
 40
2.0
 40
2.0
 40
2.0
 40
3.0
 40
3.0
 40
3.0
 40
4.0
 40
4.0
 40
4.0
 40
5.0
 40
5.0
 40
5.0
 40
6.0
 40
6.0
 40
6.0
 40
7.0
 40
7.0
 40
7.0
 40
8.0
 40
8.0
 40
8.0
 40
9.0
 40
9.0
 40
9.0
 40
10.0
 40
10.0
 40
10.0
 40
11.0
 40
11.0
 40
11.0
 40
12.0
 40
12.0
 40
12.0
 40
13.0
 40
13.0
 40
13.0
 40
14.0
 40
14.0
 40
14.0
 40
15.0
 40
15.0
 40
15.0
 40
16.0
 40
16.0
 40
16.0
 40
17.0
 40
17.0
 40
17.0
 40
18.0
 40
18.0
 40
18.0
 40
19.0
 40
19.0
 40
19.0
 40
20.0
 40
20.0
 40
20.0
 40
21.0
 40
21.0
 40
21.0
 40
22.0
 40
22.0
 40
22.0
 40
23.0
 40
23.0
 40
23.0
 40
24.0
 40
24.0
 40
24.0
 40
25.0
 40
25.0
 40
25.0
 40
26.0
 40
26.0
 40
26.0
 40
27.0
 40
27.0
 40
27.0
 40
28.0
 40
28.0
 40
28.0
 40
29.0
 40
29.0
 40
29.0
 40
30.0
 40
30.0
 40
30.0
 40
31.0
 40
31.0
 40
31.0
 40
32.0
 40
32.0
 40
32.0
 40
33.0
 40
33.0
 40
33.0
 40
34.0
 40
34.0
 40
34.0
 40
35.0
 40
35.0
 40
35.0
 40
36.0
 40
36.0
 40
36.0
 40
37.0
 40
37.0
 40
37.0
 40
38.0
 40
38.0
 40
38.0
 40
39.0
 40
39.0
 40
39.0
 40
39.0
 10
179.6376138873823
 20
-273.7462537293065
 30
0.0
 10
179.6376138873823
 20
-273.7462537293065
 30
0.0
 10
180.2856363481578
 20
-266.637643705042
 30
0.0
 10
180.2856363481578
 20
-266.637643705042
 30
0.0
 10
180.2856363481578
 20
-266.637643705042
 30
0.0
 10
172.759480751081
 20
-260.5225992187235
 30
0.0
 10
172.759480751081
 20
-260.5225992187235
 30
0.0
 10
172.759480751081
 20
-260.5225992187235
 30
0.0
 10
153.2395697316554
 20
-261.6987548173879
 30
0.0
 10
153.2395697316554
 20
-261.6987548173879
 30
0.0
 10
153.2395697316554
 20
-261.6987548173879
 30
0.0
 10
134.9116617501263
 20
-261.2667398435375
 30
0.0
 10
134.9116617501263
 20
-261.2667398435375
 30
0.0
 10
134.9116617501263
 20
-261.2667398435375
 30
0.0
 10
114.9590467377533
 20
-260.7961398002524
 30
0.0
 10
114.9590467377533
 20
-260.7961398002524
 30
0.0
 10
114.9590467377533
 20
-260.7961398002524
 30
0.0
 10
103.3807698309256
 20
-260.5232882378206
 30
0.0
 10
103.3807698309256
 20
-260.5232882378206
 30
0.0
 10
103.3807698309256
 20
-260.5232882378206
 30
0.0
 10
92.56213647859558
 20
-261.1110215276042
 30
0.0
 10
92.56213647859558
 20
-261.1110215276042
 30
0.0
 10
92.56213647859558
 20
-261.1110215276042
 30
0.0
 10
69.74905868481969
 20
-257.4657659946614
 30
0.0
 10
69.74905868481969
 20
-257.4657659946614
 30
0.0
 10
69.74905868481969
 20
-257.4657659946614
 30
0.0
 10
71.63076983886315
 20
-253.2324326623863
 30
0.0
 10
71.63076983886315
 20
-253.2324326623863
 30
0.0
 10
71.63076983886315
 20
-253.2324326623863
 30
0.0
 10
63.16410317431314
 20
-251.5860215299855
 30
0.0
 10
63.16410317431314
 20
-251.5860215299855
 30
0.0
 10
63.16410317431314
 20
-251.5860215299855
 30
0.0
 10
61.28273652981821
 20
-253.2324326623863
 30
0.0
 10
61.28273652981821
 20
-253.2324326623863
 30
0.0
 10
61.28273652981821
 20
-253.2324326623863
 30
0.0
 10
52.93354762131523
 20
-250.5276881969167
 30
0.0
 10
52.93354762131523
 20
-250.5276881969167
 30
0.0
 10
52.93354762131523
 20
-250.5276881969167
 30
0.0
 10
47.50993379888641
 20
-250.2334770424764
 30
0.0
 10
47.50993379888641
 20
-250.2334770424764
 30
0.0
 10
47.50993379888641
 20
-250.2334770424764
 30
0.0
 10
45.67025280976299
 20
-250.5907334442968
 30
0.0
 10
45.67025280976299
 20
-250.5907334442968
 30
0.0
 10
45.67025280976299
 20
-250.5907334442968
 30
0.0
 10
50.93263616348212
 20
-255.2302435342827
 30
0.0
 10
50.93263616348212
 20
-255.2302435342827
 30
0.0
 10
50.93263616348212
 20
-255.2302435342827
 30
0.0
 10
46.81678058725414
 20
-263.6969101988327
 30
0.0
 10
46.81678058725414
 20
-263.6969101988327
 30
0.0
 10
46.81678058725414
 20
-263.6969101988327
 30
0.0
 10
37.64455836732498
 20
-272.7516546627149
 30
0.0
 10
37.64455836732498
 20
-272.7516546627149
 30
0.0
 10
37.64455836732498
 20
-272.7516546627149
 30
0.0
 10
41.99536945564699
 20
-280.5127657718857
 30
0.0
 10
41.99536945564699
 20
-280.5127657718857
 30
0.0
 10
41.99536945564699
 20
-280.5127657718857
 30
0.0
 10
60.69328069229196
 20
-281.9242213921926
 30
0.0
 10
60.69328069229196
 20
-281.9242213921926
 30
0.0
 10
60.69328069229196
 20
-281.9242213921926
 30
0.0
 10
79.0377251321503
 20
-310.9698214283339
 30
0.0
 10
79.0377251321503
 20
-310.9698214283339
 30
0.0
 10
79.0377251321503
 20
-310.9698214283339
 30
0.0
 10
84.09443628540001
 20
-313.4392658721611
 30
0.0
 10
84.09443628540001
 20
-313.4392658721611
 30
0.0
 10
84.09443628540001
 20
-313.4392658721611
 30
0.0
 10
84.68216957518362
 20
-344.2487547967503
 30
0.0
 10
84.68216957518362
 20
-344.2487547967503
 30
0.0
 10
84.68216957518362
 20
-344.2487547967503
 30
0.0
 10
93.97221406070834
 20
-344.2487547967503
 30
0.0
 10
93.97221406070834
 20
-344.2487547967503
 30
0.0
 10
93.97221406070834
 20
-344.2487547967503
 30
0.0
 10
103.1444362806375
 20
-312.9686658288759
 30
0.0
 10
103.1444362806375
 20
-312.9686658288759
 30
0.0
 10
103.1444362806375
 20
-312.9686658288759
 30
0.0
 10
106.9474771868048
 20
-313.2428954295018
 30
0.0
 10
106.9474771868048
 20
-313.2428954295018
 30
0.0
 10
106.9467881677078
 20
-313.2987059763628
 30
0.0
 10
106.9433430722225
 20
-313.3538275041269
 30
0.0
 10
106.9433430722225
 20
-313.4103270700849
 30
0.0
 10
106.9433430722225
 20
-321.6944036739167
 30
0.0
 10
113.6592122111685
 20
-328.4102728128627
 30
0.0
 10
121.9432888150003
 20
-328.4102728128627
 30
0.0
 10
129.5541937610142
 20
-328.4102728128627
 30
0.0
 10
135.8366698879158
 20
-322.7403346632386
 30
0.0
 10
136.8085313243048
 20
-315.3950465791374
 30
0.0
 10
136.8085313243048
 20
-315.3950465791374
 30
0.0
 10
142.3027696041813
 20
-315.7908880503926
 30
0.0
 10
142.3027696041813
 20
-315.7908880503926
 30
0.0
 10
142.3027696041813
 20
-315.7908880503926
 30
0.0
 10
149.593280670067
 20
-313.20362134097
 30
0.0
 10
149.593280670067
 20
-313.20362134097
 30
0.0
 10
149.593280670067
 20
-313.20362134097
 30
0.0
 10
164.4099473330295
 20
-322.8467881137328
 30
0.0
 10
164.4099473330295
 20
-322.8467881137328
 30
0.0
 10
164.4099473330295
 20
-322.8467881137328
 30
0.0
 10
170.9955918626331
 20
-344.2487547967503
 30
0.0
 10
170.9955918626331
 20
-344.2487547967503
 30
0.0
 10
170.9955918626331
 20
-344.2487547967503
 30
0.0
 10
179.3458142997816
 20
-344.2487547967503
 30
0.0
 10
179.3458142997816
 20
-344.2487547967503
 30
0.0
 10
179.3458142997816
 20
-344.2487547967503
 30
0.0
 10
179.4381428587863
 20
-316.1440103376307
 30
0.0
 10
179.4381428587863
 20
-316.1440103376307
 30
0.0
 10
179.4381428587863
 20
-316.1440103376307
 30
0.0
 10
176.4050807935724
 20
-309.205932539886
 30
0.0
 10
176.4050807935724
 20
-309.205932539886
 30
0.0
 10
176.4050807935724
 20
-309.205932539886
 30
0.0
 10
177.1006455720443
 20
-301.5753905496061
 30
0.0
 10
177.1006455720443
 20
-301.5753905496061
 30
0.0
 10
177.6976806196381
 20
-301.613975619041
 30
0.0
 10
178.9492838094293
 20
-301.5040770730615
 30
0.0
 10
179.9328585704682
 20
-300.1219047643793
 30
0.0
 10
179.9328585704682
 20
-300.1219047643793
 30
0.0
 10
182.2128227626065
 20
-276.0155381254406
 30
0.0
 10
182.2128227626065
 20
-276.0155381254406
 30
0.0
 10
181.9403157097233
 20
-274.4711018194031
 30
0.0
 10
180.3490261050864
 20
-273.918508503569
 30
0.0
 10
179.6376138873823
 20
-273.7462537293065
 30
0.0
  0
INSERT
  5
77
330
1F
100
AcDbEntity
  8
Layer 1
100
AcDbBlockReference
  2
block 4
 10
0.0
 20
0.0
 30
0.0
  0
INSERT
  5
83
330
1F
100
AcDbEntity
  8
Layer 1
100
AcDbBlockReference
  2
block 5
 10
0.0
 20
0.0
 30
0.0
  0
INSERT
  5
8F
330
1F
100
AcDbEntity
  8
Layer 1
100
AcDbBlockReference
  2
block 6
 10
0.0
 20
0.0
 30
0.0
  0
ENDSEC
  0
SECTION
  2
OBJECTS
  0
DICTIONARY
  5
C
330
0
100
AcDbDictionary
281
     1
  3
ACAD_GROUP
350
D
  3
ACAD_LAYOUT
350
1A
  3
ACAD_MLINESTYLE
350
17
  3
ACAD_PLOTSETTINGS
350
19
  3
ACAD_PLOTSTYLENAME
350
E
  3
ACAD_TABLESTYLE
350
97
  3
ACAD_VISUALSTYLE
350
2A
  0
DICTIONARY
  5
D
102
{ACAD_REACTORS
330
C
102
}
330
C
100
AcDbDictionary
281
     1
  0
DICTIONARY
  5
1A
102
{ACAD_REACTORS
330
C
102
}
330
C
100
AcDbDictionary
281
     1
  3
Layout1
350
1E
  3
Layout2
350
26
  3
Model
350
22
  0
DICTIONARY
  5
17
102
{ACAD_REACTORS
330
C
102
}
330
C
100
AcDbDictionary
281
     1
  3
Standard
350
18
  0
DICTIONARY
  5
19
102
{ACAD_REACTORS
330
C
102
}
330
C
100
AcDbDictionary
281
     1
  0
ACDBDICTIONARYWDFLT
  5
E
102
{ACAD_REACTORS
330
C
102
}
330
C
100
AcDbDictionary
281
     1
  3
Normal
350
F
100
AcDbDictionaryWithDefault
340
F
  0
DICTIONARY
  5
97
102
{ACAD_REACTORS
330
C
102
}
330
C
100
AcDbDictionary
281
     1
  0
DICTIONARY
  5
2A
102
{ACAD_REACTORS
330
C
102
}
330
C
100
AcDbDictionary
281
     1
  3
2dWireframe
350
2F
  3
3D Hidden
350
31
  3
3dWireframe
350
30
  3
Basic
350
32
  3
Brighten
350
36
  3
ColorChange
350
3A
  3
Conceptual
350
34
  3
Dim
350
35
  3
Facepattern
350
39
  3
Flat
350
2B
  3
FlatWithEdges
350
2C
  3
Gouraud
350
2D
  3
GouraudWithEdges
350
2E
  3
Linepattern
350
38
  3
Realistic
350
33
  3
Thicken
350
37
  0
LAYOUT
  5
1E
102
{ACAD_REACTORS
330
1A
102
}
330
1A
100
AcDbPlotSettings
  1

  2
none_device
  4

  6

 40
0.0
 41
0.0
 42
0.0
 43
0.0
 44
0.0
 45
0.0
 46
0.0
 47
0.0
 48
0.0
 49
0.0
140
0.0
141
0.0
142
1.0
143
1.0
 70
   688
 72
     0
 73
     0
 74
     5
  7

 75
    16
 76
     0
 77
     2
 78
   300
147
1.0
148
0.0
149
0.0
100
AcDbLayout
  1
Layout1
 70
     1
 71
     1
 10
0.0
 20
0.0
 11
12.0
 21
9.0
 12
0.0
 22
0.0
 32
0.0
 14
1.000000000000000E+20
 24
1.000000000000000E+20
 34
1.000000000000000E+20
 15
-1.000000000000000E+20
 25
-1.000000000000000E+20
 35
-1.000000000000000E+20
146
0.0
 13
0.0
 23
0.0
 33
0.0
 16
1.0
 26
0.0
 36
0.0
 17
0.0
 27
1.0
 37
0.0
 76
     0
330
1B
  0
LAYOUT
  5
26
102
{ACAD_REACTORS
330
1A
102
}
330
1A
100
AcDbPlotSettings
  1

  2
none_device
  4

  6

 40
0.0
 41
0.0
 42
0.0
 43
0.0
 44
0.0
 45
0.0
 46
0.0
 47
0.0
 48
0.0
 49
0.0
140
0.0
141
0.0
142
1.0
143
1.0
 70
   688
 72
     0
 73
     0
 74
     5
  7

 75
    16
 76
     0
 77
     2
 78
   300
147
1.0
148
0.0
149
0.0
100
AcDbLayout
  1
Layout2
 70
     1
 71
     2
 10
0.0
 20
0.0
 11
0.0
 21
0.0
 12
0.0
 22
0.0
 32
0.0
 14
0.0
 24
0.0
 34
0.0
 15
0.0
 25
0.0
 35
0.0
146
0.0
 13
0.0
 23
0.0
 33
0.0
 16
1.0
 26
0.0
 36
0.0
 17
0.0
 27
1.0
 37
0.0
 76
     0
330
23
  0
LAYOUT
  5
22
102
{ACAD_REACTORS
330
1A
102
}
330
1A
100
AcDbPlotSettings
  1

  2
none_device
  4

  6

 40
0.0
 41
0.0
 42
0.0
 43
0.0
 44
0.0
 45
0.0
 46
0.0
 47
0.0
 48
0.0
 49
0.0
140
0.0
141
0.0
142
1.0
143
1.0
 70
  1712
 72
     0
 73
     0
 74
     0
  7

 75
     0
 76
     0
 77
     2
 78
   300
147
1.0
148
0.0
149
0.0
100
AcDbLayout
  1
Model
 70
     1
 71
     0
 10
0.0
 20
0.0
 11
12.0
 21
9.0
 12
0.0
 22
0.0
 32
0.0
 14
1.000000000000000E+20
 24
1.000000000000000E+20
 34
1.000000000000000E+20
 15
-1.000000000000000E+20
 25
-1.000000000000000E+20
 35
-1.000000000000000E+20
146
0.0
 13
0.0
 23
0.0
 33
0.0
 16
1.0
 26
0.0
 36
0.0
 17
0.0
 27
1.0
 37
0.0
 76
     0
330
1F
331
29
  0
MLINESTYLE
  5
18
102
{ACAD_REACTORS
330
17
102
}
330
17
100
AcDbMlineStyle
  2
Standard
 70
     0
  3

 62
   256
 51
90.0
 52
90.0
 71
     2
 49
0.5
 62
   256
  6
BYLAYER
 49
-0.5
 62
   256
  6
BYLAYER
  0
ACDBPLACEHOLDER
  5
F
102
{ACAD_REACTORS
330
E
102
}
330
E
  0
VISUALSTYLE
  5
2F
102
{ACAD_REACTORS
330
2A
102
}
330
2A
100
AcDbVisualStyle
  2
2dWireframe
 70
     4
 71
     0
 72
     2
 73
     0
 90
        0
 40
-0.6
 41
-30.0
 62
     5
 63
     7
421
 16777215
 74
     1
 91
        4
 64
     7
 65
   257
 75
     1
175
     1
 42
1.0
 92
        0
 66
   257
 43
1.0
 76
     1
 77
     6
 78
     2
 67
     7
 79
     5
170
     0
171
     0
290
     0
174
     0
 93
        1
 44
0.0
173
     0
291
     0
 45
0.0
1001
ACAD
1000
AcDbSavedByObjectVersion
1070
     0
  0
VISUALSTYLE
  5
31
102
{ACAD_REACTORS
330
2A
102
}
330
2A
100
AcDbVisualStyle
  2
3D Hidden
 70
     6
 71
     1
 72
     2
 73
     2
 90
        0
 40
-0.6
 41
-30.0
 62
     5
 63
     7
421
 16777215
 74
     2
 91
        2
 64
     7
 65
   257
 75
     2
175
     1
 42
40.0
 92
        0
 66
   257
 43
1.0
 76
     1
 77
     6
 78
     2
 67
     7
 79
     3
170
     0
171
     0
290
     0
174
     0
 93
        1
 44
0.0
173
     0
291
     0
 45
0.0
1001
ACAD
1000
AcDbSavedByObjectVersion
1070
     0
  0
VISUALSTYLE
  5
30
102
{ACAD_REACTORS
330
2A
102
}
330
2A
100
AcDbVisualStyle
  2
3dWireframe
 70
     5
 71
     0
 72
     2
 73
     0
 90
        0
 40
-0.6
 41
-30.0
 62
     5
 63
     7
421
 16777215
 74
     1
 91
        4
 64
     7
 65
   257
 75
     1
175
     1
 42
1.0
 92
        0
 66
   257
 43
1.0
 76
     1
 77
     6
 78
     2
 67
     7
 79
     5
170
     0
171
     0
290
     0
174
     0
 93
        1
 44
0.0
173
     0
291
     0
 45
0.0
1001
ACAD
1000
AcDbSavedByObjectVersion
1070
     0
  0
VISUALSTYLE
  5
32
102
{ACAD_REACTORS
330
2A
102
}
330
2A
100
AcDbVisualStyle
  2
Basic
 70
     7
 71
     1
 72
     0
 73
     1
 90
        0
 40
-0.6
 41
-30.0
 62
     5
 63
     7
421
 16777215
 74
     0
 91
        4
 64
     7
 65
   257
 75
     1
175
     1
 42
1.0
 92
        8
 66
     7
 43
1.0
 76
     1
 77
     6
 78
     2
 67
     7
 79
     5
170
     0
171
     0
290
     0
174
     0
 93
        1
 44
0.0
173
     0
291
     1
 45
0.0
1001
ACAD
1000
AcDbSavedByObjectVersion
1070
     0
  0
VISUALSTYLE
  5
36
102
{ACAD_REACTORS
330
2A
102
}
330
2A
100
AcDbVisualStyle
  2
Brighten
 70
    12
 71
     2
 72
     2
 73
     0
 90
        0
 40
-0.6
 41
-30.0
 62
     5
 63
     7
421
 16777215
 74
     1
 91
        4
 64
     7
 65
   257
 75
     1
175
     1
 42
1.0
 92
        8
 66
     7
 43
1.0
 76
     1
 77
     6
 78
     2
 67
     7
 79
     5
170
     0
171
     0
290
     0
174
     0
 93
        1
 44
50.0
173
     0
291
     1
 45
0.0
1001
ACAD
1000
AcDbSavedByObjectVersion
1070
     0
  0
VISUALSTYLE
  5
3A
102
{ACAD_REACTORS
330
2A
102
}
330
2A
100
AcDbVisualStyle
  2
ColorChange
 70
    16
 71
     2
 72
     2
 73
     3
 90
        0
 40
-0.6
 41
-30.0
 62
     5
 63
     8
421
  8421504
 74
     1
 91
        4
 64
     7
 65
   257
 75
     1
175
     1
 42
1.0
 92
        8
 66
     8
424
  8421504
 43
1.0
 76
     1
 77
     6
 78
     2
 67
     7
 79
     5
170
     0
171
     0
290
     0
174
     0
 93
        1
 44
0.0
173
     0
291
     1
 45
0.0
1001
ACAD
1000
AcDbSavedByObjectVersion
1070
     0
  0
VISUALSTYLE
  5
34
102
{ACAD_REACTORS
330
2A
102
}
330
2A
100
AcDbVisualStyle
  2
Conceptual
 70
     9
 71
     3
 72
     2
 73
     0
 90
        0
 40
-0.6
 41
-30.0
 62
     5
 63
     7
421
 16777215
 74
     2
 91
        2
 64
     7
 65
   257
 75
     1
175
     1
 42
40.0
 92
        8
 66
     7
 43
1.0
 76
     1
 77
     6
 78
     2
 67
     7
 79
     3
170
     0
171
     0
290
     0
174
     0
 93
        1
 44
0.0
173
     0
291
     0
 45
0.0
1001
ACAD
1000
AcDbSavedByObjectVersion
1070
     0
  0
VISUALSTYLE
  5
35
102
{ACAD_REACTORS
330
2A
102
}
330
2A
100
AcDbVisualStyle
  2
Dim
 70
    11
 71
     2
 72
     2
 73
     0
 90
        0
 40
-0.6
 41
-30.0
 62
     5
 63
     7
421
 16777215
 74
     1
 91
        4
 64
     7
 65
   257
 75
     1
175
     1
 42
1.0
 92
        8
 66
     7
 43
1.0
 76
     1
 77
     6
 78
     2
 67
     7
 79
     5
170
     0
171
     0
290
     0
174
     0
 93
        1
 44
-50.0
173
     0
291
     1
 45
0.0
1001
ACAD
1000
AcDbSavedByObjectVersion
1070
     0
  0
VISUALSTYLE
  5
39
102
{ACAD_REACTORS
330
2A
102
}
330
2A
100
AcDbVisualStyle
  2
Facepattern
 70
    15
 71
     2
 72
     2
 73
     0
 90
        0
 40
-0.6
 41
-30.0
 62
     5
 63
     7
421
 16777215
 74
     1
 91
        4
 64
     7
 65
   257
 75
     1
175
     1
 42
1.0
 92
        8
 66
     7
 43
1.0
 76
     1
 77
     6
 78
     2
 67
     7
 79
     5
170
     0
171
     0
290
     0
174
     0
 93
        1
 44
0.0
173
     0
291
     1
 45
0.0
1001
ACAD
1000
AcDbSavedByObjectVersion
1070
     0
  0
VISUALSTYLE
  5
2B
102
{ACAD_REACTORS
330
2A
102
}
330
2A
100
AcDbVisualStyle
  2
Flat
 70
     0
 71
     2
 72
     1
 73
     1
 90
        2
 40
-0.6
 41
30.0
 62
     5
 63
     7
421
 16777215
 74
     0
 91
        4
 64
     7
 65
   257
 75
     1
175
     1
 42
1.0
 92
        8
 66
     7
 43
1.0
 76
     1
 77
     6
 78
     2
 67
     7
 79
     5
170
     0
171
     0
290
     0
174
     0
 93
       13
 44
0.0
173
     0
291
     1
 45
0.0
1001
ACAD
1000
AcDbSavedByObjectVersion
1070
     0
  0
VISUALSTYLE
  5
2C
102
{ACAD_REACTORS
330
2A
102
}
330
2A
100
AcDbVisualStyle
  2
FlatWithEdges
 70
     1
 71
     2
 72
     1
 73
     1
 90
        2
 40
-0.6
 41
30.0
 62
     5
 63
     7
421
 16777215
 74
     1
 91
        4
 64
     7
 65
   257
 75
     1
175
     1
 42
1.0
 92
        0
 66
   257
 43
1.0
 76
     1
 77
     6
 78
     2
 67
     7
 79
     5
170
     0
171
     0
290
     0
174
     0
 93
       13
 44
0.0
173
     0
291
     1
 45
0.0
1001
ACAD
1000
AcDbSavedByObjectVersion
1070
     0
  0
VISUALSTYLE
  5
2D
102
{ACAD_REACTORS
330
2A
102
}
330
2A
100
AcDbVisualStyle
  2
Gouraud
 70
     2
 71
     2
 72
     2
 73
     1
 90
        2
 40
-0.6
 41
30.0
 62
     5
 63
     7
421
 16777215
 74
     0
 91
        4
 64
     7
 65
   257
 75
     1
175
     1
 42
1.0
 92
        0
 66
     7
 43
1.0
 76
     1
 77
     6
 78
     2
 67
     7
 79
     5
170
     0
171
     0
290
     0
174
     0
 93
       13
 44
0.0
173
     0
291
     1
 45
0.0
1001
ACAD
1000
AcDbSavedByObjectVersion
1070
     0
  0
VISUALSTYLE
  5
2E
102
{ACAD_REACTORS
330
2A
102
}
330
2A
100
AcDbVisualStyle
  2
GouraudWithEdges
 70
     3
 71
     2
 72
     2
 73
     1
 90
        2
 40
-0.6
 41
30.0
 62
     5
 63
     7
421
 16777215
 74
     1
 91
        4
 64
     7
 65
   257
 75
     1
175
     1
 42
1.0
 92
        0
 66
   257
 43
1.0
 76
     1
 77
     6
 78
     2
 67
     7
 79
     5
170
     0
171
     0
290
     0
174
     0
 93
       13
 44
0.0
173
     0
291
     1
 45
0.0
1001
ACAD
1000
AcDbSavedByObjectVersion
1070
     0
  0
VISUALSTYLE
  5
38
102
{ACAD_REACTORS
330
2A
102
}
330
2A
100
AcDbVisualStyle
  2
Linepattern
 70
    14
 71
     2
 72
     2
 73
     0
 90
        0
 40
-0.6
 41
-30.0
 62
     5
 63
     7
421
 16777215
 74
     1
 91
        4
 64
     7
 65
   257
 75
     7
175
     7
 42
1.0
 92
        8
 66
     7
 43
1.0
 76
     1
 77
     6
 78
     2
 67
     7
 79
     5
170
     0
171
     0
290
     0
174
     0
 93
        1
 44
0.0
173
     0
291
     1
 45
0.0
1001
ACAD
1000
AcDbSavedByObjectVersion
1070
     0
  0
VISUALSTYLE
  5
33
102
{ACAD_REACTORS
330
2A
102
}
330
2A
100
AcDbVisualStyle
  2
Realistic
 70
     8
 71
     2
 72
     2
 73
     0
 90
        0
 40
-0.6
 41
-30.0
 62
     5
 63
     7
421
 16777215
 74
     1
 91
        0
 64
     7
 65
   257
 75
     1
175
     1
 42
1.0
 92
        8
 66
     8
424
  7895160
 43
1.0
 76
     1
 77
     6
 78
     2
 67
     7
 79
     5
170
     0
171
     0
290
     0
174
     0
 93
       13
 44
0.0
173
     0
291
     0
 45
0.0
1001
ACAD
1000
AcDbSavedByObjectVersion
1070
     0
  0
VISUALSTYLE
  5
37
102
{ACAD_REACTORS
330
2A
102
}
330
2A
100
AcDbVisualStyle
  2
Thicken
 70
    13
 71
     2
 72
     2
 73
     0
 90
        0
 40
-0.6
 41
-30.0
 62
     5
 63
     7
421
 16777215
 74
     1
 91
        4
 64
     7
 65
   257
 75
     1
175
     1
 42
1.0
 92
       12
 66
     7
 43
1.0
 76
     1
 77
     6
 78
     2
 67
     7
 79
     5
170
     0
171
     0
290
     0
174
     0
 93
        1
 44
0.0
173
     0
291
     1
 45
0.0
1001
ACAD
1000
AcDbSavedByObjectVersion
1070
     0
  0
ENDSEC
  0
EOF
