0
SECTION
2
HEADER
9
$INSUNITS
70
4
9
$ACADVER
1
AC1014
9
$HANDSEED
5
FFFF
0
ENDSEC
0
SECTION
2
TABLES
0
TABLE
2
VPORT
5
8
100
AcDbSymbolTable
0
ENDTAB
0
TABLE
2
LTYPE
5
5
100
AcDbSymbolTable
0
LTYPE
5
14
100
AcDbSymbolTableRecord
100
AcDbLinetypeTableRecord
2
BYBLOCK
70
0
0
LTYPE
5
15
100
AcDbSymbolTableRecord
100
AcDbLinetypeTableRecord
2
BYLAYER
70
0
0
ENDTAB
0
TABLE
2
LAYER
5
2
100
AcDbSymbolTable
70
2
0
LAYER
5
50
100
AcDbSymbolTableRecord
100
AcDbLayerTableRecord
2
0
70
0
6
CONTINUOUS
0
ENDTAB
0
TABLE
2
STYLE
5
3
100
AcDbSymbolTable
70
1
0
STYLE
5
11
100
AcDbSymbolTableRecord
100
AcDbTextStyleTableRecord
2
STANDARD
70
0
0
ENDTAB
0
TABLE
2
VIEW
5
6
100
AcDbSymbolTable
70
0
0
ENDTAB
0
TABLE
2
UCS
5
7
100
AcDbSymbolTable
70
0
0
ENDTAB
0
TABLE
2
APPID
5
9
100
AcDbSymbolTable
70
2
0
APPID
5
12
100
AcDbSymbolTableRecord
100
AcDbRegAppTableRecord
2
ACAD
70
0
0
ENDTAB
0
TABLE
2
DIMSTYLE
5
A
100
AcDbSymbolTable
70
1
0
ENDTAB
0
TABLE
2
BLOCK_RECORD
5
1
100
AcDbSymbolTable
70
1
0
BLOCK_RECORD
5
1F
100
AcDbSymbolTableRecord
100
AcDbBlockTableRecord
2
*MODEL_SPACE
0
BLOCK_RECORD
5
1B
100
AcDbSymbolTableRecord
100
AcDbBlockTableRecord
2
*PAPER_SPACE
0
ENDTAB
0
ENDSEC
0
SECTION
2
BLOCKS
0
BLOCK
5
20
100
AcDbEntity
100
AcDbBlockBegin
2
*MODEL_SPACE
0
ENDBLK
5
21
100
AcDbEntity
100
AcDbBlockEnd
0
BLOCK
5
1C
100
AcDbEntity
100
AcDbBlockBegin
2
*PAPER_SPACE
0
ENDBLK
5
1D
100
AcDbEntity
100
AcDbBlockEnd
0
ENDSEC
0
SECTION
2
ENTITIES
0
CIRCLE
5
100
100
AcDbEntity
8
0
100
AcDbCircle
10
-148.57461211959395
20
-4.5866842398294008e-15
30
0
40
22.5
0
ARC
5
101
100
AcDbEntity
8
0
100
AcDbCircle
10
-148.57461211959395
20
-4.5866842398294008e-15
30
0
40
79.999999999999986
100
AcDbArc
50
-1.0739808423141808
51
1.0743588228540533
0
LINE
5
102
100
AcDbEntity
8
0
100
AcDbLine
10
-68.588675855773189
20
1.499999999999984
30
0
11
-48.630881908901387
21
1.4999999999999956
31
0
0
SPLINE
5
103
100
AcDbEntity
8
0
100
AcDbSpline
70
1064
71
5
72
21
73
15
74
0
42
0.000000001
43
0.0000000001
44
0.0000000001
40
0
40
0
40
0
40
0
40
0
40
0
40
0.10000000000000001
40
0.20000000000000001
40
0.30000000000000004
40
0.40000000000000002
40
0.5
40
0.59999999999999998
40
0.69999999999999996
40
0.79999999999999993
40
0.89999999999999991
40
1
40
1
40
1
40
1
40
1
40
1
10
-48.630881908901387
20
1.4999999999999956
30
0
10
-49.423188759658458
20
3.4776367460024282
30
0
10
-50.97963095748419
20
7.0062271900552453
30
0
10
-53.229856477461439
20
11.018996827265127
30
0
10
-55.989068018486989
20
14.127400407749118
30
0
10
-58.708094378097684
20
15.90120844322154
30
0
10
-60.410223641819769
20
17.387201483792509
30
0
10
-61.092390922600686
20
19.924690879036604
30
0
10
-61.207918496352747
20
23.868413715364404
30
0
10
-62.140122905086841
20
27.475976088283996
30
0
10
-64.482992927777119
20
29.993600307149514
30
0
10
-67.679711122627424
20
30.85833951125457
30
0
10
-70.824051489683129
20
30.841921417519494
30
0
10
-73.247423230656068
20
30.539268012750679
30
0
10
-74.540859554839827
20
30.315070199172546
30
0
0
ARC
5
104
100
AcDbEntity
8
0
100
AcDbCircle
10
-148.57461211959395
20
-4.5866842398294008e-15
30
0
40
80
100
AcDbArc
50
22.267938811397887
51
22.732454813828543
0
SPLINE
5
105
100
AcDbEntity
8
0
100
AcDbSpline
70
1064
71
5
72
21
73
15
74
0
42
0.000000001
43
0.0000000001
44
0.0000000001
40
0
40
0
40
0
40
0
40
0
40
0
40
0.10000000000000001
40
0.20000000000000001
40
0.30000000000000004
40
0.40000000000000002
40
0.5
40
0.59999999999999998
40
0.69999999999999996
40
0.79999999999999993
40
0.89999999999999991
40
0.99998532226633796
40
0.99998532226633796
40
0.99998532226633796
40
0.99998532226633796
40
0.99998532226633796
40
0.99998532226633796
10
-76.843116689971254
20
69.610231460093644
30
0
10
-76.005009756370185
20
67.65156507381306
30
0
10
-74.610578243148638
20
64.055869926561542
30
0
10
-73.364379589621649
20
59.627233119595076
30
0
10
-73.117564940829141
20
55.478196643925592
30
0
10
-73.786012877123284
20
52.301299313600325
30
0
10
-73.938899366542898
20
50.046960149144901
30
0
10
-72.627044163937029
20
47.770287015526414
30
0
10
-69.920171491020682
20
44.899897362066561
30
0
10
-68.028486193936715
20
41.689751248419284
30
0
10
-67.905003945872949
20
38.252960682596488
30
0
10
-69.553907654986276
20
35.381226787886526
30
0
10
-71.7887484260593
20
33.169620234935564
30
0
10
-73.716138141431827
20
31.670208595233468
30
0
10
-74.789064315513812
20
30.914283676834671
30
0
0
LINE
5
106
100
AcDbEntity
8
0
100
AcDbLine
10
-76.843116689971254
20
69.610231460093644
30
0
11
-90.955720137534186
21
55.498317873244822
31
0
0
ARC
5
107
100
AcDbEntity
8
0
100
AcDbCircle
10
-148.57461211959395
20
-4.5866842398294008e-15
30
0
40
79.999999999999986
100
AcDbArc
50
43.926019157685616
51
46.07435882285418
0
LINE
5
108
100
AcDbEntity
8
0
100
AcDbLine
10
-93.076674359671117
20
57.619258103482458
30
0
11
-78.964382922314229
21
71.731549540839382
31
0
0
SPLINE
5
109
100
AcDbEntity
8
0
100
AcDbSpline
70
1064
71
5
72
21
73
15
74
0
42
0.000000001
43
0.0000000001
44
0.0000000001
40
0
40
0
40
0
40
0
40
0
40
0
40
0.10000000000000001
40
0.20000000000000001
40
0.30000000000000004
40
0.40000000000000002
40
0.5
40
0.59999999999999998
40
0.69999999999999996
40
0.79999999999999993
40
0.89999999999999991
40
1
40
1
40
1
40
1
40
1
40
1
10
-78.964382922314229
20
71.731549540839382
30
0
10
-80.923028823087151
20
72.569704347710513
30
0
10
-84.518689886714355
20
73.964223746122826
30
0
10
-88.947296232899902
20
75.210530643558428
30
0
10
-93.09632667471206
20
75.457446702595917
30
0
10
-96.273240342223474
20
74.789076415895892
30
0
10
-98.527583242841175
20
74.6362450268457
30
0
10
-100.804224311551
20
75.948155875267986
30
0
10
-103.6745478030528
20
78.655098705141484
30
0
10
-106.88464767936551
20
80.546862463718554
30
0
10
-110.32153611748782
20
80.670432340874811
30
0
10
-113.19342018578936
20
79.02147418293427
30
0
10
-115.40519523627886
20
76.786480441616447
30
0
10
-116.90476955279543
20
74.858889575377361
30
0
10
-117.66083535435044
20
73.785760185205731
30
0
0
ARC
5
110
100
AcDbEntity
8
0
100
AcDbCircle
10
-148.57461211959395
20
-4.5866842398294008e-15
30
0
40
80.000000000000014
100
AcDbArc
50
67.26793881139784
51
67.732454813828568
0
SPLINE
5
111
100
AcDbEntity
8
0
100
AcDbSpline
70
1064
71
5
72
21
73
15
74
0
42
0.000000001
43
0.0000000001
44
0.0000000001
40
0
40
0
40
0
40
0
40
0
40
0
40
0.10000000000000001
40
0.20000000000000001
40
0.30000000000000004
40
0.40000000000000002
40
0.5
40
0.59999999999999998
40
0.69999999999999996
40
0.79999999999999993
40
0.89999999999999991
40
0.99998532226633707
40
0.99998532226633707
40
0.99998532226633707
40
0.99998532226633707
40
0.99998532226633707
40
0.99998532226633707
10
-147.07465198205327
20
99.943693548335446
30
0
10
-145.09703460212336
20
99.1513383606231
30
0
10
-141.56848220152307
20
97.594809917821124
30
0
10
-137.55576756529024
20
95.344486318817303
30
0
10
-134.44743142609667
20
92.585198803338429
30
0
10
-132.67368984931403
20
89.866129089308231
30
0
10
-131.18773841245357
20
88.163963505606944
30
0
10
-128.65026569142927
20
87.481734203977553
30
0
10
-124.7065456799924
20
87.366110238196057
30
0
10
-121.09900609299373
20
86.433817654075469
30
0
10
-118.58151304342047
20
84.090954874426245
30
0
10
-117.7168415269455
20
80.894381369475937
30
0
10
-117.73327060013517
20
77.750268314469679
30
0
10
-118.03589679964085
20
75.327153838517276
30
0
10
-118.2600505371792
20
74.033960829243654
30
0
0
LINE
5
112
100
AcDbEntity
8
0
100
AcDbLine
10
-147.07465198205327
20
99.943693548335446
30
0
11
-147.07513978724236
21
79.985946157587662
31
0
0
ARC
5
113
100
AcDbEntity
8
0
100
AcDbCircle
10
-148.57461211959395
20
-4.5866842398294008e-15
30
0
40
80.000000000000014
100
AcDbArc
50
88.926019157685658
51
91.074358822854236
0
LINE
5
114
100
AcDbEntity
8
0
100
AcDbLine
10
-150.07461211959401
20
79.985936263820761
30
0
11
-150.07461211959401
21
99.943730210692578
31
0
0
SPLINE
5
115
100
AcDbEntity
8
0
100
AcDbSpline
70
1064
71
5
72
21
73
15
74
0
42
0.000000001
43
0.0000000001
44
0.0000000001
40
0
40
0
40
0
40
0
40
0
40
0
40
0.10000000000000001
40
0.20000000000000001
40
0.30000000000000004
40
0.40000000000000002
40
0.5
40
0.59999999999999998
40
0.69999999999999996
40
0.79999999999999993
40
0.89999999999999991
40
1
40
1
40
1
40
1
40
1
40
1
10
-150.07461211959401
20
99.943730210692578
30
0
10
-152.05224886559643
20
99.151423359935507
30
0
10
-155.58083930964926
20
97.594981162109775
30
0
10
-159.59360894685915
20
95.344755642132526
30
0
10
-162.7020125273431
20
92.585544101106976
30
0
10
-164.47582056281556
20
89.866517741496281
30
0
10
-165.96181360338647
20
88.164388477774196
30
0
10
-168.49930299863061
20
87.482221196993279
30
0
10
-172.44302583495838
20
87.366693623241218
30
0
10
-176.05058820787798
20
86.434489214507124
30
0
10
-178.56821242674351
20
84.091619191816847
30
0
10
-179.43295163084855
20
80.894900996966541
30
0
10
-179.41653353711354
20
77.750560629910836
30
0
10
-179.11388013234466
20
75.327188888937897
30
0
10
-178.88968231876652
20
74.033752564754138
30
0
0
ARC
5
116
100
AcDbEntity
8
0
100
AcDbCircle
10
-148.57461211959395
20
-4.5866842398294008e-15
30
0
40
80
100
AcDbArc
50
112.26793881139787
51
112.73245481382851
0
SPLINE
5
117
100
AcDbEntity
8
0
100
AcDbSpline
70
1064
71
5
72
21
73
15
74
0
42
0.000000001
43
0.0000000001
44
0.0000000001
40
0
40
0
40
0
40
0
40
0
40
0
40
0.10000000000000001
40
0.20000000000000001
40
0.30000000000000004
40
0.40000000000000002
40
0.5
40
0.59999999999999998
40
0.69999999999999996
40
0.79999999999999993
40
0.89999999999999991
40
0.99998532226633652
40
0.99998532226633652
40
0.99998532226633652
40
0.99998532226633652
40
0.99998532226633652
40
0.99998532226633652
10
-218.18484357968765
20
71.731495429622711
30
0
10
-216.22617719340707
20
72.569602363223851
30
0
10
-212.63048204615555
20
73.964033876445328
30
0
10
-208.20184523918911
20
75.210232529972387
30
0
10
-204.05280876351958
20
75.457047178764824
30
0
10
-200.87591143319432
20
74.788599242470681
30
0
10
-198.6215722687389
20
74.635712753051067
30
0
10
-196.34489913512044
20
75.947567955656865
30
0
10
-193.47450948166056
20
78.654440628573212
30
0
10
-190.26436336801333
20
80.546125925657321
30
0
10
-186.8275728021905
20
80.669608173721031
30
0
10
-183.95583890748057
20
79.020704464607704
30
0
10
-181.74423235452963
20
76.785863693534623
30
0
10
-180.24482071482751
20
74.858473978162195
30
0
10
-179.48889579642878
20
73.785547804080153
30
0
0
LINE
5
118
100
AcDbEntity
8
0
100
AcDbLine
10
-218.18484357968765
20
71.731495429622711
30
0
11
-204.07292999283885
21
57.618891982059736
31
0
0
ARC
5
119
100
AcDbEntity
8
0
100
AcDbCircle
10
-148.57461211959395
20
-4.5866842398294008e-15
30
0
40
80.000000000000014
100
AcDbArc
50
133.92601915768566
51
136.07435882285424
0
LINE
5
120
100
AcDbEntity
8
0
100
AcDbLine
10
-206.19387022307649
20
55.497937759922785
30
0
11
-220.30616166043336
21
69.610229197279693
31
0
0
SPLINE
5
121
100
AcDbEntity
8
0
100
AcDbSpline
70
1064
71
5
72
21
73
15
74
0
42
0.000000001
43
0.0000000001
44
0.0000000001
40
0
40
0
40
0
40
0
40
0
40
0
40
0.10000000000000001
40
0.20000000000000001
40
0.30000000000000004
40
0.40000000000000002
40
0.5
40
0.59999999999999998
40
0.69999999999999996
40
0.79999999999999993
40
0.89999999999999991
40
1
40
1
40
1
40
1
40
1
40
1
10
-220.30616166043336
20
69.610229197279693
30
0
10
-221.14431646730452
20
67.651583296506814
30
0
10
-222.53883586571681
20
64.055922232879567
30
0
10
-223.78514276315252
20
59.627315886693992
30
0
10
-224.03205882218992
20
55.478285444881905
30
0
10
-223.36368853548998
20
52.301371777370491
30
0
10
-223.21085714643976
20
50.04702887675279
30
0
10
-224.52276799486208
20
47.770387808042933
30
0
10
-227.22971082473555
20
44.900064316541197
30
0
10
-229.12147458331253
20
41.689964440228451
30
0
10
-229.24504446046888
20
38.253076002106205
30
0
10
-227.59608630252836
20
35.381191933804558
30
0
10
-225.36109256121046
20
33.169416883315101
30
0
10
-223.43350169497143
20
31.669842566798497
30
0
10
-222.36037230479974
20
30.913776765243487
30
0
0
ARC
5
122
100
AcDbEntity
8
0
100
AcDbCircle
10
-148.57461211959395
20
-4.5866842398294008e-15
30
0
40
80.000000000000057
100
AcDbArc
50
157.2679388113979
51
157.73245481382858
0
SPLINE
5
123
100
AcDbEntity
8
0
100
AcDbSpline
70
1064
71
5
72
21
73
15
74
0
42
0.000000001
43
0.0000000001
44
0.0000000001
40
0
40
0
40
0
40
0
40
0
40
0
40
0.10000000000000001
40
0.20000000000000001
40
0.30000000000000004
40
0.40000000000000002
40
0.5
40
0.59999999999999998
40
0.69999999999999996
40
0.79999999999999993
40
0.89999999999999991
40
0.99998532226633741
40
0.99998532226633741
40
0.99998532226633741
40
0.99998532226633741
40
0.99998532226633741
40
0.99998532226633741
10
-248.51830566792941
20
1.499960137540723
30
0
10
-247.72595048021708
20
3.4775775174706691
30
0
10
-246.16942203741507
20
7.0061299180709344
30
0
10
-243.91909843841125
20
11.018844554303733
30
0
10
-241.15981092293239
20
14.127180693497312
30
0
10
-238.44074120890218
20
15.900922270280004
30
0
10
-236.73857562520089
20
17.386873707140417
30
0
10
-236.05634632357152
20
19.924346428164728
30
0
10
-235.94072235779004
20
23.868066439601563
30
0
10
-235.00842977366943
20
27.475606026600229
30
0
10
-232.6655669940202
20
29.993099076173493
30
0
10
-229.46899348906993
20
30.857770592648492
30
0
10
-226.32488043406366
20
30.841341519458748
30
0
10
-223.90176595811124
20
30.538715319953084
30
0
10
-222.60857294883755
20
30.314561582414807
30
0
0
LINE
5
124
100
AcDbEntity
8
0
100
AcDbLine
10
-248.51830566792941
20
1.499960137540723
30
0
11
-228.56055827718163
21
1.4994723323516186
31
0
0
ARC
5
125
100
AcDbEntity
8
0
100
AcDbCircle
10
-148.57461211959395
20
-4.5866842398294008e-15
30
0
40
79.999999999999986
100
AcDbArc
50
178.92601915768583
51
181.07435882285407
0
LINE
5
126
100
AcDbEntity
8
0
100
AcDbLine
10
-228.56054838341475
20
-1.4999999999999736
30
0
11
-248.51834233028654
21
-1.4999999999999927
31
0
0
SPLINE
5
127
100
AcDbEntity
8
0
100
AcDbSpline
70
1064
71
5
72
21
73
15
74
0
42
0.000000001
43
0.0000000001
44
0.0000000001
40
0
40
0
40
0
40
0
40
0
40
0
40
0.10000000000000001
40
0.20000000000000001
40
0.30000000000000004
40
0.40000000000000002
40
0.5
40
0.59999999999999998
40
0.69999999999999996
40
0.79999999999999993
40
0.89999999999999991
40
1
40
1
40
1
40
1
40
1
40
1
10
-248.51834233028654
20
-1.4999999999999927
30
0
10
-247.72603547952946
20
-3.4776367460024256
30
0
10
-246.16959328170373
20
-7.0062271900552417
30
0
10
-243.91936776172651
20
-11.018996827265122
30
0
10
-241.16015622070094
20
-14.127400407749116
30
0
10
-238.44112986109025
20
-15.901208443221538
30
0
10
-236.73900059736815
20
-17.387201483792506
30
0
10
-236.05683331658724
20
-19.924690879036604
30
0
10
-235.9413057428352
20
-23.868413715364408
30
0
10
-235.0091013341011
20
-27.475976088284
30
0
10
-232.6662313114108
20
-29.993600307149517
30
0
10
-229.46951311656051
20
-30.858339511254577
30
0
10
-226.32517274950482
20
-30.841921417519501
30
0
10
-223.90180100853186
20
-30.539268012750682
30
0
10
-222.60836468434809
20
-30.315070199172549
30
0
0
ARC
5
128
100
AcDbEntity
8
0
100
AcDbCircle
10
-148.57461211959395
20
-4.5866842398294008e-15
30
0
40
79.999999999999986
100
AcDbArc
50
202.26793881139787
51
202.7324548138285
0
SPLINE
5
129
100
AcDbEntity
8
0
100
AcDbSpline
70
1064
71
5
72
21
73
15
74
0
42
0.000000001
43
0.0000000001
44
0.0000000001
40
0
40
0
40
0
40
0
40
0
40
0
40
0.10000000000000001
40
0.20000000000000001
40
0.30000000000000004
40
0.40000000000000002
40
0.5
40
0.59999999999999998
40
0.69999999999999996
40
0.79999999999999993
40
0.89999999999999991
40
0.99998532226633663
40
0.99998532226633663
40
0.99998532226633663
40
0.99998532226633663
40
0.99998532226633663
40
0.99998532226633663
10
-220.30610754921673
20
-69.610231460093644
30
0
10
-221.1442144828178
20
-67.65156507381306
30
0
10
-222.53864599603935
20
-64.055869926561542
30
0
10
-223.78484464956637
20
-59.627233119595111
30
0
10
-224.03165929835887
20
-55.478196643925592
30
0
10
-223.3632113620647
20
-52.301299313600325
30
0
10
-223.21032487264503
20
-50.046960149144901
30
0
10
-224.5221800752509
20
-47.770287015526449
30
0
10
-227.22905274816725
20
-44.899897362066596
30
0
10
-229.1207380452513
20
-41.68975124841932
30
0
10
-229.24422029331507
20
-38.252960682596544
30
0
10
-227.59531658420173
20
-35.381226787886625
30
0
10
-225.36047581312863
20
-33.169620234935635
30
0
10
-223.43308609775622
20
-31.67020859523355
30
0
10
-222.36015992367416
20
-30.914283676834735
30
0
0
LINE
5
130
100
AcDbEntity
8
0
100
AcDbLine
10
-220.30610754921673
20
-69.610231460093644
30
0
11
-206.19350410165373
21
-55.498317873244844
31
0
0
ARC
5
131
100
AcDbEntity
8
0
100
AcDbCircle
10
-148.57461211959395
20
-4.5866842398294008e-15
30
0
40
79.999999999999986
100
AcDbArc
50
223.92601915768563
51
226.07435882285415
0
LINE
5
132
100
AcDbEntity
8
0
100
AcDbLine
10
-204.07254987951683
20
-57.61925810348248
30
0
11
-218.1848413168737
21
-71.731549540839382
31
0
0
SPLINE
5
133
100
AcDbEntity
8
0
100
AcDbSpline
70
1064
71
5
72
21
73
15
74
0
42
0.000000001
43
0.0000000001
44
0.0000000001
40
0
40
0
40
0
40
0
40
0
40
0
40
0.10000000000000001
40
0.20000000000000001
40
0.30000000000000004
40
0.40000000000000002
40
0.5
40
0.59999999999999998
40
0.69999999999999996
40
0.79999999999999993
40
0.89999999999999991
40
1
40
1
40
1
40
1
40
1
40
1
10
-218.1848413168737
20
-71.731549540839382
30
0
10
-216.22619541610081
20
-72.569704347710513
30
0
10
-212.63053435247357
20
-73.964223746122826
30
0
10
-208.20192800628803
20
-75.210530643558513
30
0
10
-204.0528975644759
20
-75.457446702595917
30
0
10
-200.8759838969645
20
-74.789076415895977
30
0
10
-198.6216409963468
20
-74.636245026845785
30
0
10
-196.34499992763696
20
-75.948155875268071
30
0
10
-193.47467643613521
20
-78.655098705141569
30
0
10
-190.2645765598225
20
-80.546862463718554
30
0
10
-186.82768812170019
20
-80.670432340874896
30
0
10
-183.95580405339857
20
-79.021474182934355
30
0
10
-181.74402900290912
20
-76.786480441616447
30
0
10
-180.24445468639254
20
-74.858889575377418
30
0
10
-179.48838888483749
20
-73.785760185205731
30
0
0
ARC
5
134
100
AcDbEntity
8
0
100
AcDbCircle
10
-148.57461211959395
20
-4.5866842398294008e-15
30
0
40
80
100
AcDbArc
50
247.26793881139787
51
247.73245481382853
0
SPLINE
5
135
100
AcDbEntity
8
0
100
AcDbSpline
70
1064
71
5
72
21
73
15
74
0
42
0.000000001
43
0.0000000001
44
0.0000000001
40
0
40
0
40
0
40
0
40
0
40
0
40
0.10000000000000001
40
0.20000000000000001
40
0.30000000000000004
40
0.40000000000000002
40
0.5
40
0.59999999999999998
40
0.69999999999999996
40
0.79999999999999993
40
0.89999999999999991
40
0.99998532226633752
40
0.99998532226633752
40
0.99998532226633752
40
0.99998532226633752
40
0.99998532226633752
40
0.99998532226633752
10
-150.07457225713472
20
-99.943693548335446
30
0
10
-152.05218963706466
20
-99.1513383606231
30
0
10
-155.58074203766495
20
-97.594809917821124
30
0
10
-159.59345667389769
20
-95.344486318817303
30
0
10
-162.70179281309134
20
-92.585198803338429
30
0
10
-164.47553438987399
20
-89.866129089308231
30
0
10
-165.96148582673442
20
-88.163963505606944
30
0
10
-168.49895854775872
20
-87.481734203977553
30
0
10
-172.44267855919554
20
-87.366110238196057
30
0
10
-176.0502181461942
20
-86.433817654075469
30
0
10
-178.56771119576746
20
-84.090954874426217
30
0
10
-179.43238271224249
20
-80.894381369475937
30
0
10
-179.41595363905267
20
-77.750268314469679
30
0
10
-179.11332743954702
20
-75.327153838517262
30
0
10
-178.8891737020088
20
-74.033960829243625
30
0
0
LINE
5
136
100
AcDbEntity
8
0
100
AcDbLine
10
-150.07457225713472
20
-99.943693548335446
30
0
11
-150.07408445194557
21
-79.985946157587648
31
0
0
ARC
5
137
100
AcDbEntity
8
0
100
AcDbCircle
10
-148.57461211959395
20
-4.5866842398294008e-15
30
0
40
79.999999999999986
100
AcDbArc
50
268.92601915768569
51
271.07435882285415
0
LINE
5
138
100
AcDbEntity
8
0
100
AcDbLine
10
-147.07461211959398
20
-79.985936263820776
30
0
11
-147.07461211959398
21
-99.943730210692578
31
0
0
SPLINE
5
139
100
AcDbEntity
8
0
100
AcDbSpline
70
1064
71
5
72
21
73
15
74
0
42
0.000000001
43
0.0000000001
44
0.0000000001
40
0
40
0
40
0
40
0
40
0
40
0
40
0.10000000000000001
40
0.20000000000000001
40
0.30000000000000004
40
0.40000000000000002
40
0.5
40
0.59999999999999998
40
0.69999999999999996
40
0.79999999999999993
40
0.89999999999999991
40
1
40
1
40
1
40
1
40
1
40
1
10
-147.07461211959398
20
-99.943730210692578
30
0
10
-145.09697537359159
20
-99.151423359935507
30
0
10
-141.56838492953875
20
-97.594981162109775
30
0
10
-137.55561529232887
20
-95.344755642132526
30
0
10
-134.44721171184489
20
-92.585544101106976
30
0
10
-132.67340367637246
20
-89.866517741496281
30
0
10
-131.18741063580146
20
-88.164388477774196
30
0
10
-128.64992124055738
20
-87.482221196993279
30
0
10
-124.70619840422955
20
-87.366693623241218
30
0
10
-121.09863603130997
20
-86.434489214507124
30
0
10
-118.5810118124445
20
-84.091619191816847
30
0
10
-117.71627260833938
20
-80.894900996966541
30
0
10
-117.73269070207448
20
-77.750560629910836
30
0
10
-118.03534410684328
20
-75.327188888937897
30
0
10
-118.25954192042147
20
-74.033752564754138
30
0
0
ARC
5
140
100
AcDbEntity
8
0
100
AcDbCircle
10
-148.57461211959395
20
-4.5866842398294008e-15
30
0
40
79.999999999999972
100
AcDbArc
50
292.26793881139787
51
292.73245481382844
0
SPLINE
5
141
100
AcDbEntity
8
0
100
AcDbSpline
70
1064
71
5
72
21
73
15
74
0
42
0.000000001
43
0.0000000001
44
0.0000000001
40
0
40
0
40
0
40
0
40
0
40
0
40
0.10000000000000001
40
0.20000000000000001
40
0.30000000000000004
40
0.40000000000000002
40
0.5
40
0.59999999999999998
40
0.69999999999999996
40
0.79999999999999993
40
0.89999999999999991
40
0.99998532226633774
40
0.99998532226633774
40
0.99998532226633774
40
0.99998532226633774
40
0.99998532226633774
40
0.99998532226633774
10
-78.964380659500364
20
-71.731495429622711
30
0
10
-80.923047045780905
20
-72.569602363223851
30
0
10
-84.518742193032423
20
-73.964033876445328
30
0
10
-88.947378999998818
20
-75.210232529972387
30
0
10
-93.096415475668408
20
-75.457047178764824
30
0
10
-96.27331280599364
20
-74.788599242470681
30
0
10
-98.527651970449028
20
-74.635712753051067
30
0
10
-100.80432510406752
20
-75.947567955656865
30
0
10
-103.67471475752744
20
-78.654440628573212
30
0
10
-106.88486087117468
20
-80.546125925657321
30
0
10
-110.3216514369975
20
-80.669608173721031
30
0
10
-113.19338533170747
20
-79.020704464607704
30
0
10
-115.40499188465841
20
-76.785863693534594
30
0
10
-116.90440352436043
20
-74.858473978162138
30
0
10
-117.66032844275929
20
-73.785547804080096
30
0
0
LINE
5
142
100
AcDbEntity
8
0
100
AcDbLine
10
-78.964380659500364
20
-71.731495429622711
30
0
11
-93.076294246349107
21
-57.618891982059779
31
0
0
ARC
5
143
100
AcDbEntity
8
0
100
AcDbCircle
10
-148.57461211959395
20
-4.5866842398294008e-15
30
0
40
80
100
AcDbArc
50
313.92601915768563
51
316.07435882285415
0
LINE
5
144
100
AcDbEntity
8
0
100
AcDbLine
10
-90.955354016111514
20
-55.497937759922884
30
0
11
-76.843062578754626
21
-69.610229197279693
31
0
0
SPLINE
5
145
100
AcDbEntity
8
0
100
AcDbSpline
70
1064
71
5
72
21
73
15
74
0
42
0.000000001
43
0.0000000001
44
0.0000000001
40
0
40
0
40
0
40
0
40
0
40
0
40
0.10000000000000001
40
0.20000000000000001
40
0.30000000000000004
40
0.40000000000000002
40
0.5
40
0.59999999999999998
40
0.69999999999999996
40
0.79999999999999993
40
0.89999999999999991
40
1
40
1
40
1
40
1
40
1
40
1
10
-76.843062578754626
20
-69.610229197279693
30
0
10
-76.004907771883481
20
-67.651583296506814
30
0
10
-74.61038837347111
20
-64.055922232879567
30
0
10
-73.364081476035494
20
-59.627315886693992
30
0
10
-73.117165416998091
20
-55.478285444881905
30
0
10
-73.785535703698031
20
-52.301371777370491
30
0
10
-73.938367092748223
20
-50.04702887675279
30
0
10
-72.626456244325936
20
-47.770387808042933
30
0
10
-69.919513414452439
20
-44.900064316541233
30
0
10
-68.027749655875454
20
-41.689964440228451
30
0
10
-67.904179778719111
20
-38.253076002106219
30
0
10
-69.553137936659652
20
-35.381191933804573
30
0
10
-71.78813167797756
20
-33.169416883315115
30
0
10
-73.715722544216575
20
-31.669842566798504
30
0
10
-74.788851934388205
20
-30.913776765243494
30
0
0
ARC
5
146
100
AcDbEntity
8
0
100
AcDbCircle
10
-148.57461211959395
20
-4.5866842398294008e-15
30
0
40
80.000000000000014
100
AcDbArc
50
337.26793881139793
51
337.73245481382855
0
SPLINE
5
147
100
AcDbEntity
8
0
100
AcDbSpline
70
1064
71
5
72
21
73
15
74
0
42
0.000000001
43
0.0000000001
44
0.0000000001
40
0
40
0
40
0
40
0
40
0
40
0
40
0.10000000000000001
40
0.20000000000000001
40
0.30000000000000004
40
0.40000000000000002
40
0.5
40
0.59999999999999998
40
0.69999999999999996
40
0.79999999999999993
40
0.89999999999999991
40
0.99998532226633574
40
0.99998532226633574
40
0.99998532226633574
40
0.99998532226633574
40
0.99998532226633574
40
0.99998532226633574
10
-48.630918571258519
20
-1.4999601375407201
30
0
10
-49.423273758970865
20
-3.4775775174706665
30
0
10
-50.979802201772841
20
-7.0061299180709309
30
0
10
-53.230125800776662
20
-11.018844554303728
30
0
10
-55.989413316255536
20
-14.12718069349731
30
0
10
-58.708483030285734
20
-15.900922270280002
30
0
10
-60.410648613987021
20
-17.386873707140417
30
0
10
-61.092877915616413
20
-19.924346428164725
30
0
10
-61.208501881397908
20
-23.868066439601566
30
0
10
-62.140794465518496
20
-27.475606026600232
30
0
10
-64.483657245167734
20
-29.99309907617349
30
0
10
-67.680230750118
20
-30.857770592648492
30
0
10
-70.824343805124229
20
-30.841341519458751
30
0
10
-73.247458281076618
20
-30.538715319953095
30
0
10
-74.540651290350226
20
-30.314561582414839
30
0
0
LINE
5
148
100
AcDbEntity
8
0
100
AcDbLine
10
-48.630918571258519
20
-1.4999601375407201
30
0
11
-68.588665962006317
21
-1.4994723323516164
31
0
0
ENDSEC
0
SECTION
2
OBJECTS
0
DICTIONARY
5
C
100
AcDbDictionary
3
ACAD_GROUP
350
D
3
ACAD_MLINESTYLE
350
17
0
DICTIONARY
5
D
100
AcDbDictionary
0
DICTIONARY
5
1A
330
C
100
AcDbDictionary
0
DICTIONARY
5
17
100
AcDbDictionary
0
ENDSEC
0
EOF
